0
SECTION
2
HEADER
9
$EXTMIN
10
0.624466
20
0.366356
9
$EXTMAX
10
15.624222
20
12.856327
0
ENDSEC
0
SECTION
2
TABLES
0
TABLE
2
LTYPE
70
1
0
LTYPE
2
0
70
0
3
Solid Line
72
65
73
0
40
0.0
0
ENDTAB
0
TABLE
2
LAYER
70
1
0
LAYER
2
1
70
0
62
7
6
0
0
ENDTAB
0
ENDSEC
0
SECTION
2
BLOCKS
0
ENDSEC
0
SECTION
2
ENTITIES
0
POLYLINE
8
1
66
1
70
1
0
VERTEX
8
1
10
14.155975
20
3.839851
0
VERTEX
8
1
10
15.566650
20
3.839851
0
VERTEX
8
1
10
15.570282
20
3.843151
42
0.133190
0
VERTEX
8
1
10
15.612106
20
4.254959
42
0.131771
0
VERTEX
8
1
10
15.509933
20
4.459694
0
VERTEX
8
1
10
15.445328
20
4.518215
0
VERTEX
8
1
10
15.362091
20
4.568588
0
VERTEX
8
1
10
15.258194
20
4.608829
0
VERTEX
8
1
10
15.147491
20
4.634380
42
0.020942
0
VERTEX
8
1
10
14.709412
20
4.674980
0
VERTEX
8
1
10
14.688812
20
4.688663
42
0.084334
0
VERTEX
8
1
10
14.736252
20
5.035358
42
0.075591
0
VERTEX
8
1
10
14.719955
20
5.102013
42
0.220562
0
VERTEX
8
1
10
14.625916
20
5.138016
42
0.181977
0
VERTEX
8
1
10
14.608658
20
5.125973
42
0.270235
0
VERTEX
8
1
10
14.615982
20
5.238289
42
0.064327
0
VERTEX
8
1
10
14.557663
20
5.287640
42
-0.189026
0
VERTEX
8
1
10
14.539246
20
5.365128
42
-0.050169
0
VERTEX
8
1
10
14.575912
20
5.594933
42
0.019376
0
VERTEX
8
1
10
14.661560
20
6.024822
0
VERTEX
8
1
10
14.664276
20
6.056747
42
-0.034369
0
VERTEX
8
1
10
14.663803
20
6.350349
42
0.085961
0
VERTEX
8
1
10
14.711411
20
6.735146
0
VERTEX
8
1
10
14.754379
20
6.740032
42
0.072768
0
VERTEX
8
1
10
14.704727
20
6.770775
42
0.275223
0
VERTEX
8
1
10
14.632294
20
6.863419
42
-0.044284
0
VERTEX
8
1
10
14.189331
20
7.011292
42
-0.088847
0
VERTEX
8
1
10
14.048523
20
7.106041
0
VERTEX
8
1
10
14.027969
20
7.132629
42
-0.117644
0
VERTEX
8
1
10
13.972778
20
7.454536
42
0.035717
0
VERTEX
8
1
10
14.225433
20
7.903111
42
0.040869
0
VERTEX
8
1
10
14.264694
20
8.016132
42
-0.164945
0
VERTEX
8
1
10
14.308990
20
8.070686
42
-0.345531
0
VERTEX
8
1
10
14.335709
20
8.050320
42
-0.051366
0
VERTEX
8
1
10
14.371964
20
7.931870
0
VERTEX
8
1
10
14.379730
20
7.928665
0
VERTEX
8
1
10
14.387665
20
7.937283
42
0.288757
0
VERTEX
8
1
10
14.421860
20
8.049324
0
VERTEX
8
1
10
14.419266
20
8.057602
0
VERTEX
8
1
10
14.433929
20
8.076241
0
VERTEX
8
1
10
14.438156
20
8.081203
42
0.222248
0
VERTEX
8
1
10
14.441681
20
8.141171
0
VERTEX
8
1
10
14.446381
20
8.148407
0
VERTEX
8
1
10
14.463135
20
8.155746
0
VERTEX
8
1
10
14.470337
20
8.158718
42
0.538804
0
VERTEX
8
1
10
14.493958
20
8.220722
0
VERTEX
8
1
10
14.490448
20
8.228474
42
0.062828
0
VERTEX
8
1
10
14.373108
20
8.387520
42
0.006774
0
VERTEX
8
1
10
14.174255
20
8.613949
42
0.078561
0
VERTEX
8
1
10
14.290787
20
8.628113
42
0.708469
0
VERTEX
8
1
10
14.290665
20
8.643887
0
VERTEX
8
1
10
14.279343
20
8.650993
0
VERTEX
8
1
10
14.236176
20
8.670490
42
-0.019474
0
VERTEX
8
1
10
13.798721
20
8.938435
42
-0.051571
0
VERTEX
8
1
10
13.758224
20
8.962574
42
0.057453
0
VERTEX
8
1
10
13.820724
20
8.984531
0
VERTEX
8
1
10
13.823959
20
8.990776
0
VERTEX
8
1
10
13.822067
20
8.998283
0
VERTEX
8
1
10
13.813797
20
9.007214
0
VERTEX
8
1
10
13.797943
20
9.017723
0
VERTEX
8
1
10
13.773254
20
9.029980
42
0.069196
0
VERTEX
8
1
10
13.020020
20
9.210228
42
0.040293
0
VERTEX
8
1
10
12.173737
20
9.250706
0
VERTEX
8
1
10
12.102325
20
9.245605
42
-0.048110
0
VERTEX
8
1
10
11.145844
20
9.213356
42
-0.070613
0
VERTEX
8
1
10
10.886414
20
9.270924
0
VERTEX
8
1
10
10.773605
20
9.312954
42
0.056294
0
VERTEX
8
1
10
10.674377
20
9.338333
42
0.075941
0
VERTEX
8
1
10
10.593964
20
9.388130
42
0.037660
0
VERTEX
8
1
10
10.510391
20
9.396114
42
-0.262660
0
VERTEX
8
1
10
10.465775
20
9.436962
42
0.268726
0
VERTEX
8
1
10
10.415771
20
9.454826
42
0.038870
0
VERTEX
8
1
10
10.202255
20
9.435143
42
-0.040529
0
VERTEX
8
1
10
9.543808
20
9.397968
42
-0.101285
0
VERTEX
8
1
10
9.042007
20
9.533947
42
-0.066798
0
VERTEX
8
1
10
8.673203
20
9.767227
42
-0.110080
0
VERTEX
8
1
10
8.488800
20
10.029083
0
VERTEX
8
1
10
8.488861
20
10.029682
42
0.104709
0
VERTEX
8
1
10
8.674866
20
10.269547
0
VERTEX
8
1
10
8.708710
20
10.286911
42
0.024899
0
VERTEX
8
1
10
9.456329
20
10.620346
42
-0.042378
0
VERTEX
8
1
10
9.927902
20
10.814037
0
VERTEX
8
1
10
9.972885
20
10.825493
42
-0.088618
0
VERTEX
8
1
10
10.220474
20
10.847416
42
0.061685
0
VERTEX
8
1
10
10.673080
20
10.880974
0
VERTEX
8
1
10
10.712952
20
10.876637
42
0.077359
0
VERTEX
8
1
10
11.163803
20
10.808285
42
0.038988
0
VERTEX
8
1
10
11.675964
20
10.801460
42
0.045653
0
VERTEX
8
1
10
11.807999
20
10.827118
0
VERTEX
8
1
10
11.839905
20
10.824760
42
0.069668
0
VERTEX
8
1
10
12.344955
20
10.752808
42
0.101930
0
VERTEX
8
1
10
12.575394
20
10.798534
0
VERTEX
8
1
10
12.619949
20
10.824745
0
VERTEX
8
1
10
12.650970
20
10.852306
42
0.623988
0
VERTEX
8
1
10
12.627243
20
10.884750
42
0.082853
0
VERTEX
8
1
10
12.446564
20
10.862389
42
-0.118587
0
VERTEX
8
1
10
12.228760
20
10.872799
42
-0.036119
0
VERTEX
8
1
10
12.066925
20
10.918182
42
0.180349
0
VERTEX
8
1
10
12.199951
20
11.201035
42
0.341030
0
VERTEX
8
1
10
12.061172
20
11.406059
0
VERTEX
8
1
10
12.059479
20
11.398769
42
-0.061160
0
VERTEX
8
1
10
12.084869
20
11.267025
42
-0.184550
0
VERTEX
8
1
10
12.018341
20
11.111565
0
VERTEX
8
1
10
11.984085
20
11.076847
42
-0.198284
0
VERTEX
8
1
10
11.804092
20
10.995808
0
VERTEX
8
1
10
11.792770
20
10.997086
42
-0.490840
0
VERTEX
8
1
10
11.767151
20
11.029488
42
-0.008122
0
VERTEX
8
1
10
11.823578
20
11.248165
42
0.164784
0
VERTEX
8
1
10
11.821518
20
11.281269
0
VERTEX
8
1
10
11.814987
20
11.282539
0
VERTEX
8
1
10
11.805176
20
11.277313
42
0.067421
0
VERTEX
8
1
10
11.735321
20
11.164219
0
VERTEX
8
1
10
11.723328
20
11.144524
42
-0.233003
0
VERTEX
8
1
10
11.608093
20
11.055943
42
-0.072507
0
VERTEX
8
1
10
11.291656
20
11.062828
0
VERTEX
8
1
10
11.286346
20
11.068478
42
-0.165646
0
VERTEX
8
1
10
11.293030
20
11.142418
0
VERTEX
8
1
10
11.313599
20
11.212635
42
0.009812
0
VERTEX
8
1
10
11.354187
20
11.459881
42
0.131729
0
VERTEX
8
1
10
11.349823
20
11.494019
0
VERTEX
8
1
10
11.344254
20
11.496452
0
VERTEX
8
1
10
11.336151
20
11.493347
42
0.164804
0
VERTEX
8
1
10
11.219666
20
11.258755
42
-0.000586
0
VERTEX
8
1
10
11.181458
20
11.138710
42
-0.293074
0
VERTEX
8
1
10
11.144409
20
11.112560
42
-0.126128
0
VERTEX
8
1
10
10.993149
20
11.132191
42
-0.346228
0
VERTEX
8
1
10
10.968048
20
11.176403
0
VERTEX
8
1
10
10.970016
20
11.198971
42
-0.015859
0
VERTEX
8
1
10
11.029617
20
11.523720
42
0.041967
0
VERTEX
8
1
10
11.058807
20
11.799721
0
VERTEX
8
1
10
11.063873
20
11.837978
42
-0.078237
0
VERTEX
8
1
10
11.197678
20
12.270596
42
0.274573
0
VERTEX
8
1
10
11.155289
20
12.266796
42
0.126138
0
VERTEX
8
1
10
11.041611
20
12.155205
42
0.105595
0
VERTEX
8
1
10
10.901062
20
11.776718
42
0.015593
0
VERTEX
8
1
10
10.860626
20
11.530285
0
VERTEX
8
1
10
10.859039
20
11.523132
0
VERTEX
8
1
10
10.857285
20
11.521317
0
VERTEX
8
1
10
10.854370
20
11.527863
42
0.042162
0
VERTEX
8
1
10
10.788712
20
11.729588
42
0.164769
0
VERTEX
8
1
10
10.761444
20
11.760010
0
VERTEX
8
1
10
10.752121
20
11.759018
0
VERTEX
8
1
10
10.744720
20
11.749695
42
0.156152
0
VERTEX
8
1
10
10.743515
20
11.625484
42
-0.117588
0
VERTEX
8
1
10
10.743118
20
11.381306
42
-0.112020
0
VERTEX
8
1
10
10.667007
20
11.185329
42
-0.263127
0
VERTEX
8
1
10
10.519287
20
11.115124
42
-0.143800
0
VERTEX
8
1
10
10.362869
20
11.137981
42
-0.427845
0
VERTEX
8
1
10
10.349533
20
11.177166
42
-0.028438
0
VERTEX
8
1
10
10.395279
20
11.293930
42
0.017308
0
VERTEX
8
1
10
10.651154
20
11.895443
42
0.101865
0
VERTEX
8
1
10
10.679138
20
12.269260
42
0.015227
0
VERTEX
8
1
10
10.646667
20
12.509605
42
0.002180
0
VERTEX
8
1
10
10.638168
20
12.774883
42
0.231296
0
VERTEX
8
1
10
10.625290
20
12.803188
0
VERTEX
8
1
10
10.618027
20
12.799335
42
0.121642
0
VERTEX
8
1
10
10.533295
20
12.571751
0
VERTEX
8
1
10
10.526367
20
12.525833
0
VERTEX
8
1
10
10.521240
20
12.479683
42
-0.064503
0
VERTEX
8
1
10
10.431854
20
11.890385
42
-0.062894
0
VERTEX
8
1
10
10.274231
20
11.549191
42
0.027207
0
VERTEX
8
1
10
10.130554
20
11.265121
42
-0.266364
0
VERTEX
8
1
10
10.080734
20
11.322113
42
-0.081376
0
VERTEX
8
1
10
10.067413
20
11.406590
42
0.010091
0
VERTEX
8
1
10
10.046005
20
11.836067
42
0.071429
0
VERTEX
8
1
10
9.998276
20
12.069427
42
-0.034252
0
VERTEX
8
1
10
9.879669
20
12.600445
42
-0.054619
0
VERTEX
8
1
10
9.876068
20
12.715466
0
VERTEX
8
1
10
9.870682
20
12.725388
0
VERTEX
8
1
10
9.858276
20
12.720181
0
VERTEX
8
1
10
9.846985
20
12.710922
0
VERTEX
8
1
10
9.836731
20
12.697918
42
0.097324
0
VERTEX
8
1
10
9.782990
20
12.486099
0
VERTEX
8
1
10
9.778198
20
12.444450
0
VERTEX
8
1
10
9.773972
20
12.402737
42
0.108911
0
VERTEX
8
1
10
9.800980
20
12.051476
0
VERTEX
8
1
10
9.831757
20
11.935513
42
-0.054324
0
VERTEX
8
1
10
9.853622
20
11.791489
42
-0.033818
0
VERTEX
8
1
10
9.861359
20
11.239147
0
VERTEX
8
1
10
9.857330
20
11.214661
0
VERTEX
8
1
10
9.852173
20
11.200542
0
VERTEX
8
1
10
9.844238
20
11.191887
42
-0.179664
0
VERTEX
8
1
10
9.582291
20
11.138412
0
VERTEX
8
1
10
9.562103
20
11.144730
0
VERTEX
8
1
10
9.544571
20
11.153717
0
VERTEX
8
1
10
9.535477
20
11.170853
42
-0.032419
0
VERTEX
8
1
10
9.542511
20
11.443832
42
-0.007482
0
VERTEX
8
1
10
9.582565
20
11.880554
42
-0.010991
0
VERTEX
8
1
10
9.613922
20
12.437424
0
VERTEX
8
1
10
9.619370
20
12.477676
42
0.025660
0
VERTEX
8
1
10
9.685760
20
12.821957
42
0.203865
0
VERTEX
8
1
10
9.678635
20
12.856327
0
VERTEX
8
1
10
9.670914
20
12.853741
0
VERTEX
8
1
10
9.660019
20
12.842701
42
0.094064
0
VERTEX
8
1
10
9.389053
20
12.171242
0
VERTEX
8
1
10
9.380661
20
12.114662
42
-0.014498
0
VERTEX
8
1
10
9.262512
20
11.137409
0
VERTEX
8
1
10
9.258698
20
11.122181
0
VERTEX
8
1
10
9.252579
20
11.112324
42
-0.048045
0
VERTEX
8
1
10
8.825073
20
10.674332
42
-0.062047
0
VERTEX
8
1
10
8.734192
20
10.617798
0
VERTEX
8
1
10
8.733948
20
10.620121
0
VERTEX
8
1
10
8.729309
20
10.619606
42
-0.078285
0
VERTEX
8
1
10
8.657669
20
10.781921
42
-0.086435
0
VERTEX
8
1
10
8.602234
20
11.096786
42
0.019304
0
VERTEX
8
1
10
8.622040
20
11.533970
0
VERTEX
8
1
10
8.619705
20
11.555634
0
VERTEX
8
1
10
8.615860
20
11.569221
0
VERTEX
8
1
10
8.610306
20
11.573566
0
VERTEX
8
1
10
8.602814
20
11.567581
0
VERTEX
8
1
10
8.592575
20
11.552021
42
0.121098
0
VERTEX
8
1
10
8.468689
20
10.996445
42
0.070464
0
VERTEX
8
1
10
8.503235
20
10.804684
0
VERTEX
8
1
10
8.499176
20
10.799850
42
-0.015297
0
VERTEX
8
1
10
8.333984
20
11.049885
42
0.078247
0
VERTEX
8
1
10
8.293869
20
11.094532
0
VERTEX
8
1
10
8.286285
20
11.094707
0
VERTEX
8
1
10
8.282394
20
11.085529
42
0.110734
0
VERTEX
8
1
10
8.334518
20
10.907776
42
0.061532
0
VERTEX
8
1
10
8.527069
20
10.591236
0
VERTEX
8
1
10
8.524246
20
10.583206
42
-0.069416
0
VERTEX
8
1
10
8.352066
20
10.525818
0
VERTEX
8
1
10
8.345200
20
10.531586
42
-0.253881
0
VERTEX
8
1
10
8.234863
20
11.272945
0
VERTEX
8
1
10
8.239670
20
11.303837
0
VERTEX
8
1
10
8.231277
20
11.306786
0
VERTEX
8
1
10
8.222534
20
11.307091
42
0.199364
0
VERTEX
8
1
10
8.156097
20
11.250187
42
0.121688
0
VERTEX
8
1
10
8.081528
20
11.059689
42
0.062958
0
VERTEX
8
1
10
8.070618
20
10.594913
0
VERTEX
8
1
10
8.077209
20
10.563194
0
VERTEX
8
1
10
8.085617
20
10.538586
0
VERTEX
8
1
10
8.071854
20
10.537956
0
VERTEX
8
1
10
8.042252
20
10.553654
0
VERTEX
8
1
10
8.010590
20
10.575542
42
-0.141720
0
VERTEX
8
1
10
7.695343
20
11.043629
0
VERTEX
8
1
10
7.685181
20
11.090313
0
VERTEX
8
1
10
7.679840
20
11.130104
42
0.322854
0
VERTEX
8
1
10
7.622559
20
11.066254
42
0.183511
0
VERTEX
8
1
10
7.634720
20
10.913631
42
0.042050
0
VERTEX
8
1
10
7.834991
20
10.498627
42
-0.439090
0
VERTEX
8
1
10
7.843170
20
10.477715
0
VERTEX
8
1
10
7.836105
20
10.476551
42
-0.046884
0
VERTEX
8
1
10
7.643616
20
10.531292
0
VERTEX
8
1
10
7.601837
20
10.544376
42
-0.178078
0
VERTEX
8
1
10
7.437302
20
10.640583
42
-0.120240
0
VERTEX
8
1
10
7.214813
20
11.054466
42
-0.094615
0
VERTEX
8
1
10
7.209213
20
11.174137
42
0.253831
0
VERTEX
8
1
10
7.141235
20
11.106972
42
0.139856
0
VERTEX
8
1
10
7.122269
20
10.951923
0
VERTEX
8
1
10
7.120087
20
10.942249
0
VERTEX
8
1
10
7.111664
20
10.946327
0
VERTEX
8
1
10
7.102921
20
10.955597
0
VERTEX
8
1
10
7.094086
20
10.969471
42
-0.149588
0
VERTEX
8
1
10
7.053741
20
11.258869
0
VERTEX
8
1
10
7.060974
20
11.282429
42
0.388207
0
VERTEX
8
1
10
6.986221
20
11.254551
42
0.154249
0
VERTEX
8
1
10
6.935715
20
11.050484
42
0.106157
0
VERTEX
8
1
10
7.065109
20
10.560375
42
0.196708
0
VERTEX
8
1
10
7.331131
20
10.333530
42
0.028409
0
VERTEX
8
1
10
7.760483
20
10.207840
42
-0.208755
0
VERTEX
8
1
10
7.799683
20
10.188110
0
VERTEX
8
1
10
7.800064
20
10.185139
0
VERTEX
8
1
10
7.797699
20
10.185570
42
0.028297
0
VERTEX
8
1
10
7.658859
20
10.086445
42
-0.062378
0
VERTEX
8
1
10
7.544769
20
10.030739
0
VERTEX
8
1
10
7.451706
20
10.004105
42
0.081253
0
VERTEX
8
1
10
7.422485
20
9.990059
42
-0.034494
0
VERTEX
8
1
10
7.056595
20
9.764816
0
VERTEX
8
1
10
7.011551
20
9.737667
42
-0.030054
0
VERTEX
8
1
10
6.760727
20
9.594856
42
0.318899
0
VERTEX
8
1
10
6.719055
20
9.507103
42
0.237676
0
VERTEX
8
1
10
6.861160
20
9.236588
0
VERTEX
8
1
10
6.880646
20
9.225132
42
0.265650
0
VERTEX
8
1
10
7.063461
20
9.217239
42
-0.193478
0
VERTEX
8
1
10
7.246872
20
9.212444
42
0.024942
0
VERTEX
8
1
10
7.509262
20
9.113430
42
0.269683
0
VERTEX
8
1
10
7.542999
20
9.115135
0
VERTEX
8
1
10
7.543442
20
9.120686
42
-0.315484
0
VERTEX
8
1
10
7.542603
20
9.181160
42
-0.271937
0
VERTEX
8
1
10
7.597031
20
9.184792
42
-0.219609
0
VERTEX
8
1
10
7.697830
20
9.097126
42
-0.107977
0
VERTEX
8
1
10
7.781830
20
8.817795
0
VERTEX
8
1
10
7.757141
20
8.812267
42
0.001906
0
VERTEX
8
1
10
7.538834
20
8.777004
0
VERTEX
8
1
10
7.502930
20
8.769566
0
VERTEX
8
1
10
7.342590
20
8.720848
0
VERTEX
8
1
10
7.137360
20
8.681904
0
VERTEX
8
1
10
7.023743
20
8.614105
0
VERTEX
8
1
10
6.886856
20
8.575111
0
VERTEX
8
1
10
6.784653
20
8.507332
42
-0.016527
0
VERTEX
8
1
10
6.511429
20
8.526543
0
VERTEX
8
1
10
6.385864
20
8.439182
42
0.069510
0
VERTEX
8
1
10
6.233688
20
8.351883
42
-0.168254
0
VERTEX
8
1
10
6.169815
20
8.304420
42
-0.022814
0
VERTEX
8
1
10
6.044327
20
8.254711
0
VERTEX
8
1
10
5.851563
20
8.283714
0
VERTEX
8
1
10
5.660019
20
8.322105
0
VERTEX
8
1
10
5.509872
20
8.342003
0
VERTEX
8
1
10
5.429459
20
8.380917
0
VERTEX
8
1
10
5.258453
20
8.361435
0
VERTEX
8
1
10
5.113098
20
8.304230
42
0.037646
0
VERTEX
8
1
10
4.895172
20
8.220867
42
-0.015917
0
VERTEX
8
1
10
4.757751
20
8.177055
0
VERTEX
8
1
10
4.655151
20
8.167290
42
-0.244477
0
VERTEX
8
1
10
4.543716
20
8.139553
42
0.120874
0
VERTEX
8
1
10
4.461548
20
8.109074
0
VERTEX
8
1
10
4.336517
20
8.128464
42
-0.045503
0
VERTEX
8
1
10
3.846985
20
8.060535
0
VERTEX
8
1
10
3.755661
20
7.973141
0
VERTEX
8
1
10
3.630707
20
7.924698
0
VERTEX
8
1
10
3.506516
20
7.847733
0
VERTEX
8
1
10
3.371567
20
7.789940
0
VERTEX
8
1
10
3.324356
20
7.798298
42
-0.117447
0
VERTEX
8
1
10
3.174347
20
7.848087
0
VERTEX
8
1
10
3.165909
20
7.855778
42
-0.099988
0
VERTEX
8
1
10
3.112854
20
7.997944
42
-0.030288
0
VERTEX
8
1
10
3.087036
20
8.130020
42
0.064584
0
VERTEX
8
1
10
3.337387
20
8.140839
42
0.182453
0
VERTEX
8
1
10
3.386230
20
8.170284
0
VERTEX
8
1
10
3.388031
20
8.185081
42
0.201978
0
VERTEX
8
1
10
3.224335
20
8.323158
42
-0.079925
0
VERTEX
8
1
10
3.034714
20
8.409271
42
-0.393432
0
VERTEX
8
1
10
3.015778
20
8.477451
0
VERTEX
8
1
10
3.028610
20
8.492729
0
VERTEX
8
1
10
3.047897
20
8.507252
0
VERTEX
8
1
10
3.072250
20
8.519779
42
-0.033904
0
VERTEX
8
1
10
3.287720
20
8.577305
42
0.113180
0
VERTEX
8
1
10
3.340973
20
8.602798
0
VERTEX
8
1
10
3.345093
20
8.613670
0
VERTEX
8
1
10
3.340469
20
8.626247
0
VERTEX
8
1
10
3.325974
20
8.640831
42
0.121986
0
VERTEX
8
1
10
3.121780
20
8.711647
42
-0.263678
0
VERTEX
8
1
10
3.026764
20
8.783600
42
-0.055720
0
VERTEX
8
1
10
2.914505
20
9.158993
42
-0.535000
0
VERTEX
8
1
10
2.933670
20
9.178978
42
-0.104178
0
VERTEX
8
1
10
3.066559
20
9.145336
42
0.081725
0
VERTEX
8
1
10
3.237106
20
9.148453
42
0.444810
0
VERTEX
8
1
10
3.282578
20
9.207905
0
VERTEX
8
1
10
3.273972
20
9.228828
0
VERTEX
8
1
10
3.261124
20
9.248508
42
0.145128
0
VERTEX
8
1
10
3.095612
20
9.340340
42
-0.088727
0
VERTEX
8
1
10
2.993042
20
9.382942
42
-0.069321
0
VERTEX
8
1
10
2.899841
20
9.526562
42
0.089774
0
VERTEX
8
1
10
3.048843
20
9.566257
42
0.584950
0
VERTEX
8
1
10
3.061066
20
9.643906
42
0.131851
0
VERTEX
8
1
10
2.941757
20
9.701664
42
-0.200583
0
VERTEX
8
1
10
2.888733
20
9.737354
0
VERTEX
8
1
10
2.887009
20
9.749607
42
-0.263188
0
VERTEX
8
1
10
2.978775
20
9.849419
42
0.081504
0
VERTEX
8
1
10
3.037430
20
9.882423
42
0.395985
0
VERTEX
8
1
10
3.027878
20
9.921879
42
-0.022991
0
VERTEX
8
1
10
2.909775
20
10.043571
42
-0.212498
0
VERTEX
8
1
10
2.863846
20
10.166916
42
-0.214304
0
VERTEX
8
1
10
2.914764
20
10.235138
42
-0.022391
0
VERTEX
8
1
10
3.050095
20
10.312645
42
0.206579
0
VERTEX
8
1
10
3.077240
20
10.346279
0
VERTEX
8
1
10
3.072571
20
10.357452
0
VERTEX
8
1
10
3.059128
20
10.368790
42
0.158435
0
VERTEX
8
1
10
2.911926
20
10.400875
42
0.026455
0
VERTEX
8
1
10
2.881912
20
10.392620
0
VERTEX
8
1
10
2.878265
20
10.393703
42
-0.130296
0
VERTEX
8
1
10
2.862686
20
10.470825
0
VERTEX
8
1
10
2.869385
20
10.491554
42
-0.049943
0
VERTEX
8
1
10
2.941559
20
10.590996
42
0.401786
0
VERTEX
8
1
10
2.939514
20
10.692474
0
VERTEX
8
1
10
2.913544
20
10.714100
0
VERTEX
8
1
10
2.875519
20
10.736401
0
VERTEX
8
1
10
2.823944
20
10.759472
0
VERTEX
8
1
10
2.804367
20
10.771675
42
0.017645
0
VERTEX
8
1
10
2.728149
20
11.313110
0
VERTEX
8
1
10
2.719589
20
11.345695
0
VERTEX
8
1
10
2.712021
20
11.361290
0
VERTEX
8
1
10
2.705704
20
11.356625
0
VERTEX
8
1
10
2.700928
20
11.328434
0
VERTEX
8
1
10
2.697952
20
11.273895
42
-0.008552
0
VERTEX
8
1
10
2.688705
20
10.716084
42
-0.105697
0
VERTEX
8
1
10
2.649048
20
10.556896
0
VERTEX
8
1
10
2.634628
20
10.538433
42
-0.038776
0
VERTEX
8
1
10
2.495270
20
10.418732
0
VERTEX
8
1
10
2.483551
20
10.406685
42
0.534625
0
VERTEX
8
1
10
2.484421
20
10.354694
42
0.006022
0
VERTEX
8
1
10
2.599518
20
10.305595
0
VERTEX
8
1
10
2.609467
20
10.298676
42
-0.178035
0
VERTEX
8
1
10
2.656937
20
10.185581
42
-0.069991
0
VERTEX
8
1
10
2.670212
20
9.925606
42
-0.253564
0
VERTEX
8
1
10
2.628662
20
9.859776
42
0.068140
0
VERTEX
8
1
10
2.529892
20
9.767052
42
0.449810
0
VERTEX
8
1
10
2.539001
20
9.723633
42
0.325075
0
VERTEX
8
1
10
2.625809
20
9.719818
0
VERTEX
8
1
10
2.627045
20
9.717197
42
-0.244031
0
VERTEX
8
1
10
2.592987
20
9.609665
42
-0.022586
0
VERTEX
8
1
10
2.416336
20
9.442944
42
0.098154
0
VERTEX
8
1
10
2.376556
20
9.389320
0
VERTEX
8
1
10
2.376862
20
9.376621
0
VERTEX
8
1
10
2.385941
20
9.367142
42
0.105152
0
VERTEX
8
1
10
2.540817
20
9.360821
42
-0.137688
0
VERTEX
8
1
10
2.660110
20
9.350857
0
VERTEX
8
1
10
2.671509
20
9.341347
0
VERTEX
8
1
10
2.679428
20
9.328388
42
-0.077911
0
VERTEX
8
1
10
2.680359
20
9.130726
0
VERTEX
8
1
10
2.675522
20
9.090199
42
0.068662
0
VERTEX
8
1
10
2.481674
20
8.876900
0
VERTEX
8
1
10
2.472748
20
8.857082
42
0.611315
0
VERTEX
8
1
10
2.499954
20
8.814285
42
0.209008
0
VERTEX
8
1
10
2.571350
20
8.832130
0
VERTEX
8
1
10
2.572968
20
8.831154
42
-0.183000
0
VERTEX
8
1
10
2.527969
20
8.718269
42
-0.014033
0
VERTEX
8
1
10
2.262543
20
8.407101
42
0.043531
0
VERTEX
8
1
10
2.190872
20
8.308865
0
VERTEX
8
1
10
2.185730
20
8.290966
0
VERTEX
8
1
10
2.192932
20
8.282806
0
VERTEX
8
1
10
2.214279
20
8.285763
42
-0.007662
0
VERTEX
8
1
10
2.454727
20
8.360672
42
0.095228
0
VERTEX
8
1
10
2.439148
20
8.249306
42
0.618278
0
VERTEX
8
1
10
2.469482
20
8.234474
0
VERTEX
8
1
10
2.485153
20
8.243832
0
VERTEX
8
1
10
2.504837
20
8.260082
0
VERTEX
8
1
10
2.621780
20
8.368923
0
VERTEX
8
1
10
2.635773
20
7.979496
42
0.032648
0
VERTEX
8
1
10
2.359497
20
7.721504
42
0.135823
0
VERTEX
8
1
10
2.326981
20
7.663872
0
VERTEX
8
1
10
2.334885
20
7.656723
0
VERTEX
8
1
10
2.372864
20
7.656799
42
-0.427955
0
VERTEX
8
1
10
2.454834
20
7.582878
0
VERTEX
8
1
10
2.380188
20
7.526745
0
VERTEX
8
1
10
2.195908
20
7.429466
0
VERTEX
8
1
10
2.228561
20
7.408482
42
0.048416
0
VERTEX
8
1
10
2.016266
20
7.214184
0
VERTEX
8
1
10
2.008987
20
7.202702
42
0.841128
0
VERTEX
8
1
10
2.020447
20
7.181183
42
-0.025380
0
VERTEX
8
1
10
2.259949
20
7.186611
42
0.070960
0
VERTEX
8
1
10
2.234665
20
7.005249
42
0.746185
0
VERTEX
8
1
10
2.263184
20
6.989365
42
0.097659
0
VERTEX
8
1
10
2.393906
20
7.149147
0
VERTEX
8
1
10
2.412704
20
7.181244
42
0.199111
0
VERTEX
8
1
10
2.474243
20
7.081299
42
0.282088
0
VERTEX
8
1
10
2.529388
20
7.089752
42
-0.053136
0
VERTEX
8
1
10
2.705139
20
7.198601
0
VERTEX
8
1
10
2.698715
20
7.018497
0
VERTEX
8
1
10
2.697495
20
7.017700
0
VERTEX
8
1
10
2.460983
20
6.916553
42
0.072937
0
VERTEX
8
1
10
2.227417
20
6.807854
42
0.323321
0
VERTEX
8
1
10
2.211472
20
6.770782
0
VERTEX
8
1
10
2.223236
20
6.760590
42
0.006419
0
VERTEX
8
1
10
2.423447
20
6.691448
0
VERTEX
8
1
10
2.434692
20
6.685425
42
-0.775133
0
VERTEX
8
1
10
2.434509
20
6.651718
42
-0.033742
0
VERTEX
8
1
10
2.241333
20
6.580692
42
0.104036
0
VERTEX
8
1
10
2.144836
20
6.531338
0
VERTEX
8
1
10
2.142380
20
6.522198
0
VERTEX
8
1
10
2.147552
20
6.513351
42
-0.200499
0
VERTEX
8
1
10
2.231689
20
6.395603
42
0.026580
0
VERTEX
8
1
10
1.897736
20
5.992039
0
VERTEX
8
1
10
1.873154
20
5.952862
0
VERTEX
8
1
10
1.859070
20
5.922775
0
VERTEX
8
1
10
1.857681
20
5.903996
0
VERTEX
8
1
10
1.871216
20
5.898743
0
VERTEX
8
1
10
1.901917
20
5.909237
42
-0.024040
0
VERTEX
8
1
10
2.418091
20
6.166588
42
0.076699
0
VERTEX
8
1
10
2.366577
20
5.999195
42
0.267942
0
VERTEX
8
1
10
2.381134
20
5.963261
0
VERTEX
8
1
10
2.394592
20
5.961506
0
VERTEX
8
1
10
2.413315
20
5.966427
42
0.088341
0
VERTEX
8
1
10
2.620102
20
6.127472
0
VERTEX
8
1
10
2.659714
20
6.169075
0
VERTEX
8
1
10
2.697678
20
6.212185
0
VERTEX
8
1
10
2.676987
20
5.294468
0
VERTEX
8
1
10
2.635330
20
5.293076
0
VERTEX
8
1
10
1.627090
20
5.339729
0
VERTEX
8
1
10
1.624466
20
5.352943
0
VERTEX
8
1
10
1.624466
20
6.584694
0
VERTEX
8
1
10
1.622330
20
6.589855
0
VERTEX
8
1
10
0.624588
20
6.589851
0
VERTEX
8
1
10
0.624466
20
2.608521
0
VERTEX
8
1
10
0.626221
20
2.589855
0
VERTEX
8
1
10
1.624222
20
2.589851
0
VERTEX
8
1
10
1.624481
20
2.600964
0
VERTEX
8
1
10
1.624466
20
3.833298
0
VERTEX
8
1
10
1.626572
20
3.839851
0
VERTEX
8
1
10
3.092773
20
3.839851
42
1.462070
0
VERTEX
8
1
10
3.558884
20
3.838467
0
VERTEX
8
1
10
3.626663
20
3.839848
0
VERTEX
8
1
10
13.618011
20
3.839851
0
VERTEX
8
1
10
13.690048
20
3.838593
42
1.462917
0
SEQEND
0
POLYLINE
8
1
66
1
70
1
0
VERTEX
8
1
10
9.219940
20
10.720871
42
-0.050087
0
VERTEX
8
1
10
9.450912
20
10.887177
42
-0.115003
0
VERTEX
8
1
10
9.640656
20
10.918850
0
VERTEX
8
1
10
9.206390
20
10.707581
0
VERTEX
8
1
10
9.210358
20
10.712036
0
SEQEND
0
CIRCLE
8
1
10
1.124502
20
2.910204
40
0.036253
0
CIRCLE
8
1
10
1.124502
20
4.589851
40
0.036254
0
CIRCLE
8
1
10
1.124502
20
6.269493
40
0.036251
0
POLYLINE
8
1
66
1
70
1
0
VERTEX
8
1
10
12.452240
20
5.457581
42
-0.038222
0
VERTEX
8
1
10
12.244186
20
5.034824
42
-0.141449
0
VERTEX
8
1
10
12.149277
20
4.935951
42
-0.004225
0
VERTEX
8
1
10
11.975693
20
4.836857
0
VERTEX
8
1
10
11.872513
20
4.841335
42
0.000725
0
VERTEX
8
1
10
9.531052
20
4.961685
0
VERTEX
8
1
10
9.490860
20
4.969124
42
-0.033567
0
VERTEX
8
1
10
9.525009
20
5.046478
0
VERTEX
8
1
10
9.703156
20
5.647137
42
0.054818
0
VERTEX
8
1
10
9.866394
20
5.977970
42
0.021694
0
VERTEX
8
1
10
10.070190
20
6.501980
42
0.061233
0
VERTEX
8
1
10
10.083176
20
6.563660
42
-0.030115
0
VERTEX
8
1
10
10.319183
20
6.750759
42
0.039668
0
VERTEX
8
1
10
10.565659
20
6.952721
42
-0.267530
0
VERTEX
8
1
10
10.592224
20
6.973343
0
VERTEX
8
1
10
10.611435
20
6.975113
0
VERTEX
8
1
10
10.636566
20
6.975266
42
0.023511
0
VERTEX
8
1
10
11.134735
20
6.959679
42
0.059775
0
VERTEX
8
1
10
11.592865
20
7.032410
42
0.018235
0
VERTEX
8
1
10
12.278992
20
7.231529
0
VERTEX
8
1
10
12.445328
20
7.153912
0
VERTEX
8
1
10
12.445801
20
7.152870
42
0.023546
0
VERTEX
8
1
10
12.541153
20
6.494366
0
VERTEX
8
1
10
12.546707
20
6.471695
42
-0.046538
0
VERTEX
8
1
10
12.614914
20
5.925800
42
-0.107404
0
VERTEX
8
1
10
12.599197
20
5.846169
42
-0.018271
0
SEQEND
0
POLYLINE
8
1
66
1
70
1
0
VERTEX
8
1
10
9.464111
20
5.885071
42
0.266057
0
VERTEX
8
1
10
9.465912
20
5.934437
0
VERTEX
8
1
10
9.457764
20
5.954144
0
VERTEX
8
1
10
9.444107
20
5.977478
42
-0.089041
0
VERTEX
8
1
10
9.318237
20
6.194153
0
VERTEX
8
1
10
9.300644
20
6.411858
42
-0.040744
0
VERTEX
8
1
10
9.306656
20
6.533375
42
-0.161393
0
VERTEX
8
1
10
9.459763
20
6.709545
42
-0.024056
0
VERTEX
8
1
10
9.634872
20
6.813610
0
VERTEX
8
1
10
9.651764
20
6.812531
42
-0.017838
0
VERTEX
8
1
10
9.659088
20
6.663685
0
VERTEX
8
1
10
9.645782
20
6.644588
42
-0.013405
0
VERTEX
8
1
10
9.596146
20
6.444817
0
VERTEX
8
1
10
9.590576
20
6.434402
42
0.049857
0
VERTEX
8
1
10
9.509537
20
6.172199
42
0.016143
0
VERTEX
8
1
10
9.501633
20
5.979221
42
-0.052629
0
VERTEX
8
1
10
9.514114
20
5.950203
42
0.028921
0
VERTEX
8
1
10
9.498917
20
5.853130
0
VERTEX
8
1
10
9.492569
20
5.847477
0
SEQEND
0
POLYLINE
8
1
66
1
70
1
0
VERTEX
8
1
10
3.494095
20
7.720707
0
VERTEX
8
1
10
3.573517
20
7.720703
0
VERTEX
8
1
10
3.607559
20
7.778740
42
0.126516
0
VERTEX
8
1
10
3.675446
20
7.785572
0
VERTEX
8
1
10
3.684143
20
7.792744
0
VERTEX
8
1
10
3.689728
20
7.802986
42
-0.068830
0
VERTEX
8
1
10
3.801239
20
7.895443
0
VERTEX
8
1
10
3.846710
20
7.876072
0
VERTEX
8
1
10
3.948303
20
7.904903
0
VERTEX
8
1
10
3.948853
20
7.903927
0
VERTEX
8
1
10
3.915085
20
7.798260
0
VERTEX
8
1
10
3.915085
20
7.749832
0
VERTEX
8
1
10
3.893784
20
7.695286
42
-0.077139
0
VERTEX
8
1
10
3.824112
20
7.603928
42
-0.305905
0
VERTEX
8
1
10
3.816513
20
7.515259
42
0.071709
0
VERTEX
8
1
10
3.790268
20
7.441303
42
0.056130
0
VERTEX
8
1
10
3.687653
20
7.455429
42
0.055522
0
VERTEX
8
1
10
3.782364
20
7.531788
0
VERTEX
8
1
10
3.799377
20
7.557011
0
VERTEX
8
1
10
3.801682
20
7.579693
0
VERTEX
8
1
10
3.783234
20
7.597271
0
VERTEX
8
1
10
3.738525
20
7.607281
42
0.035992
0
VERTEX
8
1
10
3.465057
20
7.612347
42
-0.040660
0
VERTEX
8
1
10
3.337753
20
7.624321
0
VERTEX
8
1
10
3.326126
20
7.631042
0
VERTEX
8
1
10
3.326233
20
7.639423
0
VERTEX
8
1
10
3.335907
20
7.649204
42
-0.063686
0
SEQEND
0
POLYLINE
8
1
66
1
70
1
0
VERTEX
8
1
10
3.091385
20
5.286469
0
VERTEX
8
1
10
3.092789
20
6.378731
42
0.058205
0
VERTEX
8
1
10
3.286346
20
6.248417
0
VERTEX
8
1
10
3.320663
20
6.236057
0
VERTEX
8
1
10
3.349640
20
6.233002
0
VERTEX
8
1
10
3.370941
20
6.241833
0
VERTEX
8
1
10
3.382599
20
6.264347
0
VERTEX
8
1
10
3.411530
20
6.353428
42
0.046432
0
VERTEX
8
1
10
3.669281
20
6.280594
0
VERTEX
8
1
10
3.716476
20
6.276512
0
VERTEX
8
1
10
3.754410
20
6.280273
0
VERTEX
8
1
10
3.779129
20
6.293983
0
VERTEX
8
1
10
3.786636
20
6.319736
42
0.001619
0
VERTEX
8
1
10
3.762497
20
6.452003
42
0.037684
0
VERTEX
8
1
10
4.050888
20
6.543507
0
VERTEX
8
1
10
4.097458
20
6.567909
0
VERTEX
8
1
10
4.125687
20
6.592335
0
VERTEX
8
1
10
4.128845
20
6.615807
0
VERTEX
8
1
10
4.100250
20
6.637348
42
0.070673
0
VERTEX
8
1
10
3.605606
20
6.707897
0
VERTEX
8
1
10
3.601746
20
6.710121
0
VERTEX
8
1
10
3.279800
20
6.941784
0
VERTEX
8
1
10
3.184006
20
6.987103
0
VERTEX
8
1
10
3.191391
20
7.193474
0
VERTEX
8
1
10
3.191681
20
7.194527
42
0.123585
0
VERTEX
8
1
10
3.254120
20
7.099155
42
0.271100
0
VERTEX
8
1
10
3.306992
20
7.090672
0
VERTEX
8
1
10
3.482941
20
7.184761
42
0.050228
0
VERTEX
8
1
10
3.717697
20
7.097134
0
VERTEX
8
1
10
3.752838
20
7.092934
0
VERTEX
8
1
10
3.777893
20
7.097271
0
VERTEX
8
1
10
3.789337
20
7.112293
0
VERTEX
8
1
10
3.785065
20
7.139332
0
VERTEX
8
1
10
3.793686
20
7.161339
0
VERTEX
8
1
10
3.823288
20
7.172997
42
-0.027914
0
VERTEX
8
1
10
4.030853
20
7.175701
0
VERTEX
8
1
10
4.074860
20
7.180317
0
VERTEX
8
1
10
4.103638
20
7.192471
0
VERTEX
8
1
10
4.111160
20
7.215153
0
VERTEX
8
1
10
4.091385
20
7.251339
42
0.142586
0
VERTEX
8
1
10
3.794708
20
7.439724
0
VERTEX
8
1
10
3.869553
20
7.448849
42
-0.219655
0
VERTEX
8
1
10
3.908691
20
7.521053
42
0.069119
0
VERTEX
8
1
10
3.972076
20
7.623718
0
VERTEX
8
1
10
3.981842
20
7.638382
42
0.073071
0
VERTEX
8
1
10
4.044510
20
7.718678
42
-0.067965
0
VERTEX
8
1
10
4.141129
20
7.806793
0
VERTEX
8
1
10
4.246078
20
7.876320
0
VERTEX
8
1
10
4.438324
20
7.943821
0
VERTEX
8
1
10
4.518555
20
8.002262
0
VERTEX
8
1
10
4.564178
20
7.963459
0
VERTEX
8
1
10
4.609344
20
7.982712
0
VERTEX
8
1
10
4.689240
20
7.963467
0
VERTEX
8
1
10
4.782623
20
7.972275
42
0.136201
0
VERTEX
8
1
10
4.939240
20
8.029816
42
-0.099321
0
VERTEX
8
1
10
5.072021
20
8.066509
42
-0.198571
0
VERTEX
8
1
10
5.206726
20
8.061699
42
-0.189213
0
VERTEX
8
1
10
5.224838
20
8.021683
0
VERTEX
8
1
10
5.326630
20
8.021683
42
-0.039866
0
VERTEX
8
1
10
5.623413
20
8.128784
0
VERTEX
8
1
10
5.702530
20
8.186623
0
VERTEX
8
1
10
5.805191
20
8.215878
0
VERTEX
8
1
10
5.862411
20
8.175209
42
0.236476
0
VERTEX
8
1
10
5.966797
20
8.149220
42
-0.142081
0
VERTEX
8
1
10
6.044250
20
8.118813
0
VERTEX
8
1
10
5.977432
20
8.080772
42
0.166794
0
VERTEX
8
1
10
5.919693
20
8.027054
0
VERTEX
8
1
10
5.918518
20
8.010834
42
-0.458651
0
VERTEX
8
1
10
5.867386
20
7.962982
42
0.101723
0
VERTEX
8
1
10
5.773148
20
7.916359
0
VERTEX
8
1
10
5.691269
20
7.866287
0
VERTEX
8
1
10
5.612274
20
7.789318
0
VERTEX
8
1
10
5.612228
20
7.788837
0
VERTEX
8
1
10
5.646545
20
7.798885
42
0.076389
0
VERTEX
8
1
10
5.843292
20
7.880295
0
VERTEX
8
1
10
5.875443
20
7.897655
0
VERTEX
8
1
10
5.907669
20
7.914879
0
VERTEX
8
1
10
5.987427
20
7.934383
0
VERTEX
8
1
10
6.032623
20
7.992184
0
VERTEX
8
1
10
6.098755
20
8.039337
42
-0.130799
0
VERTEX
8
1
10
6.204071
20
8.099365
42
-0.105991
0
VERTEX
8
1
10
6.431137
20
8.067005
0
VERTEX
8
1
10
6.459915
20
8.058620
42
0.016900
0
VERTEX
8
1
10
6.567719
20
8.003834
0
VERTEX
8
1
10
6.577988
20
8.002293
42
0.005493
0
VERTEX
8
1
10
6.760880
20
7.979588
42
0.012733
0
VERTEX
8
1
10
6.858673
20
7.943214
0
VERTEX
8
1
10
6.869431
20
7.942902
42
-0.204044
0
VERTEX
8
1
10
6.948151
20
7.936218
42
0.070066
0
VERTEX
8
1
10
7.069000
20
7.924595
42
-0.072951
0
VERTEX
8
1
10
7.223099
20
7.845673
42
0.141927
0
VERTEX
8
1
10
7.296402
20
7.837597
0
VERTEX
8
1
10
7.228561
20
7.905056
42
-0.067703
0
VERTEX
8
1
10
7.094131
20
8.000885
42
0.081255
0
VERTEX
8
1
10
6.995300
20
8.042980
42
0.099922
0
VERTEX
8
1
10
6.962891
20
8.034454
42
-0.290891
0
VERTEX
8
1
10
7.003906
20
8.214176
42
0.222380
0
VERTEX
8
1
10
7.011810
20
8.265373
0
VERTEX
8
1
10
7.000763
20
8.303116
0
VERTEX
8
1
10
7.136871
20
8.409679
0
VERTEX
8
1
10
7.273956
20
8.536243
42
-0.016552
0
VERTEX
8
1
10
7.456635
20
8.642708
0
VERTEX
8
1
10
7.558411
20
8.565575
0
VERTEX
8
1
10
7.638336
20
8.575115
0
VERTEX
8
1
10
7.729538
20
8.633369
0
VERTEX
8
1
10
7.784470
20
8.633369
42
-0.040663
0
VERTEX
8
1
10
7.764771
20
8.516045
0
VERTEX
8
1
10
7.768677
20
8.516338
42
0.094119
0
VERTEX
8
1
10
7.833618
20
8.602360
42
0.164441
0
VERTEX
8
1
10
7.873215
20
8.581646
42
0.008010
0
VERTEX
8
1
10
7.869553
20
8.482597
0
VERTEX
8
1
10
7.855133
20
8.468769
0
VERTEX
8
1
10
7.809052
20
8.371178
0
VERTEX
8
1
10
7.707581
20
8.294243
0
VERTEX
8
1
10
7.661240
20
8.264500
0
VERTEX
8
1
10
7.661118
20
8.177036
0
VERTEX
8
1
10
7.629486
20
8.114105
0
VERTEX
8
1
10
7.581421
20
8.011467
0
VERTEX
8
1
10
7.581421
20
7.924736
0
VERTEX
8
1
10
7.570007
20
7.866329
0
VERTEX
8
1
10
7.388214
20
7.672531
0
VERTEX
8
1
10
7.388474
20
7.672298
0
VERTEX
8
1
10
7.467484
20
7.691555
0
VERTEX
8
1
10
7.547302
20
7.749859
42
0.026726
0
VERTEX
8
1
10
7.692001
20
7.918282
42
0.068048
0
VERTEX
8
1
10
7.740707
20
8.037155
0
VERTEX
8
1
10
7.741623
20
8.047581
42
-0.042231
0
VERTEX
8
1
10
7.867859
20
8.309536
0
VERTEX
8
1
10
7.870392
20
8.309052
42
0.061960
0
VERTEX
8
1
10
7.884201
20
8.181324
0
VERTEX
8
1
10
7.887558
20
8.179539
0
VERTEX
8
1
10
7.891312
20
8.183338
0
VERTEX
8
1
10
7.895462
20
8.193226
42
-0.061856
0
VERTEX
8
1
10
7.979904
20
8.407913
0
VERTEX
8
1
10
7.991013
20
8.421818
0
VERTEX
8
1
10
8.000000
20
8.426136
0
VERTEX
8
1
10
8.006287
20
8.419182
0
VERTEX
8
1
10
8.009262
20
8.399284
0
VERTEX
8
1
10
8.008606
20
8.364807
42
0.017573
0
VERTEX
8
1
10
7.982742
20
8.017189
0
VERTEX
8
1
10
7.984406
20
7.973114
0
VERTEX
8
1
10
7.990524
20
7.943680
0
VERTEX
8
1
10
8.002121
20
7.932896
0
VERTEX
8
1
10
8.020218
20
7.944759
42
0.104839
0
VERTEX
8
1
10
8.083786
20
8.096115
0
VERTEX
8
1
10
8.109406
20
8.205242
0
VERTEX
8
1
10
8.115768
20
8.224903
0
VERTEX
8
1
10
8.121658
20
8.231247
0
VERTEX
8
1
10
8.127487
20
8.221291
42
-0.060467
0
VERTEX
8
1
10
8.167236
20
7.774452
0
VERTEX
8
1
10
8.160797
20
7.729412
0
VERTEX
8
1
10
8.150009
20
7.692116
0
VERTEX
8
1
10
8.160431
20
7.688358
0
VERTEX
8
1
10
8.189514
20
7.713547
0
VERTEX
8
1
10
8.213760
20
7.743980
42
0.177828
0
VERTEX
8
1
10
8.267014
20
8.039574
42
-0.081879
0
VERTEX
8
1
10
8.370621
20
7.634613
42
-0.097805
0
VERTEX
8
1
10
8.356476
20
7.533497
42
0.166768
0
VERTEX
8
1
10
8.432465
20
7.640099
42
0.097982
0
VERTEX
8
1
10
8.471863
20
7.868046
42
0.042020
0
VERTEX
8
1
10
8.581421
20
7.581551
0
VERTEX
8
1
10
8.597061
20
7.556595
0
VERTEX
8
1
10
8.610123
20
7.544556
0
VERTEX
8
1
10
8.619766
20
7.548405
0
VERTEX
8
1
10
8.618500
20
7.576038
42
-0.022142
0
VERTEX
8
1
10
8.584564
20
7.767075
0
VERTEX
8
1
10
8.585129
20
7.783669
0
VERTEX
8
1
10
8.589035
20
7.792297
0
VERTEX
8
1
10
8.596924
20
7.791607
0
VERTEX
8
1
10
8.609360
20
7.780243
42
0.044715
0
VERTEX
8
1
10
8.760437
20
7.631618
0
VERTEX
8
1
10
8.799377
20
7.585182
0
VERTEX
8
1
10
8.799683
20
7.584442
42
0.174542
0
VERTEX
8
1
10
8.811844
20
7.503773
0
VERTEX
8
1
10
8.819550
20
7.498425
42
-0.102395
0
VERTEX
8
1
10
8.932510
20
7.434204
0
VERTEX
8
1
10
8.937439
20
7.434414
0
VERTEX
8
1
10
8.939774
20
7.439083
42
0.086913
0
VERTEX
8
1
10
8.916870
20
7.529549
42
-0.028360
0
VERTEX
8
1
10
9.246658
20
7.365532
42
0.055080
0
VERTEX
8
1
10
9.383041
20
7.145973
0
VERTEX
8
1
10
9.394821
20
7.116051
42
-0.009813
0
VERTEX
8
1
10
9.140549
20
6.853783
0
VERTEX
8
1
10
9.120178
20
6.829235
42
0.234687
0
VERTEX
8
1
10
9.050797
20
6.565388
42
-0.005408
0
VERTEX
8
1
10
9.087479
20
6.300110
0
VERTEX
8
1
10
9.083694
20
6.297337
42
0.026782
0
VERTEX
8
1
10
9.119446
20
5.901451
0
VERTEX
8
1
10
9.127258
20
5.871166
0
VERTEX
8
1
10
9.140198
20
5.849358
42
0.010183
0
VERTEX
8
1
10
9.426865
20
5.488514
0
VERTEX
8
1
10
9.437927
20
5.463699
42
-0.064409
0
VERTEX
8
1
10
9.280945
20
5.096348
0
VERTEX
8
1
10
9.265564
20
5.076916
42
0.031226
0
VERTEX
8
1
10
9.173416
20
4.982403
0
VERTEX
8
1
10
9.075607
20
4.984421
0
VERTEX
8
1
10
7.752350
20
5.049591
42
0.031488
0
VERTEX
8
1
10
7.718460
20
5.252449
42
0.040838
0
VERTEX
8
1
10
7.842133
20
5.501339
0
VERTEX
8
1
10
7.849640
20
5.531898
42
0.023558
0
VERTEX
8
1
10
7.859177
20
5.730576
42
-0.544410
0
VERTEX
8
1
10
7.906372
20
5.764568
42
0.523858
0
VERTEX
8
1
10
7.921127
20
5.780628
0
VERTEX
8
1
10
7.922073
20
5.794281
42
-0.024427
0
VERTEX
8
1
10
7.926544
20
6.274986
0
VERTEX
8
1
10
7.939468
20
6.315559
42
-0.046419
0
VERTEX
8
1
10
8.014282
20
6.511589
42
0.103694
0
VERTEX
8
1
10
8.031067
20
6.652237
42
-0.041635
0
VERTEX
8
1
10
8.073730
20
6.900879
42
0.189887
0
VERTEX
8
1
10
8.071640
20
6.943710
0
VERTEX
8
1
10
8.073212
20
6.947517
0
VERTEX
8
1
10
8.078125
20
6.951664
42
0.121143
0
VERTEX
8
1
10
8.171265
20
7.022644
42
-0.057097
0
VERTEX
8
1
10
8.360672
20
7.107944
42
0.085536
0
VERTEX
8
1
10
8.471848
20
7.163937
42
0.100902
0
VERTEX
8
1
10
8.663025
20
7.447674
0
VERTEX
8
1
10
8.672012
20
7.482075
0
VERTEX
8
1
10
8.671570
20
7.508190
0
VERTEX
8
1
10
8.660431
20
7.524632
42
0.163006
0
VERTEX
8
1
10
8.542953
20
7.542843
42
0.084230
0
VERTEX
8
1
10
8.202942
20
7.459999
42
0.016403
0
VERTEX
8
1
10
8.002426
20
7.358761
0
VERTEX
8
1
10
7.994202
20
7.362461
42
0.075074
0
VERTEX
8
1
10
7.780548
20
7.391182
42
-0.046049
0
VERTEX
8
1
10
7.467636
20
7.437595
0
VERTEX
8
1
10
7.436111
20
7.456787
0
VERTEX
8
1
10
7.395508
20
7.486534
42
0.022810
0
VERTEX
8
1
10
7.113968
20
7.703396
0
VERTEX
8
1
10
7.086136
20
7.715416
0
VERTEX
8
1
10
7.071030
20
7.711826
0
VERTEX
8
1
10
7.067383
20
7.694790
0
VERTEX
8
1
10
7.069077
20
7.672733
0
VERTEX
8
1
10
7.074997
20
7.646999
42
0.010258
0
VERTEX
8
1
10
7.152466
20
7.455639
0
VERTEX
8
1
10
7.152969
20
7.445545
42
0.259128
0
VERTEX
8
1
10
7.215103
20
7.263290
42
-0.008377
0
VERTEX
8
1
10
7.347443
20
7.126499
0
VERTEX
8
1
10
7.342255
20
7.114571
42
0.403608
0
VERTEX
8
1
10
7.373352
20
7.006737
42
-0.085088
0
VERTEX
8
1
10
7.430984
20
6.948990
0
VERTEX
8
1
10
7.432724
20
6.940731
0
VERTEX
8
1
10
7.431335
20
6.930672
42
-0.014995
0
VERTEX
8
1
10
7.412003
20
6.664543
42
-0.043054
0
VERTEX
8
1
10
7.340729
20
6.367287
42
-0.270417
0
VERTEX
8
1
10
7.251831
20
6.283459
42
-0.164510
0
VERTEX
8
1
10
7.104630
20
6.302341
0
VERTEX
8
1
10
6.998627
20
6.344658
42
0.068947
0
VERTEX
8
1
10
6.781097
20
6.397530
42
0.057439
0
VERTEX
8
1
10
6.276016
20
6.406654
42
0.030758
0
VERTEX
8
1
10
5.200943
20
6.265141
0
VERTEX
8
1
10
4.765976
20
6.182846
0
VERTEX
8
1
10
4.724625
20
6.175659
0
VERTEX
8
1
10
4.707245
20
6.173660
0
VERTEX
8
1
10
4.697983
20
6.177513
42
0.186278
0
VERTEX
8
1
10
4.440094
20
6.253105
0
VERTEX
8
1
10
4.379593
20
6.245243
0
VERTEX
8
1
10
4.311905
20
6.228699
42
0.065192
0
VERTEX
8
1
10
3.700211
20
5.935715
0
VERTEX
8
1
10
3.677597
20
5.916702
0
VERTEX
8
1
10
3.645828
20
5.882320
42
0.025511
0
VERTEX
8
1
10
3.320679
20
5.454453
0
VERTEX
8
1
10
3.320007
20
5.452244
42
-0.023918
0
VERTEX
8
1
10
3.240540
20
5.315918
0
VERTEX
8
1
10
3.218826
20
5.277161
0
VERTEX
8
1
10
3.207565
20
5.266399
0
VERTEX
8
1
10
3.094391
20
5.271675
0
SEQEND
0
POLYLINE
8
1
66
1
70
1
0
VERTEX
8
1
10
3.410873
20
3.839851
42
-2.545493
0
VERTEX
8
1
10
3.240814
20
3.839851
0
SEQEND
0
POLYLINE
8
1
66
1
70
1
0
VERTEX
8
1
10
14.008087
20
3.839851
42
-2.545719
0
VERTEX
8
1
10
13.838043
20
3.839851
0
SEQEND
0
POLYLINE
8
1
66
1
70
1
0
VERTEX
8
1
10
14.206299
20
4.708946
42
0.002117
0
VERTEX
8
1
10
12.415588
20
4.812218
42
-0.020329
0
VERTEX
8
1
10
12.859848
20
5.622066
42
-0.036405
0
VERTEX
8
1
10
13.074478
20
5.915245
42
0.040114
0
VERTEX
8
1
10
13.200485
20
6.085564
42
0.320961
0
VERTEX
8
1
10
13.198471
20
6.182289
42
-0.056048
0
VERTEX
8
1
10
13.153091
20
6.363132
42
-0.043533
0
VERTEX
8
1
10
13.116898
20
6.736927
0
VERTEX
8
1
10
13.119385
20
6.758171
0
VERTEX
8
1
10
13.170761
20
6.749969
0
VERTEX
8
1
10
13.332825
20
6.741196
42
-0.001692
0
VERTEX
8
1
10
14.019333
20
6.501629
0
VERTEX
8
1
10
14.061386
20
6.484093
0
VERTEX
8
1
10
14.099167
20
6.465954
42
-0.153399
0
VERTEX
8
1
10
14.293442
20
6.293823
42
-0.067673
0
VERTEX
8
1
10
14.327530
20
6.190182
42
-0.003242
0
VERTEX
8
1
10
14.374023
20
6.016663
42
-0.014046
0
VERTEX
8
1
10
14.258057
20
5.392693
42
0.098879
0
VERTEX
8
1
10
14.218246
20
5.121330
42
0.217282
0
VERTEX
8
1
10
14.254974
20
5.044724
42
-0.022195
0
VERTEX
8
1
10
14.385162
20
4.946751
42
0.014925
0
VERTEX
8
1
10
14.538010
20
4.698322
0
VERTEX
8
1
10
14.507050
20
4.689240
0
SEQEND
0
POLYLINE
8
1
66
1
70
1
0
VERTEX
8
1
10
14.510880
20
2.767941
42
0.122473
0
VERTEX
8
1
10
14.232376
20
2.863728
42
2.250454
0
VERTEX
8
1
10
13.860825
20
2.866360
0
VERTEX
8
1
10
3.652466
20
2.866356
0
VERTEX
8
1
10
3.638748
20
2.867699
42
2.235813
0
VERTEX
8
1
10
3.266266
20
2.865623
0
VERTEX
8
1
10
3.252228
20
2.862095
42
0.275967
0
VERTEX
8
1
10
2.781143
20
2.514290
42
0.085613
0
VERTEX
8
1
10
2.750290
20
2.355309
0
VERTEX
8
1
10
2.750183
20
0.894848
42
0.282443
0
VERTEX
8
1
10
3.034073
20
0.438282
42
0.119790
0
VERTEX
8
1
10
3.318161
20
0.366402
0
VERTEX
8
1
10
14.173294
20
0.366356
42
0.283340
0
VERTEX
8
1
10
14.700333
20
0.675224
42
0.113943
0
VERTEX
8
1
10
14.750168
20
0.883663
0
VERTEX
8
1
10
14.750183
20
2.340458
42
0.257621
0
SEQEND
0
CIRCLE
8
1
10
14.048669
20
3.033020
40
0.125000
0
CIRCLE
8
1
10
3.451440
20
3.033020
40
0.125000
0
POLYLINE
8
1
66
1
70
1
0
VERTEX
8
1
10
4.444016
20
0.574684
0
VERTEX
8
1
10
4.202103
20
0.574688
0
VERTEX
8
1
10
4.296432
20
1.179462
42
-0.257665
0
VERTEX
8
1
10
4.316391
20
1.223732
0
VERTEX
8
1
10
4.319458
20
1.224525
42
-0.343868
0
VERTEX
8
1
10
4.342285
20
1.190254
0
VERTEX
8
1
10
4.445313
20
0.576481
0
SEQEND
0
POLYLINE
8
1
66
1
70
1
0
VERTEX
8
1
10
10.118454
20
1.929409
0
VERTEX
8
1
10
10.118637
20
1.112869
42
-0.286551
0
VERTEX
8
1
10
10.088623
20
1.044132
42
-0.541896
0
VERTEX
8
1
10
10.024933
20
1.088894
0
VERTEX
8
1
10
10.023514
20
1.099258
0
VERTEX
8
1
10
10.023056
20
1.109711
0
VERTEX
8
1
10
10.023026
20
1.919079
42
-0.294816
0
VERTEX
8
1
10
10.055969
20
1.995033
42
-0.451967
0
VERTEX
8
1
10
10.111191
20
1.964523
42
-0.086743
0
SEQEND
0
POLYLINE
8
1
66
1
70
1
0
VERTEX
8
1
10
11.587814
20
0.574688
0
VERTEX
8
1
10
11.418137
20
0.574688
0
VERTEX
8
1
10
11.418182
20
1.325207
42
-0.270412
0
VERTEX
8
1
10
11.431610
20
1.358425
0
VERTEX
8
1
10
11.435944
20
1.358437
42
-0.256431
0
VERTEX
8
1
10
11.460617
20
1.314350
0
VERTEX
8
1
10
11.462555
20
1.304798
0
VERTEX
8
1
10
11.587524
20
0.578934
0
SEQEND
0
POLYLINE
8
1
66
1
70
1
0
VERTEX
8
1
10
12.188675
20
1.387730
0
VERTEX
8
1
10
12.188904
20
0.574688
0
VERTEX
8
1
10
12.019638
20
0.574688
0
VERTEX
8
1
10
12.018051
20
0.575176
0
VERTEX
8
1
10
12.153778
20
1.324005
42
-0.125855
0
VERTEX
8
1
10
12.177628
20
1.408245
42
-0.537487
0
VERTEX
8
1
10
12.188492
20
1.392372
0
SEQEND
0
POLYLINE
8
1
66
1
70
1
0
VERTEX
8
1
10
14.519928
20
2.340435
0
VERTEX
8
1
10
14.519913
20
0.887188
0
VERTEX
8
1
10
14.518250
20
0.856441
42
-0.340733
0
VERTEX
8
1
10
14.228821
20
0.578548
42
-0.045746
0
VERTEX
8
1
10
14.112854
20
0.574688
0
VERTEX
8
1
10
14.112656
20
1.026459
42
0.377685
0
VERTEX
8
1
10
14.081635
20
1.051422
0
VERTEX
8
1
10
13.563156
20
1.051456
42
-0.355652
0
VERTEX
8
1
10
13.545471
20
1.067707
42
-0.006308
0
VERTEX
8
1
10
13.546082
20
1.243565
42
-0.316323
0
VERTEX
8
1
10
13.564224
20
1.257965
0
VERTEX
8
1
10
13.807449
20
1.258041
42
0.373996
0
VERTEX
8
1
10
13.831833
20
1.280396
0
VERTEX
8
1
10
13.831985
20
1.788445
42
0.428128
0
VERTEX
8
1
10
13.813904
20
1.810665
0
VERTEX
8
1
10
13.577316
20
1.810825
42
-0.382467
0
VERTEX
8
1
10
13.554214
20
1.829231
0
VERTEX
8
1
10
13.554169
20
1.984470
42
-0.436510
0
VERTEX
8
1
10
13.573410
20
2.006191
0
VERTEX
8
1
10
14.073151
20
2.006248
42
0.365497
0
VERTEX
8
1
10
14.106674
20
2.031185
0
VERTEX
8
1
10
14.106827
20
2.537838
42
0.380234
0
VERTEX
8
1
10
14.080872
20
2.567181
0
VERTEX
8
1
10
13.015823
20
2.567402
42
0.357625
0
VERTEX
8
1
10
12.977615
20
2.532490
0
VERTEX
8
1
10
12.977570
20
0.574780
0
VERTEX
8
1
10
12.796249
20
0.574688
0
VERTEX
8
1
10
12.795364
20
0.576889
0
VERTEX
8
1
10
12.795288
20
2.539162
42
0.428177
0
VERTEX
8
1
10
12.765808
20
2.567307
0
VERTEX
8
1
10
11.934280
20
2.567406
42
0.405869
0
VERTEX
8
1
10
11.899170
20
2.537067
0
VERTEX
8
1
10
11.827408
20
1.985767
42
-0.268570
0
VERTEX
8
1
10
11.815369
20
1.956028
42
-0.276242
0
VERTEX
8
1
10
11.801697
20
1.977467
0
VERTEX
8
1
10
11.710663
20
2.540775
42
0.333805
0
VERTEX
8
1
10
11.684158
20
2.567238
0
VERTEX
8
1
10
10.885666
20
2.567406
42
0.454994
0
VERTEX
8
1
10
10.856659
20
2.543003
0
VERTEX
8
1
10
10.856476
20
0.574692
0
VERTEX
8
1
10
10.445267
20
0.574688
42
0.205342
0
VERTEX
8
1
10
10.681213
20
0.966267
42
0.039120
0
VERTEX
8
1
10
10.692169
20
1.093834
0
VERTEX
8
1
10
10.692154
20
1.942753
0
VERTEX
8
1
10
10.688126
20
2.017738
42
0.179720
0
VERTEX
8
1
10
10.512131
20
2.408272
42
0.186060
0
VERTEX
8
1
10
10.098206
20
2.572514
42
0.204470
0
VERTEX
8
1
10
9.626190
20
2.405018
42
0.157319
0
VERTEX
8
1
10
9.462448
20
2.082268
0
VERTEX
8
1
10
9.452972
20
2.011719
0
VERTEX
8
1
10
9.449448
20
1.936333
0
VERTEX
8
1
10
9.449539
20
1.090065
0
VERTEX
8
1
10
9.451294
20
1.045895
42
0.196330
0
VERTEX
8
1
10
9.638519
20
0.621281
42
0.006038
0
VERTEX
8
1
10
9.693192
20
0.574692
0
VERTEX
8
1
10
9.006927
20
0.574688
0
VERTEX
8
1
10
9.004028
20
0.576904
42
0.159576
0
VERTEX
8
1
10
9.228241
20
0.900707
42
0.084280
0
VERTEX
8
1
10
9.292755
20
1.377033
42
0.296000
0
VERTEX
8
1
10
9.273163
20
1.391891
0
VERTEX
8
1
10
8.704468
20
1.411705
42
0.431733
0
VERTEX
8
1
10
8.669937
20
1.376728
0
VERTEX
8
1
10
8.669708
20
1.093254
42
-1.045521
0
VERTEX
8
1
10
8.574127
20
1.086826
0
VERTEX
8
1
10
8.574127
20
1.957123
42
-1.139915
0
VERTEX
8
1
10
8.669708
20
1.946285
0
VERTEX
8
1
10
8.669708
20
1.938232
0
VERTEX
8
1
10
8.669708
20
1.927723
0
VERTEX
8
1
10
8.669708
20
1.915222
0
VERTEX
8
1
10
8.669708
20
1.901199
0
VERTEX
8
1
10
8.669708
20
1.886101
0
VERTEX
8
1
10
8.669708
20
1.870392
0
VERTEX
8
1
10
8.669708
20
1.854534
0
VERTEX
8
1
10
8.669708
20
1.838989
0
VERTEX
8
1
10
8.669708
20
1.824215
0
VERTEX
8
1
10
8.669708
20
1.810673
0
VERTEX
8
1
10
8.669708
20
1.798828
0
VERTEX
8
1
10
8.669708
20
1.789131
42
0.450731
0
VERTEX
8
1
10
8.722321
20
1.721500
0
VERTEX
8
1
10
9.281357
20
1.741158
42
0.480126
0
VERTEX
8
1
10
9.301483
20
1.763767
42
0.115342
0
VERTEX
8
1
10
9.227295
20
2.197414
42
0.244651
0
VERTEX
8
1
10
8.790604
20
2.557362
42
0.171202
0
VERTEX
8
1
10
8.316345
20
2.497120
42
0.164313
0
VERTEX
8
1
10
8.058945
20
2.212780
42
0.107040
0
VERTEX
8
1
10
7.973648
20
1.768353
0
VERTEX
8
1
10
7.973648
20
1.392368
42
0.026921
0
VERTEX
8
1
10
7.981644
20
1.086929
0
VERTEX
8
1
10
7.988617
20
1.041470
42
0.195224
0
VERTEX
8
1
10
8.263367
20
0.574688
0
VERTEX
8
1
10
7.822586
20
0.574688
0
VERTEX
8
1
10
7.821320
20
0.575790
0
VERTEX
8
1
10
7.821320
20
1.023441
42
0.407935
0
VERTEX
8
1
10
7.791229
20
1.051369
0
VERTEX
8
1
10
7.278305
20
1.051449
42
-0.387649
0
VERTEX
8
1
10
7.259766
20
1.069061
0
VERTEX
8
1
10
7.259659
20
2.537956
42
0.381258
0
VERTEX
8
1
10
7.233566
20
2.567192
0
VERTEX
8
1
10
6.728363
20
2.567406
42
0.410360
0
VERTEX
8
1
10
6.686111
20
2.529591
0
VERTEX
8
1
10
6.686081
20
0.574707
0
VERTEX
8
1
10
6.504654
20
0.574688
0
VERTEX
8
1
10
6.503860
20
0.575302
0
VERTEX
8
1
10
6.503860
20
1.023209
42
0.407979
0
VERTEX
8
1
10
6.474197
20
1.051338
0
VERTEX
8
1
10
5.955399
20
1.051456
42
-0.393859
0
VERTEX
8
1
10
5.936356
20
1.068817
0
VERTEX
8
1
10
5.936401
20
1.238865
42
-0.371916
0
VERTEX
8
1
10
5.954376
20
1.257881
0
VERTEX
8
1
10
6.196930
20
1.258038
42
0.406603
0
VERTEX
8
1
10
6.222992
20
1.281811
0
VERTEX
8
1
10
6.223038
20
1.791149
42
0.410290
0
VERTEX
8
1
10
6.203735
20
1.810772
0
VERTEX
8
1
10
5.966476
20
1.810825
42
-0.345673
0
VERTEX
8
1
10
5.945328
20
1.828388
0
VERTEX
8
1
10
5.945206
20
1.986095
42
-0.404693
0
VERTEX
8
1
10
5.963531
20
2.006115
0
VERTEX
8
1
10
6.461426
20
2.006248
42
0.400858
0
VERTEX
8
1
10
6.497849
20
2.032848
0
VERTEX
8
1
10
6.497879
20
2.536682
42
0.408275
0
VERTEX
8
1
10
6.470139
20
2.567337
0
VERTEX
8
1
10
5.408340
20
2.567410
42
0.357187
0
VERTEX
8
1
10
5.368774
20
2.533825
0
VERTEX
8
1
10
5.368622
20
0.579983
0
VERTEX
8
1
10
5.367599
20
0.574688
0
VERTEX
8
1
10
4.976532
20
0.574688
0
VERTEX
8
1
10
5.246613
20
2.533340
42
0.503697
0
VERTEX
8
1
10
5.212097
20
2.567383
0
VERTEX
8
1
10
4.730927
20
2.567406
42
0.430556
0
VERTEX
8
1
10
4.693802
20
2.535877
0
VERTEX
8
1
10
4.633713
20
1.869675
42
-0.184656
0
VERTEX
8
1
10
4.613571
20
1.818657
42
-0.563705
0
VERTEX
8
1
10
4.591171
20
1.832554
42
-0.070005
0
VERTEX
8
1
10
4.584579
20
1.856686
0
VERTEX
8
1
10
4.505264
20
2.536697
42
0.311502
0
VERTEX
8
1
10
4.471100
20
2.567345
0
VERTEX
8
1
10
4.164871
20
2.567406
42
0.385828
0
VERTEX
8
1
10
4.128799
20
2.530952
0
VERTEX
8
1
10
4.058701
20
1.883984
42
-0.210421
0
VERTEX
8
1
10
4.035385
20
1.817703
42
-0.503881
0
VERTEX
8
1
10
4.013611
20
1.835018
42
-0.063902
0
VERTEX
8
1
10
4.007431
20
1.860348
0
VERTEX
8
1
10
3.940125
20
2.533875
42
0.332914
0
VERTEX
8
1
10
3.899246
20
2.567280
0
VERTEX
8
1
10
3.419052
20
2.567383
42
0.502660
0
VERTEX
8
1
10
3.387863
20
2.531742
0
VERTEX
8
1
10
3.665314
20
0.574688
0
VERTEX
8
1
10
3.409271
20
0.574688
0
VERTEX
8
1
10
3.382996
20
0.574543
0
VERTEX
8
1
10
3.356735
20
0.574596
0
VERTEX
8
1
10
3.330460
20
0.574848
42
-0.324221
0
VERTEX
8
1
10
2.994705
20
0.798256
42
-0.079736
0
VERTEX
8
1
10
2.980469
20
0.887196
0
VERTEX
8
1
10
2.980469
20
2.340137
42
-0.317779
0
VERTEX
8
1
10
3.190094
20
2.632858
42
-0.088381
0
VERTEX
8
1
10
3.318939
20
2.657959
0
VERTEX
8
1
10
14.180847
20
2.657967
42
-0.332304
0
VERTEX
8
1
10
14.510361
20
2.418648
42
-0.069037
0
SEQEND
0
ENDSEC
0
EOF
