0
SECTION
2
HEADER
9
$EXTMIN
10
0.447632
20
0.085670
9
$EXTMAX
10
8.201889
20
7.024292
0
ENDSEC
0
SECTION
2
TABLES
0
TABLE
2
LTYPE
70
1
0
LTYPE
2
0
70
0
3
Solid Line
72
65
73
0
40
0.0
0
ENDTAB
0
TABLE
2
LAYER
70
1
0
LAYER
2
1
70
0
62
7
6
0
0
ENDTAB
0
ENDSEC
0
SECTION
2
BLOCKS
0
ENDSEC
0
SECTION
2
ENTITIES
0
POLYLINE
8
1
66
1
70
1
0
VERTEX
8
1
10
8.159790
20
6.644394
42
-0.024396
0
VERTEX
8
1
10
8.201889
20
6.628441
42
-0.148601
0
VERTEX
8
1
10
8.136719
20
6.419510
42
0.009323
0
VERTEX
8
1
10
8.013031
20
6.234497
42
0.088941
0
VERTEX
8
1
10
7.967117
20
6.116508
42
-0.073508
0
VERTEX
8
1
10
7.975403
20
6.042389
42
-0.179775
0
VERTEX
8
1
10
7.909073
20
5.953217
0
VERTEX
8
1
10
7.904495
20
5.948624
0
VERTEX
8
1
10
7.900085
20
5.943871
42
0.181533
0
VERTEX
8
1
10
7.824524
20
5.638588
0
VERTEX
8
1
10
7.829483
20
5.618736
0
VERTEX
8
1
10
7.828827
20
5.603157
42
0.171073
0
VERTEX
8
1
10
7.755798
20
5.450691
42
0.088331
0
VERTEX
8
1
10
7.767685
20
5.397484
42
0.009066
0
VERTEX
8
1
10
7.751236
20
5.340164
42
0.022003
0
VERTEX
8
1
10
7.718201
20
5.332970
42
0.083009
0
VERTEX
8
1
10
7.680466
20
5.232460
42
-0.279426
0
VERTEX
8
1
10
7.665619
20
5.146339
42
0.062897
0
VERTEX
8
1
10
7.588928
20
5.036629
42
0.146962
0
VERTEX
8
1
10
7.595016
20
4.902954
0
VERTEX
8
1
10
7.605270
20
4.866348
42
-0.174633
0
VERTEX
8
1
10
7.609573
20
4.737495
0
VERTEX
8
1
10
7.605865
20
4.731689
42
0.089141
0
VERTEX
8
1
10
7.547577
20
4.664719
42
0.187084
0
VERTEX
8
1
10
7.557327
20
4.560486
42
-0.276428
0
VERTEX
8
1
10
7.533646
20
4.458435
42
0.084895
0
VERTEX
8
1
10
7.479874
20
4.379662
42
0.296653
0
VERTEX
8
1
10
7.495743
20
4.325951
42
-0.471206
0
VERTEX
8
1
10
7.511948
20
4.282387
42
-0.047294
0
VERTEX
8
1
10
7.417648
20
4.069511
42
-0.016195
0
VERTEX
8
1
10
7.475037
20
4.036644
0
VERTEX
8
1
10
7.468628
20
4.013382
42
-0.492963
0
VERTEX
8
1
10
7.353180
20
3.971298
42
-0.209026
0
VERTEX
8
1
10
7.281158
20
4.058899
42
0.022005
0
VERTEX
8
1
10
7.248123
20
4.066078
0
VERTEX
8
1
10
7.244843
20
4.077271
42
0.153829
0
VERTEX
8
1
10
7.133743
20
4.268860
42
-0.020041
0
VERTEX
8
1
10
6.968979
20
4.436211
42
-0.101812
0
VERTEX
8
1
10
6.872894
20
4.633995
42
0.038794
0
VERTEX
8
1
10
6.778458
20
4.914429
42
0.116070
0
VERTEX
8
1
10
6.655609
20
5.070892
42
0.286608
0
VERTEX
8
1
10
6.535095
20
5.078766
42
0.100608
0
VERTEX
8
1
10
6.429184
20
4.984650
0
VERTEX
8
1
10
6.404587
20
4.953964
42
-0.081675
0
VERTEX
8
1
10
6.211670
20
4.746719
42
0.089588
0
VERTEX
8
1
10
6.057312
20
4.573494
42
0.275486
0
VERTEX
8
1
10
6.059235
20
4.405190
0
VERTEX
8
1
10
6.060226
20
4.400574
42
-0.088471
0
VERTEX
8
1
10
6.028549
20
4.414421
42
-0.426588
0
VERTEX
8
1
10
5.868958
20
4.451561
0
VERTEX
8
1
10
5.861664
20
4.460373
42
-0.006059
0
VERTEX
8
1
10
5.716232
20
4.381699
0
VERTEX
8
1
10
5.705139
20
4.373619
42
0.541537
0
VERTEX
8
1
10
5.709732
20
4.242920
42
-0.129333
0
VERTEX
8
1
10
5.754807
20
4.189995
42
-0.149479
0
VERTEX
8
1
10
5.749725
20
4.148537
42
0.231009
0
VERTEX
8
1
10
5.843613
20
4.060196
0
VERTEX
8
1
10
5.847260
20
4.055153
42
0.278992
0
VERTEX
8
1
10
5.887177
20
3.967300
0
VERTEX
8
1
10
5.903473
20
3.950546
42
-0.409530
0
VERTEX
8
1
10
5.902206
20
3.794571
0
VERTEX
8
1
10
5.863678
20
3.791763
0
VERTEX
8
1
10
5.804260
20
3.805634
0
VERTEX
8
1
10
5.727768
20
3.833549
0
VERTEX
8
1
10
5.638000
20
3.872879
42
-0.024320
0
VERTEX
8
1
10
4.845505
20
4.313484
0
VERTEX
8
1
10
4.674225
20
4.188164
0
VERTEX
8
1
10
4.641281
20
4.175285
42
0.095415
0
VERTEX
8
1
10
4.420334
20
4.047905
42
-0.067415
0
VERTEX
8
1
10
4.277496
20
3.991127
42
0.127536
0
VERTEX
8
1
10
4.116119
20
3.897461
42
-0.299269
0
VERTEX
8
1
10
4.028091
20
3.894936
42
0.188373
0
VERTEX
8
1
10
3.934174
20
3.899017
42
-0.135047
0
VERTEX
8
1
10
3.636490
20
3.849487
0
VERTEX
8
1
10
3.611420
20
3.852829
0
VERTEX
8
1
10
3.590286
20
3.860359
0
VERTEX
8
1
10
3.585831
20
3.879654
0
VERTEX
8
1
10
3.596542
20
3.909370
0
VERTEX
8
1
10
3.620087
20
3.947632
0
VERTEX
8
1
10
3.654083
20
3.992561
42
-0.029567
0
VERTEX
8
1
10
4.053391
20
4.396889
42
0.140219
0
VERTEX
8
1
10
3.745590
20
4.508926
0
VERTEX
8
1
10
3.707092
20
4.507446
42
-0.116497
0
VERTEX
8
1
10
3.535522
20
4.512985
0
VERTEX
8
1
10
3.470001
20
4.526756
42
-0.055454
0
VERTEX
8
1
10
2.340027
20
4.951843
0
VERTEX
8
1
10
2.246597
20
5.006737
42
-0.111725
0
VERTEX
8
1
10
1.441353
20
5.841118
0
VERTEX
8
1
10
1.401596
20
5.914085
0
VERTEX
8
1
10
1.362778
20
5.977806
0
VERTEX
8
1
10
1.323174
20
6.024902
0
VERTEX
8
1
10
1.302750
20
6.067657
0
VERTEX
8
1
10
1.299248
20
6.106216
0
VERTEX
8
1
10
1.310387
20
6.140732
0
VERTEX
8
1
10
1.333916
20
6.171364
0
VERTEX
8
1
10
1.367531
20
6.198265
0
VERTEX
8
1
10
1.408981
20
6.221573
42
-0.091905
0
VERTEX
8
1
10
1.753189
20
6.298500
0
VERTEX
8
1
10
1.794846
20
6.305862
0
VERTEX
8
1
10
1.855011
20
6.320114
42
0.011576
0
VERTEX
8
1
10
2.815048
20
6.611656
42
-0.001533
0
VERTEX
8
1
10
4.063339
20
6.875587
0
VERTEX
8
1
10
4.175598
20
6.891487
0
VERTEX
8
1
10
4.295731
20
6.903564
42
-0.032087
0
VERTEX
8
1
10
5.423172
20
6.903458
0
VERTEX
8
1
10
5.594681
20
6.903450
0
VERTEX
8
1
10
5.624435
20
6.923111
0
VERTEX
8
1
10
5.668427
20
6.942673
42
-0.096433
0
VERTEX
8
1
10
6.251587
20
7.020531
42
-0.108534
0
VERTEX
8
1
10
6.421967
20
6.972328
0
VERTEX
8
1
10
6.454193
20
6.941872
0
VERTEX
8
1
10
6.468338
20
6.908844
42
0.003812
0
VERTEX
8
1
10
6.412216
20
6.854088
42
-0.108003
0
VERTEX
8
1
10
6.468216
20
6.746292
0
VERTEX
8
1
10
6.462036
20
6.737320
42
0.368254
0
VERTEX
8
1
10
6.416458
20
6.609619
42
0.050078
0
VERTEX
8
1
10
6.438843
20
6.553665
0
VERTEX
8
1
10
6.436203
20
6.544518
42
0.434045
0
VERTEX
8
1
10
6.397385
20
6.425331
0
VERTEX
8
1
10
6.396759
20
6.420685
42
-0.028392
0
VERTEX
8
1
10
6.352402
20
6.378136
0
VERTEX
8
1
10
6.279617
20
6.360374
42
0.117840
0
VERTEX
8
1
10
6.476898
20
6.181763
0
VERTEX
8
1
10
6.495102
20
6.173927
0
VERTEX
8
1
10
6.511017
20
6.168030
42
-0.019948
0
VERTEX
8
1
10
6.518433
20
6.135849
0
VERTEX
8
1
10
6.526596
20
6.134705
42
-0.352175
0
VERTEX
8
1
10
6.717056
20
5.993469
42
-0.196334
0
VERTEX
8
1
10
6.698761
20
5.898331
0
VERTEX
8
1
10
6.704910
20
5.866539
0
VERTEX
8
1
10
6.744980
20
5.834480
0
VERTEX
8
1
10
6.789917
20
5.817207
0
VERTEX
8
1
10
6.838837
20
5.813072
42
0.123647
0
VERTEX
8
1
10
7.056427
20
5.894379
42
0.044080
0
VERTEX
8
1
10
7.384354
20
6.156357
42
-0.065214
0
VERTEX
8
1
10
7.685669
20
6.351425
42
0.025713
0
VERTEX
8
1
10
8.002136
20
6.520607
42
0.043363
0
SEQEND
0
POLYLINE
8
1
66
1
70
1
0
VERTEX
8
1
10
3.157532
20
5.702316
0
VERTEX
8
1
10
3.164810
20
5.708015
42
0.448473
0
VERTEX
8
1
10
3.199539
20
5.901169
42
0.460889
0
VERTEX
8
1
10
2.994431
20
5.921158
0
VERTEX
8
1
10
2.978043
20
5.905579
42
0.517122
0
VERTEX
8
1
10
2.996109
20
5.676773
42
0.405639
0
VERTEX
8
1
10
3.018738
20
5.696701
42
-0.047448
0
VERTEX
8
1
10
3.032257
20
5.737366
42
-0.046167
0
VERTEX
8
1
10
3.027481
20
5.743210
0
VERTEX
8
1
10
3.016891
20
5.746078
42
-0.663693
0
VERTEX
8
1
10
3.035553
20
5.846748
42
-0.595791
0
VERTEX
8
1
10
3.120804
20
5.786407
42
-0.204248
0
VERTEX
8
1
10
3.087006
20
5.734589
42
0.102219
0
VERTEX
8
1
10
3.081726
20
5.685791
0
VERTEX
8
1
10
3.087601
20
5.680054
42
0.236625
0
SEQEND
0
POLYLINE
8
1
66
1
70
1
0
VERTEX
8
1
10
3.807144
20
5.298561
0
VERTEX
8
1
10
3.813339
20
5.258476
42
-0.198608
0
VERTEX
8
1
10
3.778793
20
5.070206
42
-0.165861
0
VERTEX
8
1
10
3.701157
20
4.986015
42
-0.266383
0
VERTEX
8
1
10
3.656662
20
4.993797
42
0.182429
0
VERTEX
8
1
10
3.552902
20
5.049545
42
0.552147
0
VERTEX
8
1
10
3.492325
20
4.970551
42
0.206881
0
VERTEX
8
1
10
3.613235
20
4.849350
42
0.131425
0
VERTEX
8
1
10
3.881866
20
4.789566
42
0.183613
0
VERTEX
8
1
10
4.002213
20
4.848053
42
0.231183
0
VERTEX
8
1
10
4.011581
20
4.978630
0
VERTEX
8
1
10
4.004257
20
5.002953
0
VERTEX
8
1
10
3.995895
20
5.027344
42
-0.119454
0
VERTEX
8
1
10
3.955704
20
5.233734
42
0.137820
0
VERTEX
8
1
10
3.918716
20
5.390083
42
0.168327
0
VERTEX
8
1
10
3.854904
20
5.435371
0
VERTEX
8
1
10
3.834122
20
5.427109
42
0.243124
0
SEQEND
0
POLYLINE
8
1
66
1
70
1
0
VERTEX
8
1
10
4.600082
20
4.788536
42
-0.034297
0
VERTEX
8
1
10
4.720062
20
4.971382
42
0.068621
0
VERTEX
8
1
10
4.885086
20
5.275116
42
0.077582
0
VERTEX
8
1
10
4.909729
20
5.420479
0
VERTEX
8
1
10
4.903427
20
5.461494
0
VERTEX
8
1
10
4.885208
20
5.514557
0
VERTEX
8
1
10
4.856461
20
5.577446
42
0.081837
0
VERTEX
8
1
10
4.408020
20
6.168808
42
0.090519
0
VERTEX
8
1
10
4.228577
20
6.285011
0
VERTEX
8
1
10
4.178162
20
6.293243
0
VERTEX
8
1
10
4.134674
20
6.282555
0
VERTEX
8
1
10
4.099503
20
6.250710
42
0.356172
0
VERTEX
8
1
10
4.203354
20
6.172401
42
-0.068326
0
VERTEX
8
1
10
4.544388
20
5.825874
42
-0.273274
0
VERTEX
8
1
10
4.626312
20
5.032104
42
-0.089759
0
VERTEX
8
1
10
4.361771
20
4.664719
42
-0.013625
0
VERTEX
8
1
10
4.189957
20
4.500000
42
-0.018153
0
VERTEX
8
1
10
4.339813
20
4.563354
0
VERTEX
8
1
10
4.346848
20
4.564560
42
0.250479
0
VERTEX
8
1
10
4.515274
20
4.650749
42
0.043203
0
SEQEND
0
POLYLINE
8
1
66
1
70
1
0
VERTEX
8
1
10
6.907394
20
5.211914
42
0.046447
0
VERTEX
8
1
10
6.941254
20
5.249580
42
0.012637
0
VERTEX
8
1
10
7.002930
20
5.230637
42
0.108247
0
VERTEX
8
1
10
7.041519
20
5.263084
0
VERTEX
8
1
10
7.027771
20
5.272957
0
VERTEX
8
1
10
6.979584
20
5.278763
42
-0.035284
0
VERTEX
8
1
10
6.742020
20
5.350395
0
VERTEX
8
1
10
6.696091
20
5.362854
42
0.159838
0
VERTEX
8
1
10
6.483612
20
5.349236
0
VERTEX
8
1
10
6.454971
20
5.339409
42
-0.153882
0
VERTEX
8
1
10
6.259445
20
5.318924
42
-0.004250
0
VERTEX
8
1
10
6.138504
20
5.361664
42
0.122808
0
VERTEX
8
1
10
5.959381
20
5.347816
42
-0.017094
0
VERTEX
8
1
10
5.749054
20
5.286194
42
-0.203764
0
VERTEX
8
1
10
5.537308
20
5.317947
0
VERTEX
8
1
10
5.489258
20
5.344215
42
0.116183
0
VERTEX
8
1
10
5.307678
20
5.400513
42
-0.078110
0
VERTEX
8
1
10
5.160431
20
5.434898
0
VERTEX
8
1
10
5.192337
20
5.372566
42
-0.200844
0
VERTEX
8
1
10
5.088303
20
5.398460
0
VERTEX
8
1
10
5.078094
20
5.398476
42
0.010562
0
VERTEX
8
1
10
5.060135
20
5.262627
42
-0.076952
0
VERTEX
8
1
10
5.031860
20
5.199417
42
-0.063452
0
VERTEX
8
1
10
5.049301
20
5.186478
42
0.046424
0
VERTEX
8
1
10
4.997833
20
5.104279
42
0.130629
0
VERTEX
8
1
10
5.003143
20
5.068542
0
VERTEX
8
1
10
5.012405
20
5.065491
0
VERTEX
8
1
10
5.047470
20
5.075684
42
-0.035199
0
VERTEX
8
1
10
5.251328
20
5.164551
0
VERTEX
8
1
10
5.293991
20
5.167381
0
VERTEX
8
1
10
5.323654
20
5.149910
0
VERTEX
8
1
10
5.335449
20
5.105843
0
VERTEX
8
1
10
5.324585
20
5.028908
0
VERTEX
8
1
10
5.321808
20
5.008583
0
VERTEX
8
1
10
5.373215
20
5.001038
0
VERTEX
8
1
10
5.379837
20
5.007874
42
-0.149431
0
VERTEX
8
1
10
5.461121
20
5.150146
42
-0.155766
0
VERTEX
8
1
10
5.532822
20
5.179558
0
VERTEX
8
1
10
5.539749
20
5.171143
42
-0.022626
0
VERTEX
8
1
10
5.561050
20
5.089478
0
VERTEX
8
1
10
5.564484
20
5.085312
42
0.421163
0
VERTEX
8
1
10
5.597015
20
5.076912
42
0.033615
0
VERTEX
8
1
10
5.662933
20
5.093674
0
VERTEX
8
1
10
5.669907
20
5.101662
42
-0.421849
0
VERTEX
8
1
10
5.797470
20
5.185188
0
VERTEX
8
1
10
5.821777
20
5.180832
0
VERTEX
8
1
10
5.831573
20
5.166824
0
VERTEX
8
1
10
5.836395
20
5.150871
42
-0.096214
0
VERTEX
8
1
10
5.874222
20
5.031784
42
0.085674
0
VERTEX
8
1
10
5.929153
20
5.073402
42
-0.350024
0
VERTEX
8
1
10
6.079041
20
5.186974
0
VERTEX
8
1
10
6.106995
20
5.182381
0
VERTEX
8
1
10
6.118668
20
5.175804
0
VERTEX
8
1
10
6.129272
20
5.130737
0
VERTEX
8
1
10
6.131790
20
5.127350
0
VERTEX
8
1
10
6.144669
20
5.140419
42
-0.074703
0
VERTEX
8
1
10
6.273285
20
5.209206
0
VERTEX
8
1
10
6.278961
20
5.203484
0
VERTEX
8
1
10
6.281143
20
5.190140
42
0.033869
0
VERTEX
8
1
10
6.317398
20
5.104424
42
0.095391
0
VERTEX
8
1
10
6.408691
20
5.216019
42
-0.348212
0
VERTEX
8
1
10
6.436798
20
5.246269
42
-0.134367
0
VERTEX
8
1
10
6.535492
20
5.241402
42
0.043497
0
VERTEX
8
1
10
6.571884
20
5.182007
0
VERTEX
8
1
10
6.579010
20
5.193382
42
-0.404183
0
VERTEX
8
1
10
6.765808
20
5.264221
42
0.145067
0
VERTEX
8
1
10
6.865921
20
5.199028
42
0.411569
0
VERTEX
8
1
10
6.893234
20
5.197365
42
-0.010166
0
SEQEND
0
POLYLINE
8
1
66
1
70
1
0
VERTEX
8
1
10
6.563293
20
5.594482
0
VERTEX
8
1
10
6.611969
20
5.613678
42
-0.232393
0
VERTEX
8
1
10
6.852142
20
5.607925
42
0.030243
0
VERTEX
8
1
10
7.016846
20
5.533859
42
0.106232
0
VERTEX
8
1
10
7.132004
20
5.528549
0
VERTEX
8
1
10
7.136780
20
5.543869
42
0.215500
0
VERTEX
8
1
10
7.074371
20
5.740768
42
0.295273
0
VERTEX
8
1
10
6.997971
20
5.755287
42
0.023594
0
VERTEX
8
1
10
6.886658
20
5.705276
42
-0.341236
0
VERTEX
8
1
10
6.842972
20
5.714401
0
VERTEX
8
1
10
6.835663
20
5.734200
0
VERTEX
8
1
10
6.832916
20
5.765213
0
VERTEX
8
1
10
6.801819
20
5.772293
0
VERTEX
8
1
10
6.767578
20
5.774399
42
-0.261500
0
VERTEX
8
1
10
6.600082
20
5.881599
42
-0.008705
0
VERTEX
8
1
10
6.556824
20
5.954094
42
-0.122804
0
VERTEX
8
1
10
6.521011
20
5.905174
0
VERTEX
8
1
10
6.515976
20
5.915092
42
0.077975
0
VERTEX
8
1
10
6.447052
20
6.080032
42
0.306309
0
VERTEX
8
1
10
6.347412
20
6.126709
42
-0.099383
0
VERTEX
8
1
10
6.306763
20
6.072456
0
VERTEX
8
1
10
6.304443
20
6.078644
0
VERTEX
8
1
10
6.298309
20
6.102875
42
0.106647
0
VERTEX
8
1
10
6.121948
20
6.363716
42
0.162193
0
VERTEX
8
1
10
6.050339
20
6.399345
0
VERTEX
8
1
10
6.046844
20
6.395317
42
0.022629
0
VERTEX
8
1
10
6.040466
20
6.345322
0
VERTEX
8
1
10
6.033157
20
6.343361
42
-0.203727
0
VERTEX
8
1
10
5.941437
20
6.430618
42
0.036429
0
VERTEX
8
1
10
5.862045
20
6.560570
42
0.296880
0
VERTEX
8
1
10
5.740540
20
6.611176
0
VERTEX
8
1
10
5.726685
20
6.604324
42
0.008465
0
VERTEX
8
1
10
5.718536
20
6.529808
0
VERTEX
8
1
10
5.696960
20
6.535446
42
-0.133496
0
VERTEX
8
1
10
5.595108
20
6.639381
0
VERTEX
8
1
10
5.578903
20
6.661041
42
0.271836
0
VERTEX
8
1
10
5.394501
20
6.753189
42
0.216615
0
VERTEX
8
1
10
5.318695
20
6.697838
42
-0.037873
0
VERTEX
8
1
10
5.254822
20
6.620804
0
VERTEX
8
1
10
5.247910
20
6.623924
42
0.019159
0
VERTEX
8
1
10
5.191925
20
6.678406
42
-0.022836
0
VERTEX
8
1
10
5.184555
20
6.711067
42
0.127846
0
VERTEX
8
1
10
5.053970
20
6.718307
42
-0.085124
0
VERTEX
8
1
10
4.969391
20
6.726341
42
0.027855
0
VERTEX
8
1
10
4.914917
20
6.712929
42
-0.164531
0
VERTEX
8
1
10
4.863266
20
6.594063
42
-0.098611
0
VERTEX
8
1
10
4.787994
20
6.613380
0
VERTEX
8
1
10
4.781998
20
6.626961
0
VERTEX
8
1
10
4.768723
20
6.659874
42
0.389172
0
VERTEX
8
1
10
4.623886
20
6.713600
42
0.243156
0
VERTEX
8
1
10
4.523163
20
6.603317
0
VERTEX
8
1
10
4.497833
20
6.592422
42
-0.090421
0
VERTEX
8
1
10
4.331604
20
6.661453
42
0.092136
0
VERTEX
8
1
10
4.155823
20
6.732033
0
VERTEX
8
1
10
4.119507
20
6.729256
0
VERTEX
8
1
10
4.088638
20
6.712822
0
VERTEX
8
1
10
4.064484
20
6.679955
0
VERTEX
8
1
10
4.048264
20
6.635139
0
VERTEX
8
1
10
4.032822
20
6.633476
42
-0.017915
0
VERTEX
8
1
10
3.857315
20
6.652626
42
0.161653
0
VERTEX
8
1
10
3.815430
20
6.645767
0
VERTEX
8
1
10
3.815186
20
6.637268
0
VERTEX
8
1
10
3.817734
20
6.632019
0
VERTEX
8
1
10
3.753860
20
6.652794
42
-0.199677
0
VERTEX
8
1
10
3.965607
20
6.461411
0
VERTEX
8
1
10
3.987747
20
6.445999
42
-0.039555
0
VERTEX
8
1
10
4.325165
20
6.405823
42
-0.177071
0
VERTEX
8
1
10
4.669159
20
6.177185
0
VERTEX
8
1
10
4.694061
20
6.145355
0
VERTEX
8
1
10
4.718399
20
6.113022
42
0.066703
0
VERTEX
8
1
10
4.941589
20
5.860725
42
0.267017
0
VERTEX
8
1
10
5.152756
20
5.824753
0
VERTEX
8
1
10
5.193695
20
5.836205
42
-0.177654
0
VERTEX
8
1
10
5.396240
20
5.831329
42
-0.059828
0
VERTEX
8
1
10
5.639114
20
5.695671
42
0.045618
0
VERTEX
8
1
10
5.779434
20
5.620735
0
VERTEX
8
1
10
5.810226
20
5.615768
42
-0.128461
0
VERTEX
8
1
10
6.151917
20
5.656479
42
-0.048270
0
VERTEX
8
1
10
6.324081
20
5.585022
42
0.192596
0
VERTEX
8
1
10
6.509155
20
5.576141
0
VERTEX
8
1
10
6.537155
20
5.584946
0
SEQEND
0
POLYLINE
8
1
66
1
0
VERTEX
8
1
10
3.154526
20
4.940086
42
0.174457
0
VERTEX
8
1
10
3.157120
20
4.902824
42
0.116086
0
VERTEX
8
1
10
3.321121
20
4.933983
42
0.348338
0
VERTEX
8
1
10
3.350723
20
5.014549
0
VERTEX
8
1
10
3.342911
20
5.040359
0
VERTEX
8
1
10
3.336777
20
5.052155
0
VERTEX
8
1
10
3.327820
20
5.063507
0
VERTEX
8
1
10
3.316467
20
5.074432
42
0.042422
0
VERTEX
8
1
10
3.155106
20
5.164024
42
0.022956
0
VERTEX
8
1
10
2.788910
20
5.372597
42
-0.059612
0
VERTEX
8
1
10
2.537842
20
5.550224
42
-0.014879
0
VERTEX
8
1
10
2.220779
20
5.828812
0
VERTEX
8
1
10
2.188812
20
5.850319
0
VERTEX
8
1
10
2.150650
20
5.870003
42
0.057718
0
VERTEX
8
1
10
1.741440
20
5.975334
42
-0.006117
0
VERTEX
8
1
10
1.570602
20
6.005318
0
SEQEND
0
POLYLINE
8
1
66
1
0
VERTEX
8
1
10
2.919067
20
5.107185
42
-0.089145
0
VERTEX
8
1
10
2.460068
20
5.367607
42
0.010525
0
VERTEX
8
1
10
2.041931
20
5.697975
42
0.096553
0
VERTEX
8
1
10
1.613419
20
5.900879
0
SEQEND
0
POLYLINE
8
1
66
1
0
VERTEX
8
1
10
2.706177
20
5.014694
42
0.035849
0
VERTEX
8
1
10
3.186081
20
4.753525
42
0.049459
0
VERTEX
8
1
10
3.530579
20
4.637901
0
VERTEX
8
1
10
3.618317
20
4.623131
42
0.122925
0
VERTEX
8
1
10
3.882629
20
4.644890
42
0.067366
0
VERTEX
8
1
10
3.924820
20
4.668312
42
0.626314
0
VERTEX
8
1
10
3.933228
20
4.648476
42
0.156860
0
VERTEX
8
1
10
4.106079
20
4.681740
42
0.247926
0
VERTEX
8
1
10
4.223053
20
4.956429
42
-0.133217
0
VERTEX
8
1
10
4.247528
20
5.106277
42
-0.198766
0
VERTEX
8
1
10
4.340027
20
5.167969
0
VERTEX
8
1
10
4.338409
20
5.176201
42
0.016639
0
VERTEX
8
1
10
4.225876
20
5.260201
42
-0.152735
0
VERTEX
8
1
10
4.155884
20
5.419266
42
0.203323
0
VERTEX
8
1
10
4.018341
20
5.635818
42
0.010673
0
VERTEX
8
1
10
3.882278
20
5.733788
0
SEQEND
0
POLYLINE
8
1
66
1
0
VERTEX
8
1
10
5.744507
20
3.979317
42
0.009795
0
VERTEX
8
1
10
5.375504
20
4.148819
42
-0.074805
0
VERTEX
8
1
10
4.948364
20
4.440376
42
0.021436
0
VERTEX
8
1
10
4.717056
20
4.626785
0
SEQEND
0
POLYLINE
8
1
66
1
0
VERTEX
8
1
10
5.466232
20
4.250824
0
VERTEX
8
1
10
5.466080
20
4.258774
42
0.123639
0
VERTEX
8
1
10
5.400635
20
4.297943
42
-0.037683
0
VERTEX
8
1
10
5.195724
20
4.391060
42
-0.119270
0
VERTEX
8
1
10
5.145157
20
4.438812
0
SEQEND
0
POLYLINE
8
1
66
1
0
VERTEX
8
1
10
5.594666
20
4.376152
0
VERTEX
8
1
10
5.582291
20
4.374413
42
-0.118070
0
VERTEX
8
1
10
5.359207
20
4.438812
0
SEQEND
0
ARC
8
1
10
12.924714
20
-2.337490
40
11.048816
50
142.853631
51
144.732975
0
POLYLINE
8
1
66
1
0
VERTEX
8
1
10
4.139145
20
4.125511
42
0.073708
0
VERTEX
8
1
10
4.106857
20
4.104546
0
VERTEX
8
1
10
4.106750
20
4.116562
0
VERTEX
8
1
10
4.113876
20
4.145340
42
-0.148959
0
VERTEX
8
1
10
4.263641
20
4.317169
0
VERTEX
8
1
10
4.289001
20
4.334373
0
SEQEND
0
ARC
8
1
10
4.637581
20
4.103821
40
0.285196
50
118.152096
51
175.638202
0
POLYLINE
8
1
66
1
0
VERTEX
8
1
10
6.339020
20
6.869881
42
0.158189
0
VERTEX
8
1
10
6.166672
20
6.886063
42
0.161554
0
VERTEX
8
1
10
6.089005
20
6.891319
42
-0.297276
0
VERTEX
8
1
10
6.023102
20
6.914116
0
VERTEX
8
1
10
6.014877
20
6.918846
42
0.015000
0
VERTEX
8
1
10
5.977783
20
6.888924
0
VERTEX
8
1
10
5.968124
20
6.889336
0
VERTEX
8
1
10
5.943787
20
6.897255
42
0.141065
0
VERTEX
8
1
10
5.723083
20
6.861649
0
SEQEND
0
POLYLINE
8
1
66
1
0
VERTEX
8
1
10
6.258209
20
6.673676
42
-0.025677
0
VERTEX
8
1
10
6.292969
20
6.673256
0
VERTEX
8
1
10
6.275513
20
6.680382
42
0.035718
0
VERTEX
8
1
10
6.079041
20
6.759933
42
0.030118
0
VERTEX
8
1
10
5.920013
20
6.780952
42
0.067808
0
VERTEX
8
1
10
5.869003
20
6.791191
0
VERTEX
8
1
10
5.868378
20
6.786743
0
VERTEX
8
1
10
5.872925
20
6.778114
0
SEQEND
0
POLYLINE
8
1
66
1
0
VERTEX
8
1
10
6.322418
20
6.527473
0
VERTEX
8
1
10
6.311905
20
6.538963
42
0.123853
0
VERTEX
8
1
10
6.019638
20
6.653336
0
VERTEX
8
1
10
6.001343
20
6.652802
0
SEQEND
0
ARC
8
1
10
2.934617
20
2.275527
40
5.314899
50
51.293215
51
52.756890
0
POLYLINE
8
1
66
1
0
VERTEX
8
1
10
7.001511
20
4.900200
42
0.041560
0
VERTEX
8
1
10
7.132614
20
5.013565
42
0.270550
0
VERTEX
8
1
10
7.184708
20
5.233360
0
VERTEX
8
1
10
7.179611
20
5.258400
0
VERTEX
8
1
10
7.175034
20
5.283646
42
-0.259243
0
VERTEX
8
1
10
7.228516
20
5.466431
0
VERTEX
8
1
10
7.242386
20
5.482391
42
0.338471
0
VERTEX
8
1
10
7.265335
20
5.675087
42
0.132694
0
VERTEX
8
1
10
7.169128
20
5.793022
0
VERTEX
8
1
10
7.157211
20
5.796440
0
SEQEND
0
POLYLINE
8
1
66
1
0
VERTEX
8
1
10
8.013382
20
6.360374
0
VERTEX
8
1
10
7.999466
20
6.365799
0
VERTEX
8
1
10
7.980972
20
6.367363
0
VERTEX
8
1
10
7.958588
20
6.365501
0
VERTEX
8
1
10
7.932983
20
6.360641
42
0.082556
0
VERTEX
8
1
10
7.485916
20
6.144394
42
0.106188
0
VERTEX
8
1
10
7.365189
20
6.013039
42
0.137804
0
VERTEX
8
1
10
7.349838
20
5.942635
0
SEQEND
0
POLYLINE
8
1
66
1
0
VERTEX
8
1
10
7.435471
20
5.879990
42
-0.062680
0
VERTEX
8
1
10
7.739517
20
6.153099
42
-0.114417
0
VERTEX
8
1
10
7.842148
20
6.193275
0
SEQEND
0
ARC
8
1
10
7.942290
20
5.193147
40
0.726565
50
103.073618
51
136.638932
0
POLYLINE
8
1
66
1
0
VERTEX
8
1
10
7.392654
20
5.587578
42
-0.014445
0
VERTEX
8
1
10
7.643692
20
5.611778
0
VERTEX
8
1
10
7.669434
20
5.611000
0
VERTEX
8
1
10
7.692322
20
5.608467
0
SEQEND
0
POLYLINE
8
1
66
1
0
VERTEX
8
1
10
7.649506
20
5.420479
42
-0.067297
0
VERTEX
8
1
10
7.465469
20
5.448517
42
0.038803
0
VERTEX
8
1
10
7.371246
20
5.462250
0
SEQEND
0
POLYLINE
8
1
66
1
0
VERTEX
8
1
10
7.606705
20
5.190727
0
VERTEX
8
1
10
7.602859
20
5.208481
0
VERTEX
8
1
10
7.588776
20
5.225227
0
VERTEX
8
1
10
7.566422
20
5.240715
42
0.111864
0
VERTEX
8
1
10
7.342209
20
5.294739
42
-0.888674
0
VERTEX
8
1
10
7.340729
20
5.309677
0
VERTEX
8
1
10
7.344757
20
5.312744
0
VERTEX
8
1
10
7.349838
20
5.316048
0
SEQEND
0
POLYLINE
8
1
66
1
0
VERTEX
8
1
10
7.563904
20
5.023636
0
VERTEX
8
1
10
7.546112
20
5.035835
42
-0.014683
0
VERTEX
8
1
10
7.376404
20
5.133270
42
-0.159337
0
VERTEX
8
1
10
7.328445
20
5.190727
0
SEQEND
0
POLYLINE
8
1
66
1
0
VERTEX
8
1
10
7.542496
20
4.731224
42
0.075304
0
VERTEX
8
1
10
7.299042
20
4.965996
0
VERTEX
8
1
10
7.279907
20
4.976486
0
VERTEX
8
1
10
7.264236
20
4.981865
0
SEQEND
0
POLYLINE
8
1
66
1
0
VERTEX
8
1
10
7.478287
20
4.480591
0
VERTEX
8
1
10
7.475693
20
4.494560
0
VERTEX
8
1
10
7.466492
20
4.512741
0
VERTEX
8
1
10
7.451538
20
4.534500
0
VERTEX
8
1
10
7.431747
20
4.559212
42
0.016050
0
VERTEX
8
1
10
7.145248
20
4.845566
0
VERTEX
8
1
10
7.135818
20
4.856552
0
SEQEND
0
POLYLINE
8
1
66
1
0
VERTEX
8
1
10
7.392654
20
4.250824
42
-0.014436
0
VERTEX
8
1
10
7.294510
20
4.471603
42
0.092494
0
VERTEX
8
1
10
7.206116
20
4.590210
42
-0.097311
0
VERTEX
8
1
10
7.079056
20
4.749649
0
VERTEX
8
1
10
7.071579
20
4.773003
0
SEQEND
0
POLYLINE
8
1
66
1
0
VERTEX
8
1
10
2.191315
20
6.109741
0
VERTEX
8
1
10
2.194870
20
6.098213
42
-0.223250
0
VERTEX
8
1
10
2.212173
20
6.032997
42
0.096099
0
VERTEX
8
1
10
2.234131
20
6.130623
0
SEQEND
0
POLYLINE
8
1
66
1
70
1
0
VERTEX
8
1
10
7.308182
20
2.938301
42
-0.024396
0
VERTEX
8
1
10
7.350281
20
2.922348
42
-0.148522
0
VERTEX
8
1
10
7.285126
20
2.713409
42
0.009399
0
VERTEX
8
1
10
7.161423
20
2.528404
42
0.088941
0
VERTEX
8
1
10
7.115509
20
2.410416
42
-0.055078
0
VERTEX
8
1
10
7.123779
20
2.336288
42
-0.164775
0
VERTEX
8
1
10
7.054382
20
2.243965
0
VERTEX
8
1
10
7.048477
20
2.237770
42
0.181582
0
VERTEX
8
1
10
6.972900
20
1.932495
0
VERTEX
8
1
10
6.977875
20
1.912636
0
VERTEX
8
1
10
6.977219
20
1.897057
42
0.171102
0
VERTEX
8
1
10
6.904190
20
1.744598
42
0.088282
0
VERTEX
8
1
10
6.916077
20
1.691383
42
0.010147
0
VERTEX
8
1
10
6.899628
20
1.634064
42
0.022005
0
VERTEX
8
1
10
6.866592
20
1.626884
42
0.083025
0
VERTEX
8
1
10
6.828857
20
1.526367
42
-0.279426
0
VERTEX
8
1
10
6.814011
20
1.440247
42
0.062546
0
VERTEX
8
1
10
6.737305
20
1.330536
42
0.146818
0
VERTEX
8
1
10
6.743408
20
1.196854
0
VERTEX
8
1
10
6.753662
20
1.160248
42
-0.174393
0
VERTEX
8
1
10
6.757965
20
1.031395
0
VERTEX
8
1
10
6.754257
20
1.025597
42
0.089186
0
VERTEX
8
1
10
6.695969
20
0.958618
42
0.184253
0
VERTEX
8
1
10
6.705719
20
0.854393
42
-0.276111
0
VERTEX
8
1
10
6.682037
20
0.752342
42
0.084740
0
VERTEX
8
1
10
6.628250
20
0.673553
42
0.295810
0
VERTEX
8
1
10
6.644135
20
0.619850
42
-0.471039
0
VERTEX
8
1
10
6.660339
20
0.576286
42
-0.047390
0
VERTEX
8
1
10
6.566010
20
0.363411
42
-0.016289
0
VERTEX
8
1
10
6.623428
20
0.330551
0
VERTEX
8
1
10
6.617020
20
0.307289
42
-0.493196
0
VERTEX
8
1
10
6.501572
20
0.265205
42
-0.208940
0
VERTEX
8
1
10
6.429550
20
0.352806
42
0.022340
0
VERTEX
8
1
10
6.396500
20
0.359985
0
VERTEX
8
1
10
6.393234
20
0.371178
42
0.153829
0
VERTEX
8
1
10
6.282135
20
0.562767
42
-0.019995
0
VERTEX
8
1
10
6.117371
20
0.730118
42
-0.101824
0
VERTEX
8
1
10
6.021286
20
0.927910
42
0.038707
0
VERTEX
8
1
10
5.926849
20
1.208321
42
0.115961
0
VERTEX
8
1
10
5.804001
20
1.364792
42
0.286710
0
VERTEX
8
1
10
5.683502
20
1.372673
42
0.100519
0
VERTEX
8
1
10
5.577560
20
1.278557
0
VERTEX
8
1
10
5.552979
20
1.247864
42
-0.081663
0
VERTEX
8
1
10
5.360077
20
1.040627
42
0.089609
0
VERTEX
8
1
10
5.205704
20
0.867393
42
0.275675
0
VERTEX
8
1
10
5.207626
20
0.699089
0
VERTEX
8
1
10
5.208618
20
0.694473
42
-0.088331
0
VERTEX
8
1
10
5.176926
20
0.708321
42
-0.426725
0
VERTEX
8
1
10
5.017380
20
0.745461
0
VERTEX
8
1
10
5.010056
20
0.754272
42
-0.007236
0
VERTEX
8
1
10
4.864624
20
0.675606
0
VERTEX
8
1
10
4.853516
20
0.667519
42
0.541652
0
VERTEX
8
1
10
4.858124
20
0.536819
42
-0.129278
0
VERTEX
8
1
10
4.903198
20
0.483902
42
-0.149479
0
VERTEX
8
1
10
4.898117
20
0.442444
42
0.230957
0
VERTEX
8
1
10
4.992004
20
0.354095
0
VERTEX
8
1
10
4.995651
20
0.349060
42
0.278828
0
VERTEX
8
1
10
5.035553
20
0.261200
0
VERTEX
8
1
10
5.051865
20
0.244453
42
-0.409540
0
VERTEX
8
1
10
5.050598
20
0.088478
0
VERTEX
8
1
10
5.012070
20
0.085670
0
VERTEX
8
1
10
4.952652
20
0.099541
0
VERTEX
8
1
10
4.876160
20
0.127457
0
VERTEX
8
1
10
4.786392
20
0.166786
42
-0.024335
0
VERTEX
8
1
10
3.993881
20
0.607399
0
VERTEX
8
1
10
3.822601
20
0.482063
0
VERTEX
8
1
10
3.795135
20
0.471397
42
0.090730
0
VERTEX
8
1
10
3.568726
20
0.341812
42
-0.067471
0
VERTEX
8
1
10
3.425888
20
0.285027
42
0.127521
0
VERTEX
8
1
10
3.264496
20
0.191368
42
-0.299333
0
VERTEX
8
1
10
3.176483
20
0.188843
42
0.188180
0
VERTEX
8
1
10
3.082565
20
0.192924
42
-0.134980
0
VERTEX
8
1
10
2.784882
20
0.143394
0
VERTEX
8
1
10
2.759842
20
0.146736
0
VERTEX
8
1
10
2.738678
20
0.154259
0
VERTEX
8
1
10
2.734222
20
0.173561
0
VERTEX
8
1
10
2.744934
20
0.203278
0
VERTEX
8
1
10
2.768463
20
0.241531
0
VERTEX
8
1
10
2.802475
20
0.286461
42
-0.029570
0
VERTEX
8
1
10
3.201767
20
0.690796
42
0.140226
0
VERTEX
8
1
10
2.893982
20
0.802826
0
VERTEX
8
1
10
2.855484
20
0.801353
42
-0.116598
0
VERTEX
8
1
10
2.683929
20
0.806892
0
VERTEX
8
1
10
2.618393
20
0.820656
42
-0.055449
0
VERTEX
8
1
10
1.488403
20
1.245743
0
VERTEX
8
1
10
1.394989
20
1.300636
42
-0.111711
0
VERTEX
8
1
10
0.589737
20
2.135017
0
VERTEX
8
1
10
0.550003
20
2.208000
0
VERTEX
8
1
10
0.511169
20
2.271713
0
VERTEX
8
1
10
0.471558
20
2.318810
0
VERTEX
8
1
10
0.451141
20
2.361557
0
VERTEX
8
1
10
0.447632
20
2.400116
0
VERTEX
8
1
10
0.458786
20
2.434639
0
VERTEX
8
1
10
0.482300
20
2.465263
0
VERTEX
8
1
10
0.515915
20
2.492165
0
VERTEX
8
1
10
0.557388
20
2.515472
42
-0.091872
0
VERTEX
8
1
10
0.901581
20
2.592400
0
VERTEX
8
1
10
0.943222
20
2.599762
0
VERTEX
8
1
10
1.003403
20
2.614014
42
0.011576
0
VERTEX
8
1
10
1.963440
20
2.905556
42
-0.001532
0
VERTEX
8
1
10
3.211731
20
3.169495
0
VERTEX
8
1
10
3.323990
20
3.185394
0
VERTEX
8
1
10
3.444122
20
3.197472
42
-0.032088
0
VERTEX
8
1
10
4.571564
20
3.197365
0
VERTEX
8
1
10
4.743073
20
3.197350
0
VERTEX
8
1
10
4.772827
20
3.217010
0
VERTEX
8
1
10
4.816818
20
3.236572
42
-0.096421
0
VERTEX
8
1
10
5.399979
20
3.314438
42
-0.108372
0
VERTEX
8
1
10
5.570343
20
3.266228
0
VERTEX
8
1
10
5.602554
20
3.235771
0
VERTEX
8
1
10
5.616730
20
3.202744
42
0.003747
0
VERTEX
8
1
10
5.560608
20
3.147995
42
-0.111268
0
VERTEX
8
1
10
5.616608
20
3.040192
0
VERTEX
8
1
10
5.610428
20
3.031219
42
0.368289
0
VERTEX
8
1
10
5.564850
20
2.903519
42
0.050358
0
VERTEX
8
1
10
5.587250
20
2.847572
0
VERTEX
8
1
10
5.584595
20
2.838425
42
0.434003
0
VERTEX
8
1
10
5.545776
20
2.719231
0
VERTEX
8
1
10
5.545151
20
2.714584
42
-0.028314
0
VERTEX
8
1
10
5.500793
20
2.672043
0
VERTEX
8
1
10
5.427994
20
2.654282
42
0.117855
0
VERTEX
8
1
10
5.625290
20
2.475677
0
VERTEX
8
1
10
5.643494
20
2.467834
0
VERTEX
8
1
10
5.659409
20
2.461937
42
-0.019948
0
VERTEX
8
1
10
5.666824
20
2.429756
0
VERTEX
8
1
10
5.674988
20
2.428612
42
-0.352253
0
VERTEX
8
1
10
5.865433
20
2.287369
42
-0.196385
0
VERTEX
8
1
10
5.847168
20
2.192245
0
VERTEX
8
1
10
5.853302
20
2.160446
42
0.229114
0
VERTEX
8
1
10
5.987228
20
2.106972
42
0.123640
0
VERTEX
8
1
10
6.204803
20
2.188286
42
0.044109
0
VERTEX
8
1
10
6.532761
20
2.450264
42
-0.065204
0
VERTEX
8
1
10
6.834061
20
2.645332
42
0.025734
0
VERTEX
8
1
10
7.150513
20
2.814514
42
0.043401
0
SEQEND
0
POLYLINE
8
1
66
1
70
1
0
VERTEX
8
1
10
5.458664
20
2.811501
42
1.197010
0
VERTEX
8
1
10
5.478165
20
2.837036
0
VERTEX
8
1
10
5.449799
20
2.860840
42
0.114437
0
VERTEX
8
1
10
5.162582
20
2.962952
0
VERTEX
8
1
10
5.146103
20
2.961929
42
1.057144
0
VERTEX
8
1
10
5.155731
20
2.931534
0
VERTEX
8
1
10
5.191666
20
2.929283
42
-0.104770
0
VERTEX
8
1
10
5.448380
20
2.822578
0
SEQEND
0
POLYLINE
8
1
66
1
70
1
0
VERTEX
8
1
10
5.397858
20
2.703964
42
1.071403
0
VERTEX
8
1
10
5.413452
20
2.731361
42
0.021055
0
VERTEX
8
1
10
5.303482
20
2.815651
42
0.792362
0
VERTEX
8
1
10
5.289322
20
2.788658
42
-0.008722
0
SEQEND
0
POLYLINE
8
1
66
1
70
1
0
VERTEX
8
1
10
5.084229
20
3.056427
42
-0.111557
0
VERTEX
8
1
10
5.328476
20
2.999657
0
VERTEX
8
1
10
5.391357
20
2.971107
42
0.578239
0
VERTEX
8
1
10
5.412338
20
2.952118
42
0.035017
0
VERTEX
8
1
10
5.450562
20
2.953705
42
0.628124
0
VERTEX
8
1
10
5.447876
20
2.981773
0
VERTEX
8
1
10
5.435425
20
2.986580
42
0.026537
0
VERTEX
8
1
10
5.239929
20
3.066795
42
0.016817
0
VERTEX
8
1
10
5.065048
20
3.091759
0
VERTEX
8
1
10
5.038223
20
3.099174
0
VERTEX
8
1
10
5.027542
20
3.101379
0
VERTEX
8
1
10
5.018311
20
3.101723
0
VERTEX
8
1
10
5.010574
20
3.099464
42
0.711018
0
VERTEX
8
1
10
5.025513
20
3.056938
42
0.251908
0
VERTEX
8
1
10
5.036240
20
3.067291
42
0.043636
0
SEQEND
0
POLYLINE
8
1
66
1
70
1
0
VERTEX
8
1
10
5.146088
20
3.219063
42
0.013696
0
VERTEX
8
1
10
5.123566
20
3.201546
0
VERTEX
8
1
10
5.113586
20
3.201462
0
VERTEX
8
1
10
5.066406
20
3.210281
42
0.129956
0
VERTEX
8
1
10
4.859802
20
3.165993
42
0.809181
0
VERTEX
8
1
10
4.877869
20
3.141266
42
-0.151064
0
VERTEX
8
1
10
5.098755
20
3.173492
0
VERTEX
8
1
10
5.116119
20
3.165451
42
0.338242
0
VERTEX
8
1
10
5.146347
20
3.179794
0
VERTEX
8
1
10
5.150085
20
3.182777
0
VERTEX
8
1
10
5.163818
20
3.193199
42
0.280498
0
VERTEX
8
1
10
5.256393
20
3.172089
42
-0.083590
0
VERTEX
8
1
10
5.316864
20
3.164429
42
-0.129576
0
VERTEX
8
1
10
5.435623
20
3.162971
42
1.131384
0
VERTEX
8
1
10
5.466644
20
3.152992
0
VERTEX
8
1
10
5.468384
20
3.154861
42
-0.011849
0
VERTEX
8
1
10
5.506271
20
3.137733
42
0.699884
0
VERTEX
8
1
10
5.513123
20
3.168228
42
0.385942
0
VERTEX
8
1
10
5.470032
20
3.189651
42
0.106010
0
VERTEX
8
1
10
5.312485
20
3.197990
42
0.146690
0
VERTEX
8
1
10
5.227936
20
3.199890
42
-0.319275
0
VERTEX
8
1
10
5.176941
20
3.226089
42
0.391337
0
SEQEND
0
POLYLINE
8
1
66
1
70
1
0
VERTEX
8
1
10
3.531052
20
2.928177
42
0.037391
0
VERTEX
8
1
10
3.350113
20
3.016129
0
VERTEX
8
1
10
3.309067
20
3.025452
0
VERTEX
8
1
10
3.272156
20
3.024200
0
VERTEX
8
1
10
3.240540
20
3.009613
0
VERTEX
8
1
10
3.215485
20
2.978951
0
VERTEX
8
1
10
3.198181
20
2.929443
0
VERTEX
8
1
10
3.183472
20
2.927460
42
-0.022018
0
VERTEX
8
1
10
3.008484
20
2.946358
42
0.143676
0
VERTEX
8
1
10
2.964432
20
2.940483
0
VERTEX
8
1
10
2.963135
20
2.932457
0
VERTEX
8
1
10
2.966263
20
2.925880
0
VERTEX
8
1
10
2.902283
20
2.946693
42
-0.197643
0
VERTEX
8
1
10
3.112762
20
2.757957
0
VERTEX
8
1
10
3.130249
20
2.740463
42
-0.036994
0
VERTEX
8
1
10
3.468521
20
2.701004
42
-0.177419
0
VERTEX
8
1
10
3.814346
20
2.475044
42
0.023575
0
VERTEX
8
1
10
4.003922
20
2.236092
42
0.103166
0
VERTEX
8
1
10
4.145660
20
2.121719
42
0.185139
0
VERTEX
8
1
10
4.319031
20
2.123589
42
-0.211692
0
VERTEX
8
1
10
4.576965
20
2.112549
42
-0.038137
0
VERTEX
8
1
10
4.817184
20
1.971230
42
0.081897
0
VERTEX
8
1
10
4.956070
20
1.908432
42
-0.128319
0
VERTEX
8
1
10
5.297623
20
1.950996
42
-0.052031
0
VERTEX
8
1
10
5.469620
20
1.880135
42
0.191787
0
VERTEX
8
1
10
5.653870
20
1.869019
42
0.016989
0
VERTEX
8
1
10
5.804489
20
1.922707
42
-0.189043
0
VERTEX
8
1
10
5.997314
20
1.903206
42
0.025433
0
VERTEX
8
1
10
6.162109
20
1.828629
42
0.106036
0
VERTEX
8
1
10
6.276199
20
1.821831
0
VERTEX
8
1
10
6.284714
20
1.835709
42
0.215157
0
VERTEX
8
1
10
6.224442
20
2.033104
42
0.296325
0
VERTEX
8
1
10
6.149246
20
2.049995
42
0.031712
0
VERTEX
8
1
10
6.037399
20
1.999977
42
-0.318937
0
VERTEX
8
1
10
5.992584
20
2.006554
0
VERTEX
8
1
10
5.984741
20
2.025078
0
VERTEX
8
1
10
5.981400
20
2.054604
0
VERTEX
8
1
10
5.954788
20
2.066124
0
VERTEX
8
1
10
5.919998
20
2.067909
42
-0.263089
0
VERTEX
8
1
10
5.750336
20
2.172630
0
VERTEX
8
1
10
5.735367
20
2.196808
0
VERTEX
8
1
10
5.705490
20
2.248886
42
-0.129850
0
VERTEX
8
1
10
5.669769
20
2.199615
0
VERTEX
8
1
10
5.665146
20
2.206581
42
0.074307
0
VERTEX
8
1
10
5.597244
20
2.371376
42
0.299911
0
VERTEX
8
1
10
5.498291
20
2.421272
42
-0.066056
0
VERTEX
8
1
10
5.455505
20
2.366867
0
VERTEX
8
1
10
5.453171
20
2.369965
0
VERTEX
8
1
10
5.447769
20
2.393456
42
0.124476
0
VERTEX
8
1
10
5.247543
20
2.675400
0
VERTEX
8
1
10
5.223129
20
2.688759
0
VERTEX
8
1
10
5.201233
20
2.693367
0
VERTEX
8
1
10
5.195297
20
2.689766
42
0.020818
0
VERTEX
8
1
10
5.188873
20
2.639755
0
VERTEX
8
1
10
5.185181
20
2.636551
0
VERTEX
8
1
10
5.157639
20
2.646523
42
-0.128063
0
VERTEX
8
1
10
5.073273
20
2.753555
42
0.079932
0
VERTEX
8
1
10
4.989319
20
2.876579
42
0.303172
0
VERTEX
8
1
10
4.875031
20
2.898918
42
0.023352
0
VERTEX
8
1
10
4.868271
20
2.823860
0
VERTEX
8
1
10
4.847916
20
2.828384
0
VERTEX
8
1
10
4.828110
20
2.838135
42
-0.081030
0
VERTEX
8
1
10
4.729340
20
2.952286
42
0.270839
0
VERTEX
8
1
10
4.545410
20
3.047447
42
0.223873
0
VERTEX
8
1
10
4.468719
20
2.993866
42
-0.034800
0
VERTEX
8
1
10
4.405731
20
2.917221
0
VERTEX
8
1
10
4.396912
20
2.917046
42
0.024074
0
VERTEX
8
1
10
4.340408
20
2.971977
42
-0.022876
0
VERTEX
8
1
10
4.333008
20
3.004646
42
0.132377
0
VERTEX
8
1
10
4.204346
20
3.012337
42
-0.094255
0
VERTEX
8
1
10
4.119064
20
3.020500
42
0.022819
0
VERTEX
8
1
10
4.063843
20
3.006958
0
VERTEX
8
1
10
4.060974
20
3.002335
42
-0.172194
0
VERTEX
8
1
10
4.012573
20
2.888985
42
-0.111418
0
VERTEX
8
1
10
3.936981
20
2.906967
0
VERTEX
8
1
10
3.931656
20
2.916237
0
VERTEX
8
1
10
3.919052
20
2.950081
42
0.391750
0
VERTEX
8
1
10
3.775635
20
3.008636
42
0.243196
0
VERTEX
8
1
10
3.672791
20
2.901360
0
VERTEX
8
1
10
3.650421
20
2.886124
42
-0.117004
0
SEQEND
0
POLYLINE
8
1
66
1
70
1
0
VERTEX
8
1
10
2.795242
20
1.296654
42
0.217468
0
VERTEX
8
1
10
2.689133
20
1.342789
42
0.463381
0
VERTEX
8
1
10
2.639267
20
1.270981
0
VERTEX
8
1
10
2.645294
20
1.250931
0
VERTEX
8
1
10
2.656601
20
1.229614
0
VERTEX
8
1
10
2.673584
20
1.207405
0
VERTEX
8
1
10
2.693481
20
1.187592
42
0.167042
0
VERTEX
8
1
10
3.022369
20
1.082687
42
0.171567
0
VERTEX
8
1
10
3.145966
20
1.136101
42
0.249855
0
VERTEX
8
1
10
3.162094
20
1.264503
42
0.004888
0
VERTEX
8
1
10
3.114609
20
1.408295
42
-0.023904
0
VERTEX
8
1
10
3.100708
20
1.575607
42
0.155671
0
VERTEX
8
1
10
3.056564
20
1.696793
0
VERTEX
8
1
10
3.037064
20
1.713234
0
VERTEX
8
1
10
3.012634
20
1.725960
0
VERTEX
8
1
10
2.987671
20
1.726601
42
0.256360
0
VERTEX
8
1
10
2.954651
20
1.599022
0
VERTEX
8
1
10
2.957489
20
1.579247
0
VERTEX
8
1
10
2.960693
20
1.559151
42
-0.200148
0
VERTEX
8
1
10
2.930588
20
1.370430
42
-0.150101
0
VERTEX
8
1
10
2.854416
20
1.281837
42
-0.353910
0
SEQEND
0
POLYLINE
8
1
66
1
70
1
0
VERTEX
8
1
10
2.176971
20
2.037064
0
VERTEX
8
1
10
2.180679
20
2.031219
42
-0.069137
0
VERTEX
8
1
10
2.157623
20
1.974091
0
VERTEX
8
1
10
2.151321
20
1.970612
0
VERTEX
8
1
10
2.143204
20
1.971001
42
-0.472891
0
VERTEX
8
1
10
2.113922
20
2.185493
42
-0.248957
0
VERTEX
8
1
10
2.249191
20
2.252785
42
-0.573745
0
VERTEX
8
1
10
2.348099
20
2.033844
42
-0.127055
0
VERTEX
8
1
10
2.257858
20
1.972305
42
-0.708609
0
VERTEX
8
1
10
2.228851
20
1.999329
42
-0.003054
0
VERTEX
8
1
10
2.235580
20
2.029846
42
0.398354
0
VERTEX
8
1
10
2.261230
20
2.121567
0
VERTEX
8
1
10
2.247421
20
2.135666
42
0.563585
0
VERTEX
8
1
10
2.140045
20
2.081902
42
0.378212
0
SEQEND
0
POLYLINE
8
1
66
1
70
1
0
VERTEX
8
1
10
1.366913
20
2.425873
0
VERTEX
8
1
10
1.362656
20
2.391235
0
VERTEX
8
1
10
1.360901
20
2.391548
0
VERTEX
8
1
10
1.358612
20
2.396027
0
VERTEX
8
1
10
1.356720
20
2.400658
42
1.228892
0
VERTEX
8
1
10
1.324844
20
2.398293
42
0.009078
0
VERTEX
8
1
10
1.347244
20
2.346581
0
VERTEX
8
1
10
1.346573
20
2.335663
42
1.242416
0
VERTEX
8
1
10
1.377747
20
2.326653
42
0.086794
0
VERTEX
8
1
10
1.397934
20
2.427261
42
0.877615
0
SEQEND
0
POLYLINE
8
1
66
1
70
1
0
VERTEX
8
1
10
0.720871
20
2.314751
42
0.922829
0
VERTEX
8
1
10
0.714630
20
2.284180
42
-0.003474
0
VERTEX
8
1
10
1.089996
20
2.213913
42
-0.063074
0
VERTEX
8
1
10
1.320068
20
2.136002
0
VERTEX
8
1
10
1.359329
20
2.110573
42
0.023911
0
VERTEX
8
1
10
1.814804
20
1.722923
42
0.015193
0
VERTEX
8
1
10
2.194778
20
1.507996
0
VERTEX
8
1
10
2.217819
20
1.494286
42
0.046254
0
VERTEX
8
1
10
2.410736
20
1.386055
42
-0.201301
0
VERTEX
8
1
10
2.480835
20
1.316643
42
-0.443274
0
VERTEX
8
1
10
2.447006
20
1.233627
42
-0.081316
0
VERTEX
8
1
10
2.316818
20
1.213737
0
VERTEX
8
1
10
2.316528
20
1.218102
0
VERTEX
8
1
10
2.316681
20
1.222473
42
1.493249
0
VERTEX
8
1
10
2.286087
20
1.230026
42
0.324355
0
VERTEX
8
1
10
2.301773
20
1.180405
0
VERTEX
8
1
10
2.306168
20
1.179794
42
0.085976
0
VERTEX
8
1
10
2.466461
20
1.208099
42
0.406130
0
VERTEX
8
1
10
2.511307
20
1.323906
42
0.206578
0
VERTEX
8
1
10
2.449493
20
1.399178
42
0.001042
0
VERTEX
8
1
10
2.300903
20
1.477631
42
0.030251
0
VERTEX
8
1
10
1.987183
20
1.656830
42
-0.064073
0
VERTEX
8
1
10
1.692139
20
1.859543
42
-0.014758
0
VERTEX
8
1
10
1.379929
20
2.134125
42
0.092638
0
VERTEX
8
1
10
1.167389
20
2.226402
42
0.018216
0
SEQEND
0
POLYLINE
8
1
66
1
70
1
0
VERTEX
8
1
10
0.764679
20
2.210159
42
0.948414
0
VERTEX
8
1
10
0.757294
20
2.179794
42
-0.094893
0
VERTEX
8
1
10
1.158875
20
1.994324
42
-0.019450
0
VERTEX
8
1
10
1.568192
20
1.673210
42
0.084959
0
VERTEX
8
1
10
2.039108
20
1.393982
0
VERTEX
8
1
10
2.062927
20
1.386108
42
0.947273
0
VERTEX
8
1
10
2.073578
20
1.415504
42
-0.088083
0
VERTEX
8
1
10
1.638763
20
1.658028
42
0.006420
0
VERTEX
8
1
10
1.234940
20
1.979080
42
0.101473
0
SEQEND
0
POLYLINE
8
1
66
1
70
1
0
VERTEX
8
1
10
1.860977
20
1.322884
42
0.926807
0
VERTEX
8
1
10
1.846069
20
1.295471
42
0.052356
0
VERTEX
8
1
10
2.473450
20
0.974533
42
0.082221
0
VERTEX
8
1
10
2.861984
20
0.894318
42
0.128371
0
VERTEX
8
1
10
3.062073
20
0.936005
0
VERTEX
8
1
10
3.073303
20
0.929153
42
0.150782
0
VERTEX
8
1
10
3.248901
20
0.953423
42
0.254069
0
VERTEX
8
1
10
3.386887
20
1.226936
42
-0.093744
0
VERTEX
8
1
10
3.402176
20
1.378571
0
VERTEX
8
1
10
3.412689
20
1.397209
42
-0.182004
0
VERTEX
8
1
10
3.502289
20
1.450218
42
0.582825
0
VERTEX
8
1
10
3.497772
20
1.481270
42
0.010119
0
VERTEX
8
1
10
3.384186
20
1.566299
42
-0.150330
0
VERTEX
8
1
10
3.321716
20
1.706474
42
0.195856
0
VERTEX
8
1
10
3.185349
20
1.934792
42
0.016881
0
VERTEX
8
1
10
3.033829
20
2.043030
42
0.875680
0
VERTEX
8
1
10
3.023834
20
2.013283
42
-0.018163
0
VERTEX
8
1
10
3.181473
20
1.896820
42
-0.183394
0
VERTEX
8
1
10
3.295685
20
1.679756
0
VERTEX
8
1
10
3.298233
20
1.668983
42
0.237432
0
VERTEX
8
1
10
3.416641
20
1.503304
42
-0.021654
0
VERTEX
8
1
10
3.461517
20
1.471436
42
0.294129
0
VERTEX
8
1
10
3.360046
20
1.341507
0
VERTEX
8
1
10
3.357361
20
1.316452
0
VERTEX
8
1
10
3.356171
20
1.290833
0
VERTEX
8
1
10
3.355835
20
1.264954
0
VERTEX
8
1
10
3.355774
20
1.246727
42
-0.259847
0
VERTEX
8
1
10
3.237213
20
0.982925
42
-0.125339
0
VERTEX
8
1
10
3.089676
20
0.956116
0
VERTEX
8
1
10
3.088501
20
0.958008
42
0.880807
0
VERTEX
8
1
10
3.056320
20
0.969276
0
VERTEX
8
1
10
3.031158
20
0.955910
0
VERTEX
8
1
10
2.985291
20
0.940308
0
VERTEX
8
1
10
2.916489
20
0.928787
0
VERTEX
8
1
10
2.822571
20
0.927673
0
VERTEX
8
1
10
2.701279
20
0.943291
0
VERTEX
8
1
10
2.550430
20
0.981972
0
VERTEX
8
1
10
2.367798
20
1.050041
0
VERTEX
8
1
10
2.151154
20
1.153816
0
VERTEX
8
1
10
1.898315
20
1.299622
0
SEQEND
0
POLYLINE
8
1
66
1
70
1
0
VERTEX
8
1
10
3.076981
20
0.342445
42
-0.010613
0
VERTEX
8
1
10
3.281433
20
0.625008
42
0.720252
0
VERTEX
8
1
10
3.255859
20
0.640099
42
0.022487
0
VERTEX
8
1
10
3.070068
20
0.385460
42
0.007791
0
VERTEX
8
1
10
3.037155
20
0.340569
42
0.827006
0
VERTEX
8
1
10
3.064209
20
0.325996
0
SEQEND
0
POLYLINE
8
1
66
1
70
1
0
VERTEX
8
1
10
3.278503
20
0.432190
0
VERTEX
8
1
10
3.275864
20
0.430168
0
VERTEX
8
1
10
3.288483
20
0.459763
42
-0.112728
0
VERTEX
8
1
10
3.449142
20
0.617943
42
0.791982
0
VERTEX
8
1
10
3.431473
20
0.642784
42
0.105908
0
VERTEX
8
1
10
3.264816
20
0.481857
0
VERTEX
8
1
10
3.242126
20
0.425903
0
VERTEX
8
1
10
3.238235
20
0.394653
42
0.833636
0
VERTEX
8
1
10
3.271347
20
0.393463
42
0.265647
0
VERTEX
8
1
10
3.303177
20
0.419945
42
0.597638
0
SEQEND
0
POLYLINE
8
1
66
1
70
1
0
VERTEX
8
1
10
3.499084
20
0.403961
42
0.533949
0
VERTEX
8
1
10
3.517441
20
0.424034
42
-0.249603
0
VERTEX
8
1
10
3.662048
20
0.637688
42
0.863353
0
VERTEX
8
1
10
3.644562
20
0.663246
42
0.268402
0
VERTEX
8
1
10
3.486755
20
0.414467
42
0.277749
0
SEQEND
0
POLYLINE
8
1
66
1
70
1
0
VERTEX
8
1
10
3.739655
20
1.066467
42
-0.038454
0
VERTEX
8
1
10
3.868454
20
1.265282
42
0.068593
0
VERTEX
8
1
10
4.033493
20
1.569023
42
0.077681
0
VERTEX
8
1
10
4.058121
20
1.714378
0
VERTEX
8
1
10
4.051804
20
1.755402
0
VERTEX
8
1
10
4.033600
20
1.808464
0
VERTEX
8
1
10
4.004852
20
1.871353
42
0.081839
0
VERTEX
8
1
10
3.556396
20
2.462715
42
0.090542
0
VERTEX
8
1
10
3.376968
20
2.578911
0
VERTEX
8
1
10
3.326553
20
2.587158
0
VERTEX
8
1
10
3.283081
20
2.576454
0
VERTEX
8
1
10
3.247910
20
2.544609
42
0.357125
0
VERTEX
8
1
10
3.351746
20
2.466309
42
-0.068360
0
VERTEX
8
1
10
3.692764
20
2.119774
42
-0.273295
0
VERTEX
8
1
10
3.774704
20
1.326004
42
-0.089764
0
VERTEX
8
1
10
3.510147
20
0.958618
42
-0.013578
0
VERTEX
8
1
10
3.338348
20
0.793900
42
-0.019470
0
VERTEX
8
1
10
3.486359
20
0.856918
0
VERTEX
8
1
10
3.491547
20
0.857880
42
0.246339
0
VERTEX
8
1
10
3.663651
20
0.944656
42
0.046494
0
SEQEND
0
POLYLINE
8
1
66
1
70
1
0
VERTEX
8
1
10
4.885696
20
0.259331
42
1.001369
0
VERTEX
8
1
10
4.900101
20
0.287117
42
0.013198
0
VERTEX
8
1
10
4.533813
20
0.455284
42
-0.074877
0
VERTEX
8
1
10
4.121964
20
0.733261
42
0.026149
0
VERTEX
8
1
10
3.869598
20
0.935799
42
0.839001
0
VERTEX
8
1
10
3.856384
20
0.907928
42
-0.018102
0
VERTEX
8
1
10
4.187225
20
0.638062
42
0.076872
0
VERTEX
8
1
10
4.604721
20
0.388359
42
-0.016724
0
SEQEND
0
POLYLINE
8
1
66
1
70
1
0
VERTEX
8
1
10
4.627670
20
0.536095
42
0.410688
0
VERTEX
8
1
10
4.617538
20
0.572823
0
VERTEX
8
1
10
4.604477
20
0.582069
0
VERTEX
8
1
10
4.586792
20
0.591743
42
-0.019180
0
VERTEX
8
1
10
4.364075
20
0.691269
42
-0.143715
0
VERTEX
8
1
10
4.302109
20
0.745819
42
0.749653
0
VERTEX
8
1
10
4.279282
20
0.726295
42
0.152785
0
VERTEX
8
1
10
4.381638
20
0.646477
42
-0.010106
0
VERTEX
8
1
10
4.585907
20
0.556808
42
-0.142570
0
VERTEX
8
1
10
4.604324
20
0.532921
42
0.453604
0
SEQEND
0
POLYLINE
8
1
66
1
70
1
0
VERTEX
8
1
10
4.726898
20
0.652664
0
VERTEX
8
1
10
4.731888
20
0.652779
0
VERTEX
8
1
10
4.736862
20
0.653183
42
1.568617
0
VERTEX
8
1
10
4.731812
20
0.683998
42
-0.116840
0
VERTEX
8
1
10
4.510010
20
0.748192
42
1.014557
0
VERTEX
8
1
10
4.507202
20
0.714668
42
0.108582
0
SEQEND
0
POLYLINE
8
1
66
1
70
1
0
VERTEX
8
1
10
5.077469
20
1.367165
42
-0.082351
0
VERTEX
8
1
10
5.025894
20
1.327438
0
VERTEX
8
1
10
5.021301
20
1.330887
42
0.109826
0
VERTEX
8
1
10
4.987518
20
1.437416
0
VERTEX
8
1
10
4.982162
20
1.452843
0
VERTEX
8
1
10
4.978012
20
1.469444
42
0.457346
0
VERTEX
8
1
10
4.821869
20
1.407066
0
VERTEX
8
1
10
4.814926
20
1.389015
42
-0.060597
0
VERTEX
8
1
10
4.723282
20
1.368477
42
-0.247057
0
VERTEX
8
1
10
4.706146
20
1.402748
42
-0.069287
0
VERTEX
8
1
10
4.687698
20
1.470802
0
VERTEX
8
1
10
4.667358
20
1.471710
42
0.238767
0
VERTEX
8
1
10
4.552338
20
1.367332
0
VERTEX
8
1
10
4.541077
20
1.341270
0
VERTEX
8
1
10
4.524811
20
1.294456
0
VERTEX
8
1
10
4.472153
20
1.302162
0
VERTEX
8
1
10
4.468445
20
1.302780
0
VERTEX
8
1
10
4.481689
20
1.366882
0
VERTEX
8
1
10
4.480286
20
1.426125
0
VERTEX
8
1
10
4.458710
20
1.455727
0
VERTEX
8
1
10
4.421768
20
1.461967
0
VERTEX
8
1
10
4.374298
20
1.451126
42
0.000562
0
VERTEX
8
1
10
4.176132
20
1.362564
0
VERTEX
8
1
10
4.152466
20
1.360336
42
-0.199974
0
VERTEX
8
1
10
4.149185
20
1.405724
42
-0.026393
0
VERTEX
8
1
10
4.197174
20
1.480904
42
0.103868
0
VERTEX
8
1
10
4.177917
20
1.493675
42
0.161693
0
VERTEX
8
1
10
4.216766
20
1.612373
42
-0.066787
0
VERTEX
8
1
10
4.230301
20
1.698784
42
0.227077
0
VERTEX
8
1
10
4.340332
20
1.667236
0
VERTEX
8
1
10
4.309433
20
1.727592
0
VERTEX
8
1
10
4.310349
20
1.728127
42
0.085284
0
VERTEX
8
1
10
4.469833
20
1.692421
42
-0.120858
0
VERTEX
8
1
10
4.674179
20
1.618080
42
0.186798
0
VERTEX
8
1
10
4.872284
20
1.575829
42
0.036725
0
VERTEX
8
1
10
5.082016
20
1.634323
42
-0.136407
0
VERTEX
8
1
10
5.297470
20
1.652870
42
0.012482
0
VERTEX
8
1
10
5.418793
20
1.610023
42
0.140428
0
VERTEX
8
1
10
5.589417
20
1.628578
0
VERTEX
8
1
10
5.618088
20
1.638382
42
-0.177748
0
VERTEX
8
1
10
5.867996
20
1.650780
42
0.006973
0
VERTEX
8
1
10
6.104584
20
1.577332
0
VERTEX
8
1
10
6.152756
20
1.568993
0
VERTEX
8
1
10
6.199005
20
1.565697
0
VERTEX
8
1
10
6.169540
20
1.537178
42
-0.365416
0
VERTEX
8
1
10
6.141342
20
1.525940
42
0.088336
0
VERTEX
8
1
10
6.087769
20
1.540627
42
-0.021867
0
VERTEX
8
1
10
6.034286
20
1.483109
42
-0.066405
0
VERTEX
8
1
10
5.930252
20
1.540367
0
VERTEX
8
1
10
5.919250
20
1.551842
0
VERTEX
8
1
10
5.902786
20
1.563049
42
0.404116
0
VERTEX
8
1
10
5.721603
20
1.474510
42
-0.035904
0
VERTEX
8
1
10
5.685532
20
1.531303
0
VERTEX
8
1
10
5.678314
20
1.537514
42
0.139978
0
VERTEX
8
1
10
5.567017
20
1.535858
42
-0.133579
0
VERTEX
8
1
10
5.499695
20
1.431961
0
VERTEX
8
1
10
5.472687
20
1.405197
0
VERTEX
8
1
10
5.463562
20
1.401688
42
-0.029704
0
VERTEX
8
1
10
5.428207
20
1.490784
0
VERTEX
8
1
10
5.426880
20
1.504654
42
0.088025
0
VERTEX
8
1
10
5.278305
20
1.421913
0
VERTEX
8
1
10
5.266373
20
1.472610
42
0.383856
0
VERTEX
8
1
10
5.095230
20
1.406662
0
VERTEX
8
1
10
5.083557
20
1.383171
0
SEQEND
0
POLYLINE
8
1
66
1
70
1
0
VERTEX
8
1
10
6.174530
20
1.193474
0
VERTEX
8
1
10
6.183945
20
1.198875
42
-0.008398
0
VERTEX
8
1
10
6.254730
20
1.258659
42
0.180121
0
VERTEX
8
1
10
6.356491
20
1.431793
42
0.075590
0
VERTEX
8
1
10
6.339432
20
1.576584
42
-0.277731
0
VERTEX
8
1
10
6.397934
20
1.760620
42
0.342955
0
VERTEX
8
1
10
6.428604
20
1.973930
42
0.120505
0
VERTEX
8
1
10
6.335831
20
2.094345
0
VERTEX
8
1
10
6.311859
20
2.105232
42
1.221225
0
VERTEX
8
1
10
6.306137
20
2.074501
0
VERTEX
8
1
10
6.321274
20
2.066818
42
-0.155712
0
VERTEX
8
1
10
6.418396
20
1.906555
42
-0.245738
0
VERTEX
8
1
10
6.375107
20
1.782082
42
0.286540
0
VERTEX
8
1
10
6.311386
20
1.555664
0
VERTEX
8
1
10
6.319046
20
1.517632
42
-0.258828
0
VERTEX
8
1
10
6.273743
20
1.323128
42
-0.048492
0
VERTEX
8
1
10
6.126038
20
1.197105
42
1.421492
0
VERTEX
8
1
10
6.149979
20
1.173981
42
-0.007810
0
SEQEND
0
POLYLINE
8
1
66
1
70
1
0
VERTEX
8
1
10
6.528946
20
0.534782
42
1.120695
0
VERTEX
8
1
10
6.550095
20
0.559608
42
-0.013627
0
VERTEX
8
1
10
6.460251
20
0.765686
42
0.098867
0
VERTEX
8
1
10
6.331635
20
0.929314
0
VERTEX
8
1
10
6.312332
20
0.949219
42
-0.129670
0
VERTEX
8
1
10
6.231110
20
1.077881
42
0.749995
0
VERTEX
8
1
10
6.204651
20
1.063667
0
VERTEX
8
1
10
6.211975
20
1.040131
0
VERTEX
8
1
10
6.223709
20
1.014374
0
VERTEX
8
1
10
6.238373
20
0.989975
42
0.027017
0
VERTEX
8
1
10
6.374481
20
0.840065
0
VERTEX
8
1
10
6.384354
20
0.828529
42
-0.074337
0
VERTEX
8
1
10
6.483002
20
0.632385
42
0.046999
0
SEQEND
0
POLYLINE
8
1
66
1
70
1
0
VERTEX
8
1
10
6.625351
20
0.758904
42
0.407774
0
VERTEX
8
1
10
6.642242
20
0.772812
0
VERTEX
8
1
10
6.640244
20
0.788940
42
0.097081
0
VERTEX
8
1
10
6.551941
20
0.907761
0
VERTEX
8
1
10
6.509903
20
0.951027
42
-0.010011
0
VERTEX
8
1
10
6.290482
20
1.164795
42
0.847374
0
VERTEX
8
1
10
6.273666
20
1.138496
42
0.022005
0
VERTEX
8
1
10
6.451508
20
0.964920
42
-0.032819
0
VERTEX
8
1
10
6.591293
20
0.814774
0
VERTEX
8
1
10
6.607498
20
0.789268
0
VERTEX
8
1
10
6.611038
20
0.775131
42
0.401509
0
SEQEND
0
POLYLINE
8
1
66
1
70
1
0
VERTEX
8
1
10
6.676392
20
1.019249
42
1.000457
0
VERTEX
8
1
10
6.705383
20
1.031013
0
VERTEX
8
1
10
6.691849
20
1.051674
42
0.070731
0
VERTEX
8
1
10
6.448318
20
1.277489
0
VERTEX
8
1
10
6.415497
20
1.291145
42
1.000468
0
VERTEX
8
1
10
6.409744
20
1.260384
0
VERTEX
8
1
10
6.436447
20
1.248390
42
-0.071950
0
SEQEND
0
POLYLINE
8
1
66
1
70
1
0
VERTEX
8
1
10
6.703857
20
1.304352
42
0.925293
0
VERTEX
8
1
10
6.722656
20
1.329262
42
0.031984
0
VERTEX
8
1
10
6.563553
20
1.420372
42
-0.174980
0
VERTEX
8
1
10
6.490234
20
1.492714
42
1.093573
0
VERTEX
8
1
10
6.464661
20
1.472206
42
0.152601
0
VERTEX
8
1
10
6.551239
20
1.391220
42
-0.026220
0
SEQEND
0
POLYLINE
8
1
66
1
70
1
0
VERTEX
8
1
10
6.751938
20
1.469307
42
0.588086
0
VERTEX
8
1
10
6.770538
20
1.493279
42
0.154781
0
VERTEX
8
1
10
6.755600
20
1.522972
0
VERTEX
8
1
10
6.733978
20
1.541191
42
0.119984
0
VERTEX
8
1
10
6.512466
20
1.603424
42
0.934031
0
VERTEX
8
1
10
6.481720
20
1.617752
42
0.835347
0
VERTEX
8
1
10
6.493576
20
1.571861
42
-0.114586
0
VERTEX
8
1
10
6.701843
20
1.523911
0
VERTEX
8
1
10
6.730957
20
1.503494
42
-0.202829
0
VERTEX
8
1
10
6.741699
20
1.476547
42
0.209522
0
SEQEND
0
POLYLINE
8
1
66
1
70
1
0
VERTEX
8
1
10
6.789215
20
1.698616
42
1.200701
0
VERTEX
8
1
10
6.798386
20
1.730011
42
-0.048707
0
VERTEX
8
1
10
6.595169
20
1.762146
42
0.053458
0
VERTEX
8
1
10
6.514267
20
1.770851
42
0.744717
0
VERTEX
8
1
10
6.516037
20
1.740921
42
-0.043065
0
VERTEX
8
1
10
6.695267
20
1.708855
42
0.048094
0
SEQEND
0
POLYLINE
8
1
66
1
70
1
0
VERTEX
8
1
10
6.572891
20
1.868248
42
-0.028655
0
VERTEX
8
1
10
6.807678
20
1.889763
0
VERTEX
8
1
10
6.838150
20
1.886925
42
0.999444
0
VERTEX
8
1
10
6.843262
20
1.917809
0
VERTEX
8
1
10
6.810638
20
1.920944
42
0.028734
0
VERTEX
8
1
10
6.559097
20
1.898254
0
VERTEX
8
1
10
6.541031
20
1.897133
42
1.151546
0
VERTEX
8
1
10
6.546066
20
1.865944
42
0.021214
0
SEQEND
0
POLYLINE
8
1
66
1
70
1
0
VERTEX
8
1
10
6.549606
20
1.994858
42
0.906149
0
VERTEX
8
1
10
6.573273
20
1.974609
42
-0.146711
0
VERTEX
8
1
10
6.933197
20
2.180717
42
1.122939
0
VERTEX
8
1
10
6.914322
20
2.207733
42
0.145661
0
SEQEND
0
POLYLINE
8
1
66
1
70
1
0
VERTEX
8
1
10
6.570297
20
2.181694
42
0.873692
0
VERTEX
8
1
10
6.594864
20
2.162766
42
-0.051527
0
VERTEX
8
1
10
6.867142
20
2.414757
42
-0.109625
0
VERTEX
8
1
10
6.991577
20
2.471565
42
0.948609
0
VERTEX
8
1
10
6.991150
20
2.502823
0
VERTEX
8
1
10
6.969330
20
2.499847
0
VERTEX
8
1
10
6.917953
20
2.481316
0
VERTEX
8
1
10
6.862640
20
2.449631
42
0.056613
0
SEQEND
0
POLYLINE
8
1
66
1
70
1
0
VERTEX
8
1
10
6.482758
20
2.234200
42
0.924964
0
VERTEX
8
1
10
6.513885
20
2.236458
42
-0.204262
0
VERTEX
8
1
10
6.553131
20
2.339844
42
-0.102735
0
VERTEX
8
1
10
6.829376
20
2.538200
42
-0.059939
0
VERTEX
8
1
10
7.108688
20
2.644241
42
-0.123137
0
VERTEX
8
1
10
7.164856
20
2.638931
42
0.670022
0
VERTEX
8
1
10
7.170380
20
2.667358
0
VERTEX
8
1
10
7.146072
20
2.675438
0
VERTEX
8
1
10
7.113052
20
2.675293
0
VERTEX
8
1
10
7.073334
20
2.668327
42
0.083744
0
VERTEX
8
1
10
6.629166
20
2.453789
42
0.117851
0
VERTEX
8
1
10
6.495560
20
2.305214
0
VERTEX
8
1
10
6.483215
20
2.263275
0
SEQEND
0
ENDSEC
0
EOF
