  0
SECTION
  2
HEADER
  9
$ACADVER
  1
AC1015
  9
$ACADMAINTVER
 70
     6
  9
$DWGCODEPAGE
  3
ANSI_1252
  9
$INSBASE
 10
0.0
 20
0.0
 30
0.0
  9
$EXTMIN
 10
-0.939693
 20
-0.984808
 30
0.0
  9
$EXTMAX
 10
13.0
 20
12.984808
 30
0.0
  9
$LIMMIN
 10
0.0
 20
0.0
  9
$LIMMAX
 10
0.0
 20
0.0
  9
$ORTHOMODE
 70
     0
  9
$REGENMODE
 70
     1
  9
$FILLMODE
 70
     1
  9
$QTEXTMODE
 70
     0
  9
$MIRRTEXT
 70
     1
  9
$LTSCALE
 40
1.0
  9
$ATTMODE
 70
     1
  9
$TEXTSIZE
 40
0.2
  9
$TRACEWID
 40
0.05
  9
$TEXTSTYLE
  7
Standard
  9
$CLAYER
  8
0
  9
$CELTYPE
  6
Continuous
  9
$CECOLOR
 62
   256
  9
$CELTSCALE
 40
1.0
  9
$DISPSILH
 70
     0
  9
$DIMSCALE
 40
1.0
  9
$DIMASZ
 40
0.18
  9
$DIMEXO
 40
0.0625
  9
$DIMDLI
 40
0.38
  9
$DIMRND
 40
0.0
  9
$DIMDLE
 40
0.0
  9
$DIMEXE
 40
0.18
  9
$DIMTP
 40
0.0
  9
$DIMTM
 40
0.0
  9
$DIMTXT
 40
0.18
  9
$DIMCEN
 40
0.09
  9
$DIMTSZ
 40
0.0
  9
$DIMTOL
 70
     0
  9
$DIMLIM
 70
     0
  9
$DIMTIH
 70
     1
  9
$DIMTOH
 70
     1
  9
$DIMSE1
 70
     0
  9
$DIMSE2
 70
     0
  9
$DIMTAD
 70
     0
  9
$DIMZIN
 70
     0
  9
$DIMBLK
  1

  9
$DIMASO
 70
     1
  9
$DIMSHO
 70
     1
  9
$DIMPOST
  1

  9
$DIMAPOST
  1

  9
$DIMALT
 70
     0
  9
$DIMALTD
 70
     2
  9
$DIMALTF
 40
25.4
  9
$DIMLFAC
 40
1.0
  9
$DIMTOFL
 70
     0
  9
$DIMTVP
 40
0.0
  9
$DIMTIX
 70
     0
  9
$DIMSOXD
 70
     0
  9
$DIMSAH
 70
     0
  9
$DIMBLK1
  1

  9
$DIMBLK2
  1

  9
$DIMSTYLE
  2
Standard
  9
$DIMCLRD
 70
     0
  9
$DIMCLRE
 70
     0
  9
$DIMCLRT
 70
     0
  9
$DIMTFAC
 40
1.0
  9
$DIMGAP
 40
0.09
  9
$DIMJUST
 70
     0
  9
$DIMSD1
 70
     0
  9
$DIMSD2
 70
     0
  9
$DIMTOLJ
 70
     1
  9
$DIMTZIN
 70
     0
  9
$DIMALTZ
 70
     0
  9
$DIMALTTZ
 70
     0
  9
$DIMUPT
 70
     0
  9
$DIMDEC
 70
     4
  9
$DIMTDEC
 70
     4
  9
$DIMALTU
 70
     2
  9
$DIMALTTD
 70
     2
  9
$DIMTXSTY
  7
Standard
  9
$DIMAUNIT
 70
     0
  9
$DIMADEC
 70
     0
  9
$DIMALTRND
 40
0.0
  9
$DIMAZIN
 70
     0
  9
$DIMDSEP
 70
    46
  9
$DIMATFIT
 70
     3
  9
$DIMFRAC
 70
     0
  9
$DIMLDRBLK
  1

  9
$DIMLUNIT
 70
     2
  9
$DIMLWD
 70
    -2
  9
$DIMLWE
 70
    -2
  9
$DIMTMOVE
 70
     0
  9
$LUNITS
 70
     2
  9
$LUPREC
 70
     4
  9
$SKETCHINC
 40
0.1
  9
$FILLETRAD
 40
0.0
  9
$AUNITS
 70
     0
  9
$AUPREC
 70
     0
  9
$MENU
  1
acad
  9
$ELEVATION
 40
0.0
  9
$PELEVATION
 40
0.0
  9
$THICKNESS
 40
0.0
  9
$LIMCHECK
 70
     0
  9
$CHAMFERA
 40
0.0
  9
$CHAMFERB
 40
0.0
  9
$CHAMFERC
 40
0.0
  9
$CHAMFERD
 40
0.0
  9
$SKPOLY
 70
     0
  9
$TDCREATE
 40
2458368.346192129
  9
$TDUCREATE
 40
0.000000000
  9
$TDUPDATE
 40
2458368.346192129
  9
$TDUUPDATE
 40
0.000000000
  9
$TDINDWG
 40
0.0000000000
  9
$TDUSRTIMER
 40
0.0000000000
  9
$USRTIMER
 70
     1
  9
$ANGBASE
 50
0.0
  9
$ANGDIR
 70
     0
  9
$PDMODE
 70
     0
  9
$PDSIZE
 40
0.0
  9
$PLINEWID
 40
0.0
  9
$SPLFRAME
 70
     0
  9
$SPLINETYPE
 70
     6
  9
$SPLINESEGS
 70
     8
  9
$HANDSEED
  5
121
  9
$SURFTAB1
 70
     6
  9
$SURFTAB2
 70
     6
  9
$SURFTYPE
 70
     6
  9
$SURFU
 70
     6
  9
$SURFV
 70
     6
  9
$UCSBASE
  2

  9
$UCSNAME
  2

  9
$UCSORG
 10
0.0
 20
0.0
 30
0.0
  9
$UCSXDIR
 10
1.0
 20
0.0
 30
0.0
  9
$UCSYDIR
 10
0.0
 20
1.0
 30
0.0
  9
$UCSORTHOREF
  2

  9
$UCSORTHOVIEW
 70
     0
  9
$UCSORGTOP
 10
0.0
 20
0.0
 30
0.0
  9
$UCSORGBOTTOM
 10
0.0
 20
0.0
 30
0.0
  9
$UCSORGLEFT
 10
0.0
 20
0.0
 30
0.0
  9
$UCSORGRIGHT
 10
0.0
 20
0.0
 30
0.0
  9
$UCSORGFRONT
 10
0.0
 20
0.0
 30
0.0
  9
$UCSORGBACK
 10
0.0
 20
0.0
 30
0.0
  9
$PUCSBASE
  2

  9
$PUCSNAME
  2

  9
$PUCSORG
 10
0.0
 20
0.0
 30
0.0
  9
$PUCSXDIR
 10
1.0
 20
0.0
 30
0.0
  9
$PUCSYDIR
 10
0.0
 20
1.0
 30
0.0
  9
$PUCSORTHOREF
  2

  9
$PUCSORTHOVIEW
 70
     0
  9
$PUCSORGTOP
 10
0.0
 20
0.0
 30
0.0
  9
$PUCSORGBOTTOM
 10
0.0
 20
0.0
 30
0.0
  9
$PUCSORGLEFT
 10
0.0
 20
0.0
 30
0.0
  9
$PUCSORGRIGHT
 10
0.0
 20
0.0
 30
0.0
  9
$PUCSORGFRONT
 10
0.0
 20
0.0
 30
0.0
  9
$PUCSORGBACK
 10
0.0
 20
0.0
 30
0.0
  9
$USERI1
 70
     0
  9
$USERI2
 70
     0
  9
$USERI3
 70
     0
  9
$USERI4
 70
     0
  9
$USERI5
 70
     0
  9
$USERR1
 40
0.0
  9
$USERR2
 40
0.0
  9
$USERR3
 40
0.0
  9
$USERR4
 40
0.0
  9
$USERR5
 40
0.0
  9
$WORLDVIEW
 70
     1
  9
$SHADEDGE
 70
     3
  9
$SHADEDIF
 70
    70
  9
$TILEMODE
 70
     1
  9
$MAXACTVP
 70
    16
  9
$PINSBASE
 10
0.0
 20
0.0
 30
0.0
  9
$PLIMCHECK
 70
     0
  9
$PEXTMIN
 10
1.000000E+20
 20
1.000000E+20
 30
1.000000E+20
  9
$PEXTMAX
 10
-1.000000E+20
 20
-1.000000E+20
 30
-1.000000E+20
  9
$PLIMMIN
 10
0.0
 20
0.0
  9
$PLIMMAX
 10
12.0
 20
9.0
  9
$UNITMODE
 70
     0
  9
$VISRETAIN
 70
     0
  9
$PLINEGEN
 70
     1
  9
$PSLTSCALE
 70
     0
  9
$TREEDEPTH
 70
  3020
  9
$CMLSTYLE
  2
Standard
  9
$CMLJUST
 70
     0
  9
$CMLSCALE
 40
1.0
  9
$PROXYGRAPHICS
 70
     0
  9
$MEASUREMENT
 70
     0
  9
$CELWEIGHT
370
     0
  9
$ENDCAPS
280
     0
  9
$JOINSTYLE
280
     0
  9
$LWDISPLAY
290
     0
  9
$INSUNITS
 70
     1
  9
$HYPERLINKBASE
  1

  9
$STYLESHEET
  1

  9
$XEDIT
290
     1
  9
$CEPSNTYPE
380
     0
  9
$PSTYLEMODE
290
     1
  9
$FINGERPRINTGUID
  2

  9
$VERSIONGUID
  2

  9
$EXTNAMES
290
     1
  9
$PSVPSCALE
 40
0.0
  0
ENDSEC
  0
SECTION
  2
CLASSES
  0
CLASS
  1
LWPOLYLINE
  2
AcDbPolyline
  3
AutoCAD 2000
 90
        0
280
     0
281
     1
  0
CLASS
  1
IMAGE
  2
AcDbRasterImage
  3
ISM
 90
      127
280
     0
281
     1
  0
CLASS
  1
OLE2FRAME
  2
AcDbOle2Frame
  3
AutoCAD 2000
 90
        0
280
     0
281
     1
  0
CLASS
  1
HATCH
  2
AcDbHatch
  3
AutoCAD 2000
 90
        0
280
     0
281
     1
  0
CLASS
  1
DICTIONARYVAR
  2
AcDbDictionaryVar
  3
AutoCAD 2000
 90
        0
280
     0
281
     0
  0
CLASS
  1
RASTERVARIABLES
  2
AcDbRasterVariables
  3
ISM
 90
        0
280
     0
281
     0
  0
CLASS
  1
IMAGEDEF
  2
AcDbRasterImageDef
  3
ISM
 90
        0
280
     0
281
     0
  0
CLASS
  1
IMAGEDEF_REACTOR
  2
AcDbRasterImageDefReactor
  3
ISM
 90
        1
280
     0
281
     0
  0
CLASS
  1
IDBUFFER
  2
AcDbIdBuffer
  3
AutoCAD 2000
 90
        0
280
     0
281
     0
  0
CLASS
  1
SPATIAL_FILTER
  2
AcDbSpatialFilter
  3
AutoCAD 2000
 90
        0
280
     0
281
     0
  0
CLASS
  1
XRECORD
  2
AcDbXrecord
  3
AutoCAD 2000
 90
        0
280
     0
281
     0
  0
CLASS
  1
SORTENTSTABLE
  2
AcDbSortentsTable
  3
AutoCAD 2000
 90
        0
280
     0
281
     0
  0
CLASS
  1
LAYER_INDEX
  2
AcDbLayerIndex
  3
AutoCAD 2000
 90
        0
280
     0
281
     0
  0
CLASS
  1
SPATIAL_INDEX
  2
AcDbSpatialIndex
  3
AutoCAD 2000
 90
        0
280
     0
281
     0
  0
CLASS
  1
OBJECT_PTR
  2
CAseDLPNTableRecord
  3
"ASE-LPNTableRecord"
 90
        1
280
     0
281
     0
  0
CLASS
  1
LAYOUT
  2
AcDbLayout
  3
AutoCAD 2000
 90
        0
280
     0
281
     0
  0
CLASS
  1
PLOTSETTINGS
  2
AcDbPlotSettings
  3
AutoCAD 2000
 90
        0
280
     0
281
     0
  0
CLASS
  1
ACDBDICTIONARYWDFLT
  2
AcDbDictionaryWithDefault
  3
AutoCAD 2000
 90
        0
280
     0
281
     0
  0
CLASS
  1
ACDBPLACEHOLDER
  2
AcDbPlaceHolder
  3
AutoCAD 2000
 90
        0
280
     0
281
     0
  0
CLASS
  1
VBA_PROJECT
  2
AcDbVbaProject
  3
acadvba
 90
        0
280
     0
281
     0
  0
CLASS
  1
WIPEOUT
  2
AcDbWipeout
  3
WipeOut|AutoCAD Express Tool|expresstools@autodesk.com
 90
      127
280
     0
281
     1
  0
CLASS
  1
WIPEOUTVARIABLES
  2
AcDbWipeoutVariables
  3
WipeOut|AutoCAD Express Tool|expresstools@autodesk.com
 90
        0
280
     0
281
     0
  0
CLASS
  1
RTEXT
  2
RText
  3
RText|AutoCAD Express Tool|expresstools@autodesk.com
 90
        0
280
     0
281
     1
  0
CLASS
  1
ARCALIGNEDTEXT
  2
AcDbArcAlignedText
  3
ATEXT|AutoCAD Express Tool|expresstools@autodesk.com
 90
        0
280
     0
281
     1
  0
ENDSEC
  0
SECTION
  2
TABLES
  0
TABLE
  2
VPORT
  5
7
100
AcDbSymbolTable
 70
     1
  0
VPORT
  5
15
100
AcDbSymbolTableRecord
100
AcDbViewportTableRecord
  2
*ACTIVE
 70
     0
 10
0.0
 20
0.0
 11
1.0
 21
1.0
 12
6.591288
 22
4.579184
 13
0.0
 23
0.0
 14
1.0
 24
1.0
 15
0.0
 25
0.0
 16
0.0
 26
0.0
 36
1.0
 17
0.0
 27
0.0
 37
0.0
 40
9.158369
 41
0.688564
 42
50.0
 43
0.0
 44
0.0
 50
0.0
 51
0.0
 71
     0
 72
   100
 73
     1
 74
     1
 75
     0
 76
     0
 77
     0
 78
     0
281
     0
 65
     0
110
0.0
120
0.0
130
0.0
111
1.0
121
0.0
131
0.0
112
0.0
122
1.0
132
0.0
345
0
346
0
 79
     0
146
0.0
  0
ENDTAB
  0
TABLE
  2
LTYPE
  5
4
100
AcDbSymbolTable
 70
     7
  0
LTYPE
  5
11
100
AcDbSymbolTableRecord
100
AcDbLinetypeTableRecord
  2
ByBlock
 70
    64
  3

 72
    65
 73
     0
 40
0.0
  0
LTYPE
  5
12
100
AcDbSymbolTableRecord
100
AcDbLinetypeTableRecord
  2
ByLayer
 70
    64
  3

 72
    65
 73
     0
 40
0.0
  0
LTYPE
  5
13
100
AcDbSymbolTableRecord
100
AcDbLinetypeTableRecord
  2
Continuous
 70
    64
  3
Solid line
 72
    65
 73
     0
 40
0.0
  0
LTYPE
  5
24
100
AcDbSymbolTableRecord
100
AcDbLinetypeTableRecord
  2
CONTINUOUS2
 70
     0
  3
Solid line
 72
    65
 73
     0
 40
0.0
  0
LTYPE
  5
25
100
AcDbSymbolTableRecord
100
AcDbLinetypeTableRecord
  2
DASHED
 70
    64
  3
__ __ __ __ __ __ __ __ __ __ __ __ __ __ __ __
 72
    65
 73
     2
 40
0.5
 49
0.375
 74
     0
 49
-0.125
 74
     0
  0
LTYPE
  5
26
100
AcDbSymbolTableRecord
100
AcDbLinetypeTableRecord
  2
CENTER
 70
    64
  3
____ _ ____ _ ____ _ ____ _ ____ _ ____ _ ____ _
 72
    65
 73
     4
 40
1.0
 49
0.625
 74
     0
 49
-0.125
 74
     0
 49
0.125
 74
     0
 49
-0.125
 74
     0
  0
LTYPE
  5
27
100
AcDbSymbolTableRecord
100
AcDbLinetypeTableRecord
  2
PHANTOM
 70
    64
  3
___ _ _ ___ _ _ ___ _ _ ___ _ _ ___ _ _ ___ _ _ 
 72
    65
 73
     6
 40
1.0
 49
0.5
 74
     0
 49
-0.1
 74
     0
 49
0.1
 74
     0
 49
-0.1
 74
     0
 49
0.1
 74
     0
 49
-0.1
 74
     0
  0
ENDTAB
  0
TABLE
  2
LAYER
  5
2
100
AcDbSymbolTable
 70
     2
  0
LAYER
  5
14
100
AcDbSymbolTableRecord
100
AcDbLayerTableRecord
  2
0
 70
     0
 62
     7
  6
Continuous
290
     1
370
    -3
390
1D
  0
LAYER
  5
28
100
AcDbSymbolTableRecord
100
AcDbLayerTableRecord
  2
0
 70
     0
 62
     1
  6
Continuous
290
     1
370
    -3
390
1D
  0
ENDTAB
  0
TABLE
  2
STYLE
  5
3
100
AcDbSymbolTable
 70
     1
  0
STYLE
  5
17
100
AcDbSymbolTableRecord
100
AcDbTextStyleTableRecord
  2
Standard
 70
     0
 40
0.0
 41
1.0
 50
0.0
 71
     0
 42
0.0
  3
txt
  4

  0
ENDTAB
  0
TABLE
  2
VIEW
  5
5
100
AcDbSymbolTable
 70
     0
  0
ENDTAB
  0
TABLE
  2
UCS
  5
6
100
AcDbSymbolTable
 70
     0
  0
ENDTAB
  0
TABLE
  2
APPID
  5
8
100
AcDbSymbolTable
 70
     1
  0
APPID
  5
16
100
AcDbSymbolTableRecord
100
AcDbRegAppTableRecord
  2
ACAD
 70
     0
  0
ENDTAB
  0
TABLE
  2
DIMSTYLE
  5
9
100
AcDbSymbolTable
 70
     1
100
AcDbDimStyleTable
 71
     0
  0
DIMSTYLE
105
18
100
AcDbSymbolTableRecord
100
AcDbDimStyleTableRecord
  2
Standard
 70
     0
  3

  4

 40
1.0
 41
0.18
 42
0.0625
 43
0.38
 44
0.18
 45
0.0
 46
0.0
 47
0.0
 48
0.0
 71
     0
 72
     0
 73
     1
 74
     1
 75
     0
 76
     0
 77
     0
 78
     0
 79
     0
140
0.18
141
0.09
142
0.0
143
25.4
144
1.0
145
0.0
146
1.0
147
0.09
148
0.0
170
     0
171
     2
172
     0
173
     0
174
     0
175
     0
176
     0
177
     0
178
     0
179
     0
271
     4
272
     4
273
     2
274
     2
275
     0
276
     0
277
     2
278
    46
279
     0
280
     0
281
     0
282
     0
283
     1
284
     0
285
     0
286
     0
288
     0
289
     3
340
17
341
0
342
0
343
0
344
0
371
    -2
372
    -2
  0
ENDTAB
  0
TABLE
  2
BLOCK_RECORD
  5
1
100
AcDbSymbolTable
 70
     0
  0
BLOCK_RECORD
  5
A
100
AcDbSymbolTableRecord
100
AcDbBlockTableRecord
  2
*MODEL_SPACE
340
20
  0
BLOCK_RECORD
  5
B
100
AcDbSymbolTableRecord
100
AcDbBlockTableRecord
  2
*PAPER_SPACE
340
21
  0
ENDTAB
  0
ENDSEC
  0
SECTION
  2
BLOCKS
  0
BLOCK
  5
D
100
AcDbEntity
  8
0
390
0
100
AcDbBlockBegin
  2
*MODEL_SPACE
 70
     0
 10
0.0
 20
0.0
 30
0.0
  3
*MODEL_SPACE
  1

  0
ENDBLK
  5
E
100
AcDbEntity
  8
0
390
0
100
AcDbBlockEnd
  0
BLOCK
  5
F
100
AcDbEntity
 67
     1
  8
0
390
0
100
AcDbBlockBegin
  2
*PAPER_SPACE
 70
     0
 10
0.0
 20
0.0
 30
0.0
  3
*PAPER_SPACE
  1

  0
ENDBLK
  5
10
100
AcDbEntity
 67
     1
  8
0
390
0
100
AcDbBlockEnd
  0
ENDSEC
  0
SECTION
  2
ENTITIES
  0
LINE
  5
29
100
AcDbEntity
  8
0
390
0
  6
CONTINUOUS2
 62
     9
100
AcDbLine
 10
4.085289
 20
6.387906
 30
0.0
 11
3.850389
 21
6.153006
 31
0.0
  0
LINE
  5
2A
100
AcDbEntity
  8
0
390
0
  6
CONTINUOUS2
 62
     9
100
AcDbLine
 10
3.696489
 20
7.068306
 30
0.0
 11
3.696489
 21
6.524554
 31
0.0
  0
LINE
  5
2B
100
AcDbEntity
  8
0
390
0
  6
CONTINUOUS2
 62
     9
100
AcDbLine
 10
4.028689
 20
6.736106
 30
0.0
 11
4.028689
 21
6.524551
 31
0.0
  0
LINE
  5
2C
100
AcDbEntity
  8
0
390
0
  6
CONTINUOUS2
 62
     9
100
AcDbLine
 10
3.696489
 20
7.068306
 30
0.0
 11
4.155311
 21
7.068306
 31
0.0
  0
LINE
  5
2D
100
AcDbEntity
  8
0
390
0
  6
CONTINUOUS2
 62
     9
100
AcDbLine
 10
4.028689
 20
6.736106
 30
0.0
 11
4.155314
 21
6.736106
 31
0.0
  0
LINE
  5
2E
100
AcDbEntity
  8
0
390
0
  6
CONTINUOUS2
 62
     9
100
AcDbLine
 10
4.741289
 20
6.161586
 30
0.0
 11
4.741289
 21
6.006151
 31
0.0
  0
LINE
  5
2F
100
AcDbEntity
  8
0
390
0
  6
CONTINUOUS2
 62
     9
100
AcDbLine
 10
5.073489
 20
6.161583
 30
0.0
 11
5.073489
 21
6.006154
 31
0.0
  0
LINE
  5
30
100
AcDbEntity
  8
0
390
0
  6
CONTINUOUS2
 62
     9
100
AcDbLine
 10
5.075791
 20
7.068306
 30
0.0
 11
5.192111
 21
7.068306
 31
0.0
  0
LINE
  5
31
100
AcDbEntity
  8
0
390
0
  6
CONTINUOUS2
 62
     9
100
AcDbLine
 10
5.075788
 20
6.736106
 30
0.0
 11
5.192114
 21
6.736106
 31
0.0
  0
LINE
  5
32
100
AcDbEntity
  8
0
390
0
  6
CONTINUOUS2
 62
     9
100
AcDbLine
 10
5.251689
 20
6.218859
 30
0.0
 11
5.251689
 21
6.063429
 31
0.0
  0
LINE
  5
33
100
AcDbEntity
  8
0
390
0
  6
CONTINUOUS2
 62
     9
100
AcDbLine
 10
5.583889
 20
6.218862
 30
0.0
 11
5.583889
 21
6.063426
 31
0.0
  0
LINE
  5
34
100
AcDbEntity
  8
0
390
0
  6
CONTINUOUS2
 62
     9
100
AcDbLine
 10
6.112591
 20
7.068306
 30
0.0
 11
6.628689
 21
7.068306
 31
0.0
  0
LINE
  5
35
100
AcDbEntity
  8
0
390
0
  6
CONTINUOUS2
 62
     9
100
AcDbLine
 10
6.112588
 20
6.736106
 30
0.0
 11
6.296489
 21
6.736106
 31
0.0
  0
LINE
  5
36
100
AcDbEntity
  8
0
390
0
  6
CONTINUOUS2
 62
     9
100
AcDbLine
 10
6.296489
 20
6.736106
 30
0.0
 11
6.296489
 21
6.581826
 31
0.0
  0
LINE
  5
37
100
AcDbEntity
  8
0
390
0
  6
CONTINUOUS2
 62
     9
100
AcDbLine
 10
6.628689
 20
7.068306
 30
0.0
 11
6.628689
 21
6.581829
 31
0.0
  0
LINE
  5
38
100
AcDbEntity
  8
0
390
0
  6
CONTINUOUS2
 62
     9
100
AcDbLine
 10
2.659689
 20
6.031506
 30
0.0
 11
2.659689
 21
5.487754
 31
0.0
  0
LINE
  5
39
100
AcDbEntity
  8
0
390
0
  6
CONTINUOUS2
 62
     9
100
AcDbLine
 10
2.991889
 20
5.699306
 30
0.0
 11
2.991889
 21
5.487751
 31
0.0
  0
LINE
  5
3A
100
AcDbEntity
  8
0
390
0
  6
CONTINUOUS2
 62
     9
100
AcDbLine
 10
2.659689
 20
6.031506
 30
0.0
 11
3.118511
 21
6.031506
 31
0.0
  0
LINE
  5
3B
100
AcDbEntity
  8
0
390
0
  6
CONTINUOUS2
 62
     9
100
AcDbLine
 10
2.991889
 20
5.699306
 30
0.0
 11
3.118514
 21
5.699306
 31
0.0
  0
LINE
  5
3C
100
AcDbEntity
  8
0
390
0
  6
CONTINUOUS2
 62
     9
100
AcDbLine
 10
2.659689
 20
4.606383
 30
0.0
 11
2.659689
 21
4.450954
 31
0.0
  0
LINE
  5
3D
100
AcDbEntity
  8
0
390
0
  6
CONTINUOUS2
 62
     9
100
AcDbLine
 10
2.991889
 20
4.606386
 30
0.0
 11
2.991889
 21
4.450951
 31
0.0
  0
LINE
  5
3E
100
AcDbEntity
  8
0
390
0
  6
CONTINUOUS2
 62
     9
100
AcDbLine
 10
3.577867
 20
4.476306
 30
0.0
 11
3.694186
 21
4.476306
 31
0.0
  0
LINE
  5
3F
100
AcDbEntity
  8
0
390
0
  6
CONTINUOUS2
 62
     9
100
AcDbLine
 10
3.577864
 20
4.144106
 30
0.0
 11
3.694189
 21
4.144106
 31
0.0
  0
LINE
  5
40
100
AcDbEntity
  8
0
390
0
  6
CONTINUOUS2
 62
     9
100
AcDbLine
 10
2.659689
 20
3.569583
 30
0.0
 11
2.659689
 21
3.099306
 31
0.0
  0
LINE
  5
41
100
AcDbEntity
  8
0
390
0
  6
CONTINUOUS2
 62
     9
100
AcDbLine
 10
2.991889
 20
3.569586
 30
0.0
 11
2.991889
 21
3.431506
 31
0.0
  0
LINE
  5
42
100
AcDbEntity
  8
0
390
0
  6
CONTINUOUS2
 62
     9
100
AcDbLine
 10
2.991889
 20
3.431506
 30
0.0
 11
3.214899
 21
3.431506
 31
0.0
  0
LINE
  5
43
100
AcDbEntity
  8
0
390
0
  6
CONTINUOUS2
 62
     9
100
AcDbLine
 10
2.659689
 20
3.099306
 30
0.0
 11
3.214896
 21
3.099306
 31
0.0
  0
LINE
  5
44
100
AcDbEntity
  8
0
390
0
  6
CONTINUOUS2
 62
     9
100
AcDbLine
 10
3.696489
 20
2.532783
 30
0.0
 11
3.696489
 21
2.062506
 31
0.0
  0
LINE
  5
45
100
AcDbEntity
  8
0
390
0
  6
CONTINUOUS2
 62
     9
100
AcDbLine
 10
4.028689
 20
2.532786
 30
0.0
 11
4.028689
 21
2.394706
 31
0.0
  0
LINE
  5
46
100
AcDbEntity
  8
0
390
0
  6
CONTINUOUS2
 62
     9
100
AcDbLine
 10
4.028689
 20
2.394706
 30
0.0
 11
4.251699
 21
2.394706
 31
0.0
  0
LINE
  5
47
100
AcDbEntity
  8
0
390
0
  6
CONTINUOUS2
 62
     9
100
AcDbLine
 10
3.696489
 20
2.062506
 30
0.0
 11
4.251696
 21
2.062506
 31
0.0
  0
LINE
  5
48
100
AcDbEntity
  8
0
390
0
  6
CONTINUOUS2
 62
     9
100
AcDbLine
 10
4.741289
 20
3.051186
 30
0.0
 11
4.741289
 21
2.895751
 31
0.0
  0
LINE
  5
49
100
AcDbEntity
  8
0
390
0
  6
CONTINUOUS2
 62
     9
100
AcDbLine
 10
5.073489
 20
3.051183
 30
0.0
 11
5.073489
 21
2.895754
 31
0.0
  0
LINE
  5
4A
100
AcDbEntity
  8
0
390
0
  6
CONTINUOUS2
 62
     9
100
AcDbLine
 10
5.093954
 20
2.394706
 30
0.0
 11
5.288499
 21
2.394706
 31
0.0
  0
LINE
  5
4B
100
AcDbEntity
  8
0
390
0
  6
CONTINUOUS2
 62
     9
100
AcDbLine
 10
5.093957
 20
2.062506
 30
0.0
 11
5.288496
 21
2.062506
 31
0.0
  0
LINE
  5
4C
100
AcDbEntity
  8
0
390
0
  6
CONTINUOUS2
 62
     9
100
AcDbLine
 10
5.251689
 20
3.108459
 30
0.0
 11
5.251689
 21
2.953029
 31
0.0
  0
LINE
  5
4D
100
AcDbEntity
  8
0
390
0
  6
CONTINUOUS2
 62
     9
100
AcDbLine
 10
5.583889
 20
3.108462
 30
0.0
 11
5.583889
 21
2.953026
 31
0.0
  0
LINE
  5
4E
100
AcDbEntity
  8
0
390
0
  6
CONTINUOUS2
 62
     9
100
AcDbLine
 10
6.130754
 20
2.394706
 30
0.0
 11
6.296489
 21
2.394706
 31
0.0
  0
LINE
  5
4F
100
AcDbEntity
  8
0
390
0
  6
CONTINUOUS2
 62
     9
100
AcDbLine
 10
6.130757
 20
2.062506
 30
0.0
 11
6.628689
 21
2.062506
 31
0.0
  0
LINE
  5
50
100
AcDbEntity
  8
0
390
0
  6
CONTINUOUS2
 62
     9
100
AcDbLine
 10
6.296489
 20
2.590062
 30
0.0
 11
6.296489
 21
2.394706
 31
0.0
  0
LINE
  5
51
100
AcDbEntity
  8
0
390
0
  6
CONTINUOUS2
 62
     9
100
AcDbLine
 10
6.628689
 20
2.590059
 30
0.0
 11
6.628689
 21
2.062506
 31
0.0
  0
LINE
  5
52
100
AcDbEntity
  8
0
390
0
  6
CONTINUOUS2
 62
     9
100
AcDbLine
 10
7.167554
 20
3.431506
 30
0.0
 11
7.333289
 21
3.431506
 31
0.0
  0
LINE
  5
53
100
AcDbEntity
  8
0
390
0
  6
CONTINUOUS2
 62
     9
100
AcDbLine
 10
7.167557
 20
3.099306
 30
0.0
 11
7.665489
 21
3.099306
 31
0.0
  0
LINE
  5
54
100
AcDbEntity
  8
0
390
0
  6
CONTINUOUS2
 62
     9
100
AcDbLine
 10
7.333289
 20
3.626862
 30
0.0
 11
7.333289
 21
3.431506
 31
0.0
  0
LINE
  5
55
100
AcDbEntity
  8
0
390
0
  6
CONTINUOUS2
 62
     9
100
AcDbLine
 10
7.665489
 20
3.626859
 30
0.0
 11
7.665489
 21
3.099306
 31
0.0
  0
LINE
  5
56
100
AcDbEntity
  8
0
390
0
  6
CONTINUOUS2
 62
     9
100
AcDbLine
 10
6.688267
 20
4.476306
 30
0.0
 11
6.804586
 21
4.476306
 31
0.0
  0
LINE
  5
57
100
AcDbEntity
  8
0
390
0
  6
CONTINUOUS2
 62
     9
100
AcDbLine
 10
6.688264
 20
4.144106
 30
0.0
 11
6.804589
 21
4.144106
 31
0.0
  0
LINE
  5
58
100
AcDbEntity
  8
0
390
0
  6
CONTINUOUS2
 62
     9
100
AcDbLine
 10
7.333289
 20
4.663662
 30
0.0
 11
7.333289
 21
4.508226
 31
0.0
  0
LINE
  5
59
100
AcDbEntity
  8
0
390
0
  6
CONTINUOUS2
 62
     9
100
AcDbLine
 10
7.665489
 20
4.663659
 30
0.0
 11
7.665489
 21
4.508229
 31
0.0
  0
LINE
  5
5A
100
AcDbEntity
  8
0
390
0
  6
CONTINUOUS2
 62
     9
100
AcDbLine
 10
6.591878
 20
4.986706
 30
0.0
 11
6.786424
 21
4.986706
 31
0.0
  0
LINE
  5
5B
100
AcDbEntity
  8
0
390
0
  6
CONTINUOUS2
 62
     9
100
AcDbLine
 10
6.591881
 20
4.654506
 30
0.0
 11
6.786421
 21
4.654506
 31
0.0
  0
LINE
  5
5C
100
AcDbEntity
  8
0
390
0
  6
CONTINUOUS2
 62
     9
100
AcDbLine
 10
7.333289
 20
5.699306
 30
0.0
 11
7.333289
 21
5.545026
 31
0.0
  0
LINE
  5
5D
100
AcDbEntity
  8
0
390
0
  6
CONTINUOUS2
 62
     9
100
AcDbLine
 10
7.665489
 20
6.031506
 30
0.0
 11
7.665489
 21
5.545029
 31
0.0
  0
LINE
  5
5E
100
AcDbEntity
  8
0
390
0
  6
CONTINUOUS2
 62
     9
100
AcDbLine
 10
7.149391
 20
6.031506
 30
0.0
 11
7.665489
 21
6.031506
 31
0.0
  0
LINE
  5
5F
100
AcDbEntity
  8
0
390
0
  6
CONTINUOUS2
 62
     9
100
AcDbLine
 10
7.149388
 20
5.699306
 30
0.0
 11
7.333289
 21
5.699306
 31
0.0
  0
LINE
  5
60
100
AcDbEntity
  8
0
390
0
  6
CONTINUOUS2
 62
     9
100
AcDbLine
 10
3.481478
 20
4.986706
 30
0.0
 11
3.676024
 21
4.986706
 31
0.0
  0
LINE
  5
61
100
AcDbEntity
  8
0
390
0
  6
CONTINUOUS2
 62
     9
100
AcDbLine
 10
3.481481
 20
4.654506
 30
0.0
 11
3.676021
 21
4.654506
 31
0.0
  0
LINE
  5
62
100
AcDbEntity
  8
0
390
0
  6
CONTINUOUS2
 62
     9
100
AcDbLine
 10
4.644189
 20
6.865806
 30
0.0
 11
4.879089
 21
6.630906
 31
0.0
  0
LINE
  5
63
100
AcDbEntity
  8
0
390
0
  6
CONTINUOUS2
 62
     9
100
AcDbLine
 10
4.409289
 20
6.630906
 30
0.0
 11
4.644189
 21
6.396006
 31
0.0
  0
LINE
  5
64
100
AcDbEntity
  8
0
390
0
  6
CONTINUOUS2
 62
     9
100
AcDbLine
 10
3.647889
 20
5.869506
 30
0.0
 11
4.368789
 21
6.590406
 31
0.0
  0
LINE
  5
65
100
AcDbEntity
  8
0
390
0
  6
CONTINUOUS2
 62
     9
100
AcDbLine
 10
3.647889
 20
5.869506
 30
0.0
 11
3.882789
 21
5.634606
 31
0.0
  0
LINE
  5
66
100
AcDbEntity
  8
0
390
0
  6
CONTINUOUS2
 62
     9
100
AcDbLine
 10
4.368789
 20
6.590406
 30
0.0
 11
4.603689
 21
6.355506
 31
0.0
  0
LINE
  5
67
100
AcDbEntity
  8
0
390
0
  6
CONTINUOUS2
 62
     9
100
AcDbLine
 10
3.882789
 20
5.634606
 30
0.0
 11
4.603689
 21
6.355506
 31
0.0
  0
LINE
  5
68
100
AcDbEntity
  8
0
390
0
  6
CONTINUOUS2
 62
     9
100
AcDbLine
 10
4.684689
 20
6.906306
 30
0.0
 11
4.919589
 21
6.671406
 31
0.0
  0
LINE
  5
69
100
AcDbEntity
  8
0
390
0
  6
CONTINUOUS2
 62
     9
100
AcDbLine
 10
5.680989
 20
6.865806
 30
0.0
 11
6.158889
 21
6.387906
 31
0.0
  0
LINE
  5
6A
100
AcDbEntity
  8
0
390
0
  6
CONTINUOUS2
 62
     9
100
AcDbLine
 10
6.158889
 20
6.387906
 30
0.0
 11
5.923989
 21
6.153006
 31
0.0
  0
LINE
  5
6B
100
AcDbEntity
  8
0
390
0
  6
CONTINUOUS2
 62
     9
100
AcDbLine
 10
5.446089
 20
6.630906
 30
0.0
 11
5.923989
 21
6.153006
 31
0.0
  0
LINE
  5
6C
100
AcDbEntity
  8
0
390
0
  6
CONTINUOUS2
 62
     9
100
AcDbLine
 10
5.405589
 20
6.590406
 30
0.0
 11
5.640489
 21
6.355506
 31
0.0
  0
LINE
  5
6D
100
AcDbEntity
  8
0
390
0
  6
CONTINUOUS2
 62
     9
100
AcDbLine
 10
5.721489
 20
6.906306
 30
0.0
 11
5.956389
 21
6.671406
 31
0.0
  0
LINE
  5
6E
100
AcDbEntity
  8
0
390
0
  6
CONTINUOUS2
 62
     9
100
AcDbLine
 10
6.434289
 20
6.112506
 30
0.0
 11
5.956389
 21
5.634606
 31
0.0
  0
LINE
  5
6F
100
AcDbEntity
  8
0
390
0
  6
CONTINUOUS2
 62
     9
100
AcDbLine
 10
5.956389
 20
5.634606
 30
0.0
 11
5.721489
 21
5.869506
 31
0.0
  0
LINE
  5
70
100
AcDbEntity
  8
0
390
0
  6
CONTINUOUS2
 62
     9
100
AcDbLine
 10
6.199389
 20
6.347406
 30
0.0
 11
5.721489
 21
5.869506
 31
0.0
  0
LINE
  5
71
100
AcDbEntity
  8
0
390
0
  6
CONTINUOUS2
 62
     9
100
AcDbLine
 10
5.446089
 20
5.594106
 30
0.0
 11
5.923989
 21
5.116206
 31
0.0
  0
LINE
  5
72
100
AcDbEntity
  8
0
390
0
  6
CONTINUOUS2
 62
     9
100
AcDbLine
 10
5.923989
 20
5.116206
 30
0.0
 11
6.158889
 21
5.351106
 31
0.0
  0
LINE
  5
73
100
AcDbEntity
  8
0
390
0
  6
CONTINUOUS2
 62
     9
100
AcDbLine
 10
5.680989
 20
5.829006
 30
0.0
 11
6.158889
 21
5.351106
 31
0.0
  0
LINE
  5
74
100
AcDbEntity
  8
0
390
0
  6
CONTINUOUS2
 62
     9
100
AcDbLine
 10
6.474789
 20
6.072006
 30
0.0
 11
7.195689
 21
5.351106
 31
0.0
  0
LINE
  5
75
100
AcDbEntity
  8
0
390
0
  6
CONTINUOUS2
 62
     9
100
AcDbLine
 10
6.474789
 20
6.072006
 30
0.0
 11
6.239889
 21
5.837106
 31
0.0
  0
LINE
  5
76
100
AcDbEntity
  8
0
390
0
  6
CONTINUOUS2
 62
     9
100
AcDbLine
 10
7.195689
 20
5.351106
 30
0.0
 11
6.960789
 21
5.116206
 31
0.0
  0
LINE
  5
77
100
AcDbEntity
  8
0
390
0
  6
CONTINUOUS2
 62
     9
100
AcDbLine
 10
6.239889
 20
5.837106
 30
0.0
 11
6.960789
 21
5.116206
 31
0.0
  0
LINE
  5
78
100
AcDbEntity
  8
0
390
0
  6
CONTINUOUS2
 62
     9
100
AcDbLine
 10
6.758289
 20
5.869506
 30
0.0
 11
6.993189
 21
5.634606
 31
0.0
  0
LINE
  5
79
100
AcDbEntity
  8
0
390
0
  6
CONTINUOUS2
 62
     9
100
AcDbLine
 10
7.471089
 20
5.075706
 30
0.0
 11
7.236189
 21
4.840806
 31
0.0
  0
LINE
  5
7A
100
AcDbEntity
  8
0
390
0
  6
CONTINUOUS2
 62
     9
100
AcDbLine
 10
7.236189
 20
5.310606
 30
0.0
 11
7.001289
 21
5.075706
 31
0.0
  0
LINE
  5
7B
100
AcDbEntity
  8
0
390
0
  6
CONTINUOUS2
 62
     9
100
AcDbLine
 10
7.511589
 20
5.035206
 30
0.0
 11
7.276689
 21
4.800306
 31
0.0
  0
LINE
  5
7C
100
AcDbEntity
  8
0
390
0
  6
CONTINUOUS2
 62
     9
100
AcDbLine
 10
5.721489
 20
4.832706
 30
0.0
 11
6.442389
 21
5.553606
 31
0.0
  0
LINE
  5
7D
100
AcDbEntity
  8
0
390
0
  6
CONTINUOUS2
 62
     9
100
AcDbLine
 10
5.721489
 20
4.832706
 30
0.0
 11
5.956389
 21
4.597806
 31
0.0
  0
LINE
  5
7E
100
AcDbEntity
  8
0
390
0
  6
CONTINUOUS2
 62
     9
100
AcDbLine
 10
6.442389
 20
5.553606
 30
0.0
 11
6.677289
 21
5.318706
 31
0.0
  0
LINE
  5
7F
100
AcDbEntity
  8
0
390
0
  6
CONTINUOUS2
 62
     9
100
AcDbLine
 10
5.956389
 20
4.597806
 30
0.0
 11
6.677289
 21
5.318706
 31
0.0
  0
LINE
  5
80
100
AcDbEntity
  8
0
390
0
  6
CONTINUOUS2
 62
     9
100
AcDbLine
 10
6.239889
 20
4.800306
 30
0.0
 11
6.474789
 21
5.035206
 31
0.0
  0
LINE
  5
81
100
AcDbEntity
  8
0
390
0
  6
CONTINUOUS2
 62
     9
100
AcDbLine
 10
7.195689
 20
4.314306
 30
0.0
 11
6.960789
 21
4.079406
 31
0.0
  0
LINE
  5
82
100
AcDbEntity
  8
0
390
0
  6
CONTINUOUS2
 62
     9
100
AcDbLine
 10
6.993189
 20
3.561006
 30
0.0
 11
7.471089
 21
4.038906
 31
0.0
  0
LINE
  5
83
100
AcDbEntity
  8
0
390
0
  6
CONTINUOUS2
 62
     9
100
AcDbLine
 10
6.993189
 20
3.561006
 30
0.0
 11
6.758289
 21
3.795906
 31
0.0
  0
LINE
  5
84
100
AcDbEntity
  8
0
390
0
  6
CONTINUOUS2
 62
     9
100
AcDbLine
 10
6.758289
 20
3.795906
 30
0.0
 11
7.236189
 21
4.273806
 31
0.0
  0
LINE
  5
85
100
AcDbEntity
  8
0
390
0
  6
CONTINUOUS2
 62
     9
100
AcDbLine
 10
7.276689
 20
3.763506
 30
0.0
 11
7.511589
 21
3.998406
 31
0.0
  0
LINE
  5
86
100
AcDbEntity
  8
0
390
0
  6
CONTINUOUS2
 62
     9
100
AcDbLine
 10
6.239889
 20
3.763506
 30
0.0
 11
6.717789
 21
3.285606
 31
0.0
  0
LINE
  5
87
100
AcDbEntity
  8
0
390
0
  6
CONTINUOUS2
 62
     9
100
AcDbLine
 10
6.239889
 20
3.763506
 30
0.0
 11
6.474789
 21
3.998406
 31
0.0
  0
LINE
  5
88
100
AcDbEntity
  8
0
390
0
  6
CONTINUOUS2
 62
     9
100
AcDbLine
 10
6.474789
 20
3.998406
 30
0.0
 11
6.952689
 21
3.520506
 31
0.0
  0
LINE
  5
89
100
AcDbEntity
  8
0
390
0
  6
CONTINUOUS2
 62
     9
100
AcDbLine
 10
5.721489
 20
3.795906
 30
0.0
 11
6.199389
 21
4.273806
 31
0.0
  0
LINE
  5
8A
100
AcDbEntity
  8
0
390
0
  6
CONTINUOUS2
 62
     9
100
AcDbLine
 10
5.721489
 20
3.795906
 30
0.0
 11
5.956389
 21
3.561006
 31
0.0
  0
LINE
  5
8B
100
AcDbEntity
  8
0
390
0
  6
CONTINUOUS2
 62
     9
100
AcDbLine
 10
5.956389
 20
3.561006
 30
0.0
 11
6.434289
 21
4.038906
 31
0.0
  0
LINE
  5
8C
100
AcDbEntity
  8
0
390
0
  6
CONTINUOUS2
 62
     9
100
AcDbLine
 10
5.721489
 20
2.759106
 30
0.0
 11
6.442389
 21
3.480006
 31
0.0
  0
LINE
  5
8D
100
AcDbEntity
  8
0
390
0
  6
CONTINUOUS2
 62
     9
100
AcDbLine
 10
5.721489
 20
2.759106
 30
0.0
 11
5.956389
 21
2.524206
 31
0.0
  0
LINE
  5
8E
100
AcDbEntity
  8
0
390
0
  6
CONTINUOUS2
 62
     9
100
AcDbLine
 10
6.442389
 20
3.480006
 30
0.0
 11
6.677289
 21
3.245106
 31
0.0
  0
LINE
  5
8F
100
AcDbEntity
  8
0
390
0
  6
CONTINUOUS2
 62
     9
100
AcDbLine
 10
5.956389
 20
2.524206
 30
0.0
 11
6.677289
 21
3.245106
 31
0.0
  0
LINE
  5
90
100
AcDbEntity
  8
0
390
0
  6
CONTINUOUS2
 62
     9
100
AcDbLine
 10
6.239889
 20
2.726706
 30
0.0
 11
6.474789
 21
2.961606
 31
0.0
  0
LINE
  5
91
100
AcDbEntity
  8
0
390
0
  6
CONTINUOUS2
 62
     9
100
AcDbLine
 10
5.446089
 20
2.483706
 30
0.0
 11
5.680989
 21
2.248806
 31
0.0
  0
LINE
  5
92
100
AcDbEntity
  8
0
390
0
  6
CONTINUOUS2
 62
     9
100
AcDbLine
 10
5.680989
 20
2.718606
 30
0.0
 11
5.915889
 21
2.483706
 31
0.0
  0
LINE
  5
93
100
AcDbEntity
  8
0
390
0
  6
CONTINUOUS2
 62
     9
100
AcDbLine
 10
5.405589
 20
2.443206
 30
0.0
 11
5.640489
 21
2.208306
 31
0.0
  0
LINE
  5
94
100
AcDbEntity
  8
0
390
0
  6
CONTINUOUS2
 62
     9
100
AcDbLine
 10
4.166289
 20
2.726706
 30
0.0
 11
4.644189
 21
2.248806
 31
0.0
  0
LINE
  5
95
100
AcDbEntity
  8
0
390
0
  6
CONTINUOUS2
 62
     9
100
AcDbLine
 10
4.166289
 20
2.726706
 30
0.0
 11
4.401189
 21
2.961606
 31
0.0
  0
LINE
  5
96
100
AcDbEntity
  8
0
390
0
  6
CONTINUOUS2
 62
     9
100
AcDbLine
 10
4.401189
 20
2.961606
 30
0.0
 11
4.879089
 21
2.483706
 31
0.0
  0
LINE
  5
97
100
AcDbEntity
  8
0
390
0
  6
CONTINUOUS2
 62
     9
100
AcDbLine
 10
4.368789
 20
2.443206
 30
0.0
 11
4.603689
 21
2.208306
 31
0.0
  0
LINE
  5
98
100
AcDbEntity
  8
0
390
0
  6
CONTINUOUS2
 62
     9
100
AcDbLine
 10
4.684689
 20
2.759106
 30
0.0
 11
4.919589
 21
2.524206
 31
0.0
  0
LINE
  5
99
100
AcDbEntity
  8
0
390
0
  6
CONTINUOUS2
 62
     9
100
AcDbLine
 10
4.368789
 20
3.480006
 30
0.0
 11
3.890889
 21
3.002106
 31
0.0
  0
LINE
  5
9A
100
AcDbEntity
  8
0
390
0
  6
CONTINUOUS2
 62
     9
100
AcDbLine
 10
4.368789
 20
3.480006
 30
0.0
 11
4.603689
 21
3.245106
 31
0.0
  0
LINE
  5
9B
100
AcDbEntity
  8
0
390
0
  6
CONTINUOUS2
 62
     9
100
AcDbLine
 10
4.603689
 20
3.245106
 30
0.0
 11
4.125789
 21
2.767206
 31
0.0
  0
LINE
  5
9C
100
AcDbEntity
  8
0
390
0
  6
CONTINUOUS2
 62
     9
100
AcDbLine
 10
5.437989
 20
3.998406
 30
0.0
 11
6.158889
 21
3.277506
 31
0.0
  0
LINE
  5
9D
100
AcDbEntity
  8
0
390
0
  6
CONTINUOUS2
 62
     9
100
AcDbLine
 10
5.437989
 20
3.998406
 30
0.0
 11
5.203089
 21
3.763506
 31
0.0
  0
LINE
  5
9E
100
AcDbEntity
  8
0
390
0
  6
CONTINUOUS2
 62
     9
100
AcDbLine
 10
6.158889
 20
3.277506
 30
0.0
 11
5.923989
 21
3.042606
 31
0.0
  0
LINE
  5
9F
100
AcDbEntity
  8
0
390
0
  6
CONTINUOUS2
 62
     9
100
AcDbLine
 10
5.203089
 20
3.763506
 30
0.0
 11
5.923989
 21
3.042606
 31
0.0
  0
LINE
  5
A0
100
AcDbEntity
  8
0
390
0
  6
CONTINUOUS2
 62
     9
100
AcDbLine
 10
5.405589
 20
3.480006
 30
0.0
 11
5.640489
 21
3.245106
 31
0.0
  0
LINE
  5
A1
100
AcDbEntity
  8
0
390
0
  6
CONTINUOUS2
 62
     9
100
AcDbLine
 10
4.401189
 20
3.998406
 30
0.0
 11
4.879089
 21
3.520506
 31
0.0
  0
LINE
  5
A2
100
AcDbEntity
  8
0
390
0
  6
CONTINUOUS2
 62
     9
100
AcDbLine
 10
4.401189
 20
3.998406
 30
0.0
 11
4.166289
 21
3.763506
 31
0.0
  0
LINE
  5
A3
100
AcDbEntity
  8
0
390
0
  6
CONTINUOUS2
 62
     9
100
AcDbLine
 10
4.166289
 20
3.763506
 30
0.0
 11
4.644189
 21
3.285606
 31
0.0
  0
LINE
  5
A4
100
AcDbEntity
  8
0
390
0
  6
CONTINUOUS2
 62
     9
100
AcDbLine
 10
5.405589
 20
4.516806
 30
0.0
 11
4.684689
 21
3.795906
 31
0.0
  0
LINE
  5
A5
100
AcDbEntity
  8
0
390
0
  6
CONTINUOUS2
 62
     9
100
AcDbLine
 10
5.405589
 20
4.516806
 30
0.0
 11
5.640489
 21
4.281906
 31
0.0
  0
LINE
  5
A6
100
AcDbEntity
  8
0
390
0
  6
CONTINUOUS2
 62
     9
100
AcDbLine
 10
4.684689
 20
3.795906
 30
0.0
 11
4.919589
 21
3.561006
 31
0.0
  0
LINE
  5
A7
100
AcDbEntity
  8
0
390
0
  6
CONTINUOUS2
 62
     9
100
AcDbLine
 10
5.640489
 20
4.281906
 30
0.0
 11
4.919589
 21
3.561006
 31
0.0
  0
LINE
  5
A8
100
AcDbEntity
  8
0
390
0
  6
CONTINUOUS2
 62
     9
100
AcDbLine
 10
5.437989
 20
5.035206
 30
0.0
 11
6.158889
 21
4.314306
 31
0.0
  0
LINE
  5
A9
100
AcDbEntity
  8
0
390
0
  6
CONTINUOUS2
 62
     9
100
AcDbLine
 10
5.437989
 20
5.035206
 30
0.0
 11
5.203089
 21
4.800306
 31
0.0
  0
LINE
  5
AA
100
AcDbEntity
  8
0
390
0
  6
CONTINUOUS2
 62
     9
100
AcDbLine
 10
6.158889
 20
4.314306
 30
0.0
 11
5.923989
 21
4.079406
 31
0.0
  0
LINE
  5
AB
100
AcDbEntity
  8
0
390
0
  6
CONTINUOUS2
 62
     9
100
AcDbLine
 10
5.203089
 20
4.800306
 30
0.0
 11
5.923989
 21
4.079406
 31
0.0
  0
LINE
  5
AC
100
AcDbEntity
  8
0
390
0
  6
CONTINUOUS2
 62
     9
100
AcDbLine
 10
3.331989
 20
3.480006
 30
0.0
 11
3.566889
 21
3.245106
 31
0.0
  0
LINE
  5
AD
100
AcDbEntity
  8
0
390
0
  6
CONTINUOUS2
 62
     9
100
AcDbLine
 10
3.364389
 20
3.998406
 30
0.0
 11
4.085289
 21
3.277506
 31
0.0
  0
LINE
  5
AE
100
AcDbEntity
  8
0
390
0
  6
CONTINUOUS2
 62
     9
100
AcDbLine
 10
3.364389
 20
3.998406
 30
0.0
 11
3.129489
 21
3.763506
 31
0.0
  0
LINE
  5
AF
100
AcDbEntity
  8
0
390
0
  6
CONTINUOUS2
 62
     9
100
AcDbLine
 10
4.085289
 20
3.277506
 30
0.0
 11
3.850389
 21
3.042606
 31
0.0
  0
LINE
  5
B0
100
AcDbEntity
  8
0
390
0
  6
CONTINUOUS2
 62
     9
100
AcDbLine
 10
3.129489
 20
3.763506
 30
0.0
 11
3.850389
 21
3.042606
 31
0.0
  0
LINE
  5
B1
100
AcDbEntity
  8
0
390
0
  6
CONTINUOUS2
 62
     9
100
AcDbLine
 10
3.647889
 20
3.795906
 30
0.0
 11
4.368789
 21
4.516806
 31
0.0
  0
LINE
  5
B2
100
AcDbEntity
  8
0
390
0
  6
CONTINUOUS2
 62
     9
100
AcDbLine
 10
3.647889
 20
3.795906
 30
0.0
 11
3.882789
 21
3.561006
 31
0.0
  0
LINE
  5
B3
100
AcDbEntity
  8
0
390
0
  6
CONTINUOUS2
 62
     9
100
AcDbLine
 10
4.368789
 20
4.516806
 30
0.0
 11
4.603689
 21
4.281906
 31
0.0
  0
LINE
  5
B4
100
AcDbEntity
  8
0
390
0
  6
CONTINUOUS2
 62
     9
100
AcDbLine
 10
3.882789
 20
3.561006
 30
0.0
 11
4.603689
 21
4.281906
 31
0.0
  0
LINE
  5
B5
100
AcDbEntity
  8
0
390
0
  6
CONTINUOUS2
 62
     9
100
AcDbLine
 10
4.085289
 20
4.314306
 30
0.0
 11
3.850389
 21
4.079406
 31
0.0
  0
LINE
  5
B6
100
AcDbEntity
  8
0
390
0
  6
CONTINUOUS2
 62
     9
100
AcDbLine
 10
2.854089
 20
4.038906
 30
0.0
 11
3.088989
 21
4.273806
 31
0.0
  0
LINE
  5
B7
100
AcDbEntity
  8
0
390
0
  6
CONTINUOUS2
 62
     9
100
AcDbLine
 10
3.088989
 20
3.804006
 30
0.0
 11
3.323889
 21
4.038906
 31
0.0
  0
LINE
  5
B8
100
AcDbEntity
  8
0
390
0
  6
CONTINUOUS2
 62
     9
100
AcDbLine
 10
3.048489
 20
4.314306
 30
0.0
 11
2.813589
 21
4.079406
 31
0.0
  0
LINE
  5
B9
100
AcDbEntity
  8
0
390
0
  6
CONTINUOUS2
 62
     9
100
AcDbLine
 10
4.401189
 20
5.035206
 30
0.0
 11
5.122089
 21
4.314306
 31
0.0
  0
LINE
  5
BA
100
AcDbEntity
  8
0
390
0
  6
CONTINUOUS2
 62
     9
100
AcDbLine
 10
4.401189
 20
5.035206
 30
0.0
 11
4.166289
 21
4.800306
 31
0.0
  0
LINE
  5
BB
100
AcDbEntity
  8
0
390
0
  6
CONTINUOUS2
 62
     9
100
AcDbLine
 10
5.122089
 20
4.314306
 30
0.0
 11
4.887189
 21
4.079406
 31
0.0
  0
LINE
  5
BC
100
AcDbEntity
  8
0
390
0
  6
CONTINUOUS2
 62
     9
100
AcDbLine
 10
4.166289
 20
4.800306
 30
0.0
 11
4.887189
 21
4.079406
 31
0.0
  0
LINE
  5
BD
100
AcDbEntity
  8
0
390
0
  6
CONTINUOUS2
 62
     9
100
AcDbLine
 10
5.405589
 20
5.553606
 30
0.0
 11
4.684689
 21
4.832706
 31
0.0
  0
LINE
  5
BE
100
AcDbEntity
  8
0
390
0
  6
CONTINUOUS2
 62
     9
100
AcDbLine
 10
5.405589
 20
5.553606
 30
0.0
 11
5.640489
 21
5.318706
 31
0.0
  0
LINE
  5
BF
100
AcDbEntity
  8
0
390
0
  6
CONTINUOUS2
 62
     9
100
AcDbLine
 10
4.684689
 20
4.832706
 30
0.0
 11
4.919589
 21
4.597806
 31
0.0
  0
LINE
  5
C0
100
AcDbEntity
  8
0
390
0
  6
CONTINUOUS2
 62
     9
100
AcDbLine
 10
5.640489
 20
5.318706
 30
0.0
 11
4.919589
 21
4.597806
 31
0.0
  0
LINE
  5
C1
100
AcDbEntity
  8
0
390
0
  6
CONTINUOUS2
 62
     9
100
AcDbLine
 10
3.331989
 20
5.553606
 30
0.0
 11
2.854089
 21
5.075706
 31
0.0
  0
LINE
  5
C2
100
AcDbEntity
  8
0
390
0
  6
CONTINUOUS2
 62
     9
100
AcDbLine
 10
3.331989
 20
5.553606
 30
0.0
 11
3.566889
 21
5.318706
 31
0.0
  0
LINE
  5
C3
100
AcDbEntity
  8
0
390
0
  6
CONTINUOUS2
 62
     9
100
AcDbLine
 10
3.566889
 20
5.318706
 30
0.0
 11
3.088989
 21
4.840806
 31
0.0
  0
LINE
  5
C4
100
AcDbEntity
  8
0
390
0
  6
CONTINUOUS2
 62
     9
100
AcDbLine
 10
3.048489
 20
5.351106
 30
0.0
 11
2.813589
 21
5.116206
 31
0.0
  0
LINE
  5
C5
100
AcDbEntity
  8
0
390
0
  6
CONTINUOUS2
 62
     9
100
AcDbLine
 10
3.129489
 20
4.800306
 30
0.0
 11
3.364389
 21
5.035206
 31
0.0
  0
LINE
  5
C6
100
AcDbEntity
  8
0
390
0
  6
CONTINUOUS2
 62
     9
100
AcDbLine
 10
4.603689
 20
5.318706
 30
0.0
 11
4.125789
 21
4.840806
 31
0.0
  0
LINE
  5
C7
100
AcDbEntity
  8
0
390
0
  6
CONTINUOUS2
 62
     9
100
AcDbLine
 10
4.603689
 20
5.318706
 30
0.0
 11
4.368789
 21
5.553606
 31
0.0
  0
LINE
  5
C8
100
AcDbEntity
  8
0
390
0
  6
CONTINUOUS2
 62
     9
100
AcDbLine
 10
4.368789
 20
5.553606
 30
0.0
 11
3.890889
 21
5.075706
 31
0.0
  0
LINE
  5
C9
100
AcDbEntity
  8
0
390
0
  6
CONTINUOUS2
 62
     9
100
AcDbLine
 10
3.607389
 20
5.829006
 30
0.0
 11
4.085289
 21
5.351106
 31
0.0
  0
LINE
  5
CA
100
AcDbEntity
  8
0
390
0
  6
CONTINUOUS2
 62
     9
100
AcDbLine
 10
4.085289
 20
5.351106
 30
0.0
 11
3.850389
 21
5.116206
 31
0.0
  0
LINE
  5
CB
100
AcDbEntity
  8
0
390
0
  6
CONTINUOUS2
 62
     9
100
AcDbLine
 10
3.372489
 20
5.594106
 30
0.0
 11
3.850389
 21
5.116206
 31
0.0
  0
LINE
  5
CC
100
AcDbEntity
  8
0
390
0
  6
CONTINUOUS2
 62
     9
100
AcDbLine
 10
4.401189
 20
6.072006
 30
0.0
 11
5.122089
 21
5.351106
 31
0.0
  0
LINE
  5
CD
100
AcDbEntity
  8
0
390
0
  6
CONTINUOUS2
 62
     9
100
AcDbLine
 10
4.401189
 20
6.072006
 30
0.0
 11
4.166289
 21
5.837106
 31
0.0
  0
LINE
  5
CE
100
AcDbEntity
  8
0
390
0
  6
CONTINUOUS2
 62
     9
100
AcDbLine
 10
5.122089
 20
5.351106
 30
0.0
 11
4.887189
 21
5.116206
 31
0.0
  0
LINE
  5
CF
100
AcDbEntity
  8
0
390
0
  6
CONTINUOUS2
 62
     9
100
AcDbLine
 10
4.166289
 20
5.837106
 30
0.0
 11
4.887189
 21
5.116206
 31
0.0
  0
LINE
  5
D0
100
AcDbEntity
  8
0
390
0
  6
CONTINUOUS2
 62
     9
100
AcDbLine
 10
4.684689
 20
5.869506
 30
0.0
 11
4.919589
 21
5.634606
 31
0.0
  0
ARC
  5
D1
100
AcDbEntity
  8
0
390
0
  6
CONTINUOUS2
 62
     9
100
AcDbCircle
 10
4.221936
 20
6.524554
 30
0.0
 40
0.525447
210
0.0
220
0.0
230
1.0
100
AcDbArc
 50
180.0
 51
225.0
  0
ARC
  5
D2
100
AcDbEntity
  8
0
390
0
  6
CONTINUOUS2
 62
     9
100
AcDbCircle
 10
4.221933
 20
6.524551
 30
0.0
 40
0.193244
210
0.0
220
0.0
230
1.0
100
AcDbArc
 50
180.0
 51
225.0
  0
ARC
  5
D3
100
AcDbEntity
  8
0
390
0
  6
CONTINUOUS2
 62
     9
100
AcDbCircle
 10
4.155314
 20
6.376931
 30
0.0
 40
0.359175
210
0.0
220
0.0
230
1.0
100
AcDbArc
 50
45.0
 51
90.0
  0
ARC
  5
D4
100
AcDbEntity
  8
0
390
0
  6
CONTINUOUS2
 62
     9
100
AcDbCircle
 10
4.155311
 20
6.376928
 30
0.0
 40
0.691378
210
0.0
220
0.0
230
1.0
100
AcDbArc
 50
45.0
 51
90.0
  0
ARC
  5
D5
100
AcDbEntity
  8
0
390
0
  6
CONTINUOUS2
 62
     9
100
AcDbCircle
 10
5.075791
 20
6.515203
 30
0.0
 40
0.553103
210
0.0
220
0.0
230
1.0
100
AcDbArc
 50
90.0
 51
135.0
  0
ARC
  5
D6
100
AcDbEntity
  8
0
390
0
  6
CONTINUOUS2
 62
     9
100
AcDbCircle
 10
5.075788
 20
6.515206
 30
0.0
 40
0.2209
210
0.0
220
0.0
230
1.0
100
AcDbArc
 50
90.0
 51
135.0
  0
ARC
  5
D7
100
AcDbEntity
  8
0
390
0
  6
CONTINUOUS2
 62
     9
100
AcDbCircle
 10
5.192114
 20
6.376931
 30
0.0
 40
0.359175
210
0.0
220
0.0
230
1.0
100
AcDbArc
 50
45.0
 51
90.0
  0
ARC
  5
D8
100
AcDbEntity
  8
0
390
0
  6
CONTINUOUS2
 62
     9
100
AcDbCircle
 10
5.192111
 20
6.376928
 30
0.0
 40
0.691378
210
0.0
220
0.0
230
1.0
100
AcDbArc
 50
45.0
 51
90.0
  0
ARC
  5
D9
100
AcDbEntity
  8
0
390
0
  6
CONTINUOUS2
 62
     9
100
AcDbCircle
 10
4.409766
 20
6.161583
 30
0.0
 40
0.663723
210
0.0
220
0.0
230
1.0
100
AcDbArc
 50
0.0
 51
45.0
  0
ARC
  5
DA
100
AcDbEntity
  8
0
390
0
  6
CONTINUOUS2
 62
     9
100
AcDbCircle
 10
4.409769
 20
6.161586
 30
0.0
 40
0.33152
210
0.0
220
0.0
230
1.0
100
AcDbArc
 50
0.0
 51
45.0
  0
ARC
  5
DB
100
AcDbEntity
  8
0
390
0
  6
CONTINUOUS2
 62
     9
100
AcDbCircle
 10
5.777136
 20
6.218859
 30
0.0
 40
0.525447
210
0.0
220
0.0
230
1.0
100
AcDbArc
 50
135.0
 51
180.0
  0
ARC
  5
DC
100
AcDbEntity
  8
0
390
0
  6
CONTINUOUS2
 62
     9
100
AcDbCircle
 10
5.777133
 20
6.218862
 30
0.0
 40
0.193244
210
0.0
220
0.0
230
1.0
100
AcDbArc
 50
135.0
 51
180.0
  0
ARC
  5
DD
100
AcDbEntity
  8
0
390
0
  6
CONTINUOUS2
 62
     9
100
AcDbCircle
 10
6.112591
 20
6.515203
 30
0.0
 40
0.553103
210
0.0
220
0.0
230
1.0
100
AcDbArc
 50
90.0
 51
135.0
  0
ARC
  5
DE
100
AcDbEntity
  8
0
390
0
  6
CONTINUOUS2
 62
     9
100
AcDbCircle
 10
6.112588
 20
6.515206
 30
0.0
 40
0.2209
210
0.0
220
0.0
230
1.0
100
AcDbArc
 50
90.0
 51
135.0
  0
ARC
  5
DF
100
AcDbEntity
  8
0
390
0
  6
CONTINUOUS2
 62
     9
100
AcDbCircle
 10
5.964969
 20
6.581826
 30
0.0
 40
0.33152
210
0.0
220
0.0
230
1.0
100
AcDbArc
 50
315.0
 51
360.0
  0
ARC
  5
E0
100
AcDbEntity
  8
0
390
0
  6
CONTINUOUS2
 62
     9
100
AcDbCircle
 10
5.964966
 20
6.581829
 30
0.0
 40
0.663723
210
0.0
220
0.0
230
1.0
100
AcDbArc
 50
315.0
 51
360.0
  0
ARC
  5
E1
100
AcDbEntity
  8
0
390
0
  6
CONTINUOUS2
 62
     9
100
AcDbCircle
 10
4.548044
 20
6.006151
 30
0.0
 40
0.193244
210
0.0
220
0.0
230
1.0
100
AcDbArc
 50
315.0
 51
360.0
  0
ARC
  5
E2
100
AcDbEntity
  8
0
390
0
  6
CONTINUOUS2
 62
     9
100
AcDbCircle
 10
4.548041
 20
6.006154
 30
0.0
 40
0.525447
210
0.0
220
0.0
230
1.0
100
AcDbArc
 50
315.0
 51
360.0
  0
ARC
  5
E3
100
AcDbEntity
  8
0
390
0
  6
CONTINUOUS2
 62
     9
100
AcDbCircle
 10
5.915412
 20
6.063429
 30
0.0
 40
0.663723
210
0.0
220
0.0
230
1.0
100
AcDbArc
 50
180.0
 51
225.0
  0
ARC
  5
E4
100
AcDbEntity
  8
0
390
0
  6
CONTINUOUS2
 62
     9
100
AcDbCircle
 10
5.915409
 20
6.063426
 30
0.0
 40
0.33152
210
0.0
220
0.0
230
1.0
100
AcDbArc
 50
180.0
 51
225.0
  0
ARC
  5
E5
100
AcDbEntity
  8
0
390
0
  6
CONTINUOUS2
 62
     9
100
AcDbCircle
 10
7.149391
 20
5.478403
 30
0.0
 40
0.553103
210
0.0
220
0.0
230
1.0
100
AcDbArc
 50
90.0
 51
135.0
  0
ARC
  5
E6
100
AcDbEntity
  8
0
390
0
  6
CONTINUOUS2
 62
     9
100
AcDbCircle
 10
7.149388
 20
5.478406
 30
0.0
 40
0.2209
210
0.0
220
0.0
230
1.0
100
AcDbArc
 50
90.0
 51
135.0
  0
ARC
  5
E7
100
AcDbEntity
  8
0
390
0
  6
CONTINUOUS2
 62
     9
100
AcDbCircle
 10
7.001769
 20
5.545026
 30
0.0
 40
0.33152
210
0.0
220
0.0
230
1.0
100
AcDbArc
 50
315.0
 51
360.0
  0
ARC
  5
E8
100
AcDbEntity
  8
0
390
0
  6
CONTINUOUS2
 62
     9
100
AcDbCircle
 10
7.001766
 20
5.545029
 30
0.0
 40
0.663723
210
0.0
220
0.0
230
1.0
100
AcDbArc
 50
315.0
 51
360.0
  0
ARC
  5
E9
100
AcDbEntity
  8
0
390
0
  6
CONTINUOUS2
 62
     9
100
AcDbCircle
 10
7.140044
 20
4.663662
 30
0.0
 40
0.193244
210
0.0
220
0.0
230
1.0
100
AcDbArc
 50
0.0
 51
45.0
  0
ARC
  5
EA
100
AcDbEntity
  8
0
390
0
  6
CONTINUOUS2
 62
     9
100
AcDbCircle
 10
7.140041
 20
4.663659
 30
0.0
 40
0.525447
210
0.0
220
0.0
230
1.0
100
AcDbArc
 50
0.0
 51
45.0
  0
ARC
  5
EB
100
AcDbEntity
  8
0
390
0
  6
CONTINUOUS2
 62
     9
100
AcDbCircle
 10
6.786424
 20
5.290571
 30
0.0
 40
0.303865
210
0.0
220
0.0
230
1.0
100
AcDbArc
 50
270.0
 51
315.0
  0
ARC
  5
EC
100
AcDbEntity
  8
0
390
0
  6
CONTINUOUS2
 62
     9
100
AcDbCircle
 10
6.786421
 20
5.290574
 30
0.0
 40
0.636068
210
0.0
220
0.0
230
1.0
100
AcDbArc
 50
270.0
 51
315.0
  0
ARC
  5
ED
100
AcDbEntity
  8
0
390
0
  6
CONTINUOUS2
 62
     9
100
AcDbCircle
 10
6.591878
 20
5.152295
 30
0.0
 40
0.165589
210
0.0
220
0.0
230
1.0
100
AcDbArc
 50
225.0
 51
270.0
  0
ARC
  5
EE
100
AcDbEntity
  8
0
390
0
  6
CONTINUOUS2
 62
     9
100
AcDbCircle
 10
6.591881
 20
5.152298
 30
0.0
 40
0.497792
210
0.0
220
0.0
230
1.0
100
AcDbArc
 50
225.0
 51
270.0
  0
ARC
  5
EF
100
AcDbEntity
  8
0
390
0
  6
CONTINUOUS2
 62
     9
100
AcDbCircle
 10
6.688267
 20
3.784928
 30
0.0
 40
0.691378
210
0.0
220
0.0
230
1.0
100
AcDbArc
 50
90.0
 51
135.0
  0
ARC
  5
F0
100
AcDbEntity
  8
0
390
0
  6
CONTINUOUS2
 62
     9
100
AcDbCircle
 10
6.688264
 20
3.784931
 30
0.0
 40
0.359175
210
0.0
220
0.0
230
1.0
100
AcDbArc
 50
90.0
 51
135.0
  0
ARC
  5
F1
100
AcDbEntity
  8
0
390
0
  6
CONTINUOUS2
 62
     9
100
AcDbCircle
 10
6.804586
 20
3.923203
 30
0.0
 40
0.553103
210
0.0
220
0.0
230
1.0
100
AcDbArc
 50
45.0
 51
90.0
  0
ARC
  5
F2
100
AcDbEntity
  8
0
390
0
  6
CONTINUOUS2
 62
     9
100
AcDbCircle
 10
6.804589
 20
3.923206
 30
0.0
 40
0.2209
210
0.0
220
0.0
230
1.0
100
AcDbArc
 50
45.0
 51
90.0
  0
ARC
  5
F3
100
AcDbEntity
  8
0
390
0
  6
CONTINUOUS2
 62
     9
100
AcDbCircle
 10
7.001769
 20
4.508226
 30
0.0
 40
0.33152
210
0.0
220
0.0
230
1.0
100
AcDbArc
 50
315.0
 51
360.0
  0
ARC
  5
F4
100
AcDbEntity
  8
0
390
0
  6
CONTINUOUS2
 62
     9
100
AcDbCircle
 10
7.001766
 20
4.508229
 30
0.0
 40
0.663723
210
0.0
220
0.0
230
1.0
100
AcDbArc
 50
315.0
 51
360.0
  0
ARC
  5
F5
100
AcDbEntity
  8
0
390
0
  6
CONTINUOUS2
 62
     9
100
AcDbCircle
 10
7.140041
 20
3.626859
 30
0.0
 40
0.525447
210
0.0
220
0.0
230
1.0
100
AcDbArc
 50
0.0
 51
45.0
  0
ARC
  5
F6
100
AcDbEntity
  8
0
390
0
  6
CONTINUOUS2
 62
     9
100
AcDbCircle
 10
7.140044
 20
3.626862
 30
0.0
 40
0.193244
210
0.0
220
0.0
230
1.0
100
AcDbArc
 50
0.0
 51
45.0
  0
ARC
  5
F7
100
AcDbEntity
  8
0
390
0
  6
CONTINUOUS2
 62
     9
100
AcDbCircle
 10
7.167554
 20
3.735371
 30
0.0
 40
0.303865
210
0.0
220
0.0
230
1.0
100
AcDbArc
 50
225.0
 51
270.0
  0
ARC
  5
F8
100
AcDbEntity
  8
0
390
0
  6
CONTINUOUS2
 62
     9
100
AcDbCircle
 10
7.167557
 20
3.735374
 30
0.0
 40
0.636068
210
0.0
220
0.0
230
1.0
100
AcDbArc
 50
225.0
 51
270.0
  0
ARC
  5
F9
100
AcDbEntity
  8
0
390
0
  6
CONTINUOUS2
 62
     9
100
AcDbCircle
 10
4.409769
 20
3.051186
 30
0.0
 40
0.33152
210
0.0
220
0.0
230
1.0
100
AcDbArc
 50
0.0
 51
45.0
  0
ARC
  5
FA
100
AcDbEntity
  8
0
390
0
  6
CONTINUOUS2
 62
     9
100
AcDbCircle
 10
4.409766
 20
3.051183
 30
0.0
 40
0.663723
210
0.0
220
0.0
230
1.0
100
AcDbArc
 50
0.0
 51
45.0
  0
ARC
  5
FB
100
AcDbEntity
  8
0
390
0
  6
CONTINUOUS2
 62
     9
100
AcDbCircle
 10
5.777136
 20
3.108459
 30
0.0
 40
0.525447
210
0.0
220
0.0
230
1.0
100
AcDbArc
 50
135.0
 51
180.0
  0
ARC
  5
FC
100
AcDbEntity
  8
0
390
0
  6
CONTINUOUS2
 62
     9
100
AcDbCircle
 10
5.777133
 20
3.108462
 30
0.0
 40
0.193244
210
0.0
220
0.0
230
1.0
100
AcDbArc
 50
135.0
 51
180.0
  0
ARC
  5
FD
100
AcDbEntity
  8
0
390
0
  6
CONTINUOUS2
 62
     9
100
AcDbCircle
 10
6.103241
 20
2.590059
 30
0.0
 40
0.525447
210
0.0
220
0.0
230
1.0
100
AcDbArc
 50
0.0
 51
45.0
  0
ARC
  5
FE
100
AcDbEntity
  8
0
390
0
  6
CONTINUOUS2
 62
     9
100
AcDbCircle
 10
6.103244
 20
2.590062
 30
0.0
 40
0.193244
210
0.0
220
0.0
230
1.0
100
AcDbArc
 50
0.0
 51
45.0
  0
ARC
  5
FF
100
AcDbEntity
  8
0
390
0
  6
CONTINUOUS2
 62
     9
100
AcDbCircle
 10
6.130754
 20
2.698571
 30
0.0
 40
0.303865
210
0.0
220
0.0
230
1.0
100
AcDbArc
 50
225.0
 51
270.0
  0
ARC
  5
100
100
AcDbEntity
  8
0
390
0
  6
CONTINUOUS2
 62
     9
100
AcDbCircle
 10
6.130757
 20
2.698574
 30
0.0
 40
0.636068
210
0.0
220
0.0
230
1.0
100
AcDbArc
 50
225.0
 51
270.0
  0
ARC
  5
101
100
AcDbEntity
  8
0
390
0
  6
CONTINUOUS2
 62
     9
100
AcDbCircle
 10
4.548044
 20
2.895751
 30
0.0
 40
0.193244
210
0.0
220
0.0
230
1.0
100
AcDbArc
 50
315.0
 51
360.0
  0
ARC
  5
102
100
AcDbEntity
  8
0
390
0
  6
CONTINUOUS2
 62
     9
100
AcDbCircle
 10
4.548041
 20
2.895754
 30
0.0
 40
0.525447
210
0.0
220
0.0
230
1.0
100
AcDbArc
 50
315.0
 51
360.0
  0
ARC
  5
103
100
AcDbEntity
  8
0
390
0
  6
CONTINUOUS2
 62
     9
100
AcDbCircle
 10
5.915412
 20
2.953029
 30
0.0
 40
0.663723
210
0.0
220
0.0
230
1.0
100
AcDbArc
 50
180.0
 51
225.0
  0
ARC
  5
104
100
AcDbEntity
  8
0
390
0
  6
CONTINUOUS2
 62
     9
100
AcDbCircle
 10
5.915409
 20
2.953026
 30
0.0
 40
0.33152
210
0.0
220
0.0
230
1.0
100
AcDbArc
 50
180.0
 51
225.0
  0
ARC
  5
105
100
AcDbEntity
  8
0
390
0
  6
CONTINUOUS2
 62
     9
100
AcDbCircle
 10
5.288499
 20
2.560295
 30
0.0
 40
0.165589
210
0.0
220
0.0
230
1.0
100
AcDbArc
 50
270.0
 51
315.0
  0
ARC
  5
106
100
AcDbEntity
  8
0
390
0
  6
CONTINUOUS2
 62
     9
100
AcDbCircle
 10
5.288496
 20
2.560298
 30
0.0
 40
0.497792
210
0.0
220
0.0
230
1.0
100
AcDbArc
 50
270.0
 51
315.0
  0
ARC
  5
107
100
AcDbEntity
  8
0
390
0
  6
CONTINUOUS2
 62
     9
100
AcDbCircle
 10
5.093954
 20
2.698571
 30
0.0
 40
0.303865
210
0.0
220
0.0
230
1.0
100
AcDbArc
 50
225.0
 51
270.0
  0
ARC
  5
108
100
AcDbEntity
  8
0
390
0
  6
CONTINUOUS2
 62
     9
100
AcDbCircle
 10
5.093957
 20
2.698574
 30
0.0
 40
0.636068
210
0.0
220
0.0
230
1.0
100
AcDbArc
 50
225.0
 51
270.0
  0
ARC
  5
109
100
AcDbEntity
  8
0
390
0
  6
CONTINUOUS2
 62
     9
100
AcDbCircle
 10
4.251699
 20
2.560295
 30
0.0
 40
0.165589
210
0.0
220
0.0
230
1.0
100
AcDbArc
 50
270.0
 51
315.0
  0
ARC
  5
10A
100
AcDbEntity
  8
0
390
0
  6
CONTINUOUS2
 62
     9
100
AcDbCircle
 10
4.251696
 20
2.560298
 30
0.0
 40
0.497792
210
0.0
220
0.0
230
1.0
100
AcDbArc
 50
270.0
 51
315.0
  0
ARC
  5
10B
100
AcDbEntity
  8
0
390
0
  6
CONTINUOUS2
 62
     9
100
AcDbCircle
 10
4.360209
 20
2.532786
 30
0.0
 40
0.33152
210
0.0
220
0.0
230
1.0
100
AcDbArc
 50
135.0
 51
180.0
  0
ARC
  5
10C
100
AcDbEntity
  8
0
390
0
  6
CONTINUOUS2
 62
     9
100
AcDbCircle
 10
4.360212
 20
2.532783
 30
0.0
 40
0.663723
210
0.0
220
0.0
230
1.0
100
AcDbArc
 50
135.0
 51
180.0
  0
ARC
  5
10D
100
AcDbEntity
  8
0
390
0
  6
CONTINUOUS2
 62
     9
100
AcDbCircle
 10
3.214899
 20
3.597095
 30
0.0
 40
0.165589
210
0.0
220
0.0
230
1.0
100
AcDbArc
 50
270.0
 51
315.0
  0
ARC
  5
10E
100
AcDbEntity
  8
0
390
0
  6
CONTINUOUS2
 62
     9
100
AcDbCircle
 10
3.214896
 20
3.597098
 30
0.0
 40
0.497792
210
0.0
220
0.0
230
1.0
100
AcDbArc
 50
270.0
 51
315.0
  0
ARC
  5
10F
100
AcDbEntity
  8
0
390
0
  6
CONTINUOUS2
 62
     9
100
AcDbCircle
 10
3.323409
 20
3.569586
 30
0.0
 40
0.33152
210
0.0
220
0.0
230
1.0
100
AcDbArc
 50
135.0
 51
180.0
  0
ARC
  5
110
100
AcDbEntity
  8
0
390
0
  6
CONTINUOUS2
 62
     9
100
AcDbCircle
 10
3.323412
 20
3.569583
 30
0.0
 40
0.663723
210
0.0
220
0.0
230
1.0
100
AcDbArc
 50
135.0
 51
180.0
  0
ARC
  5
111
100
AcDbEntity
  8
0
390
0
  6
CONTINUOUS2
 62
     9
100
AcDbCircle
 10
3.185136
 20
4.450954
 30
0.0
 40
0.525447
210
0.0
220
0.0
230
1.0
100
AcDbArc
 50
180.0
 51
225.0
  0
ARC
  5
112
100
AcDbEntity
  8
0
390
0
  6
CONTINUOUS2
 62
     9
100
AcDbCircle
 10
3.185133
 20
4.450951
 30
0.0
 40
0.193244
210
0.0
220
0.0
230
1.0
100
AcDbArc
 50
180.0
 51
225.0
  0
ARC
  5
113
100
AcDbEntity
  8
0
390
0
  6
CONTINUOUS2
 62
     9
100
AcDbCircle
 10
3.323412
 20
4.606383
 30
0.0
 40
0.663723
210
0.0
220
0.0
230
1.0
100
AcDbArc
 50
135.0
 51
180.0
  0
ARC
  5
114
100
AcDbEntity
  8
0
390
0
  6
CONTINUOUS2
 62
     9
100
AcDbCircle
 10
3.323409
 20
4.606386
 30
0.0
 40
0.33152
210
0.0
220
0.0
230
1.0
100
AcDbArc
 50
135.0
 51
180.0
  0
ARC
  5
115
100
AcDbEntity
  8
0
390
0
  6
CONTINUOUS2
 62
     9
100
AcDbCircle
 10
3.481481
 20
5.152298
 30
0.0
 40
0.497792
210
0.0
220
0.0
230
1.0
100
AcDbArc
 50
225.0
 51
270.0
  0
ARC
  5
116
100
AcDbEntity
  8
0
390
0
  6
CONTINUOUS2
 62
     9
100
AcDbCircle
 10
3.481478
 20
5.152295
 30
0.0
 40
0.165589
210
0.0
220
0.0
230
1.0
100
AcDbArc
 50
225.0
 51
270.0
  0
ARC
  5
117
100
AcDbEntity
  8
0
390
0
  6
CONTINUOUS2
 62
     9
100
AcDbCircle
 10
3.676024
 20
5.290571
 30
0.0
 40
0.303865
210
0.0
220
0.0
230
1.0
100
AcDbArc
 50
270.0
 51
315.0
  0
ARC
  5
118
100
AcDbEntity
  8
0
390
0
  6
CONTINUOUS2
 62
     9
100
AcDbCircle
 10
3.676021
 20
5.290574
 30
0.0
 40
0.636068
210
0.0
220
0.0
230
1.0
100
AcDbArc
 50
270.0
 51
315.0
  0
ARC
  5
119
100
AcDbEntity
  8
0
390
0
  6
CONTINUOUS2
 62
     9
100
AcDbCircle
 10
3.694186
 20
3.923203
 30
0.0
 40
0.553103
210
0.0
220
0.0
230
1.0
100
AcDbArc
 50
45.0
 51
90.0
  0
ARC
  5
11A
100
AcDbEntity
  8
0
390
0
  6
CONTINUOUS2
 62
     9
100
AcDbCircle
 10
3.694189
 20
3.923206
 30
0.0
 40
0.2209
210
0.0
220
0.0
230
1.0
100
AcDbArc
 50
45.0
 51
90.0
  0
ARC
  5
11B
100
AcDbEntity
  8
0
390
0
  6
CONTINUOUS2
 62
     9
100
AcDbCircle
 10
3.577864
 20
3.784931
 30
0.0
 40
0.359175
210
0.0
220
0.0
230
1.0
100
AcDbArc
 50
90.0
 51
135.0
  0
ARC
  5
11C
100
AcDbEntity
  8
0
390
0
  6
CONTINUOUS2
 62
     9
100
AcDbCircle
 10
3.577867
 20
3.784928
 30
0.0
 40
0.691378
210
0.0
220
0.0
230
1.0
100
AcDbArc
 50
90.0
 51
135.0
  0
ARC
  5
11D
100
AcDbEntity
  8
0
390
0
  6
CONTINUOUS2
 62
     9
100
AcDbCircle
 10
3.185136
 20
5.487754
 30
0.0
 40
0.525447
210
0.0
220
0.0
230
1.0
100
AcDbArc
 50
180.0
 51
225.0
  0
ARC
  5
11E
100
AcDbEntity
  8
0
390
0
  6
CONTINUOUS2
 62
     9
100
AcDbCircle
 10
3.185133
 20
5.487751
 30
0.0
 40
0.193244
210
0.0
220
0.0
230
1.0
100
AcDbArc
 50
180.0
 51
225.0
  0
ARC
  5
11F
100
AcDbEntity
  8
0
390
0
  6
CONTINUOUS2
 62
     9
100
AcDbCircle
 10
3.118514
 20
5.340131
 30
0.0
 40
0.359175
210
0.0
220
0.0
230
1.0
100
AcDbArc
 50
45.0
 51
90.0
  0
ARC
  5
120
100
AcDbEntity
  8
0
390
0
  6
CONTINUOUS2
 62
     9
100
AcDbCircle
 10
3.118511
 20
5.340128
 30
0.0
 40
0.691378
210
0.0
220
0.0
230
1.0
100
AcDbArc
 50
45.0
 51
90.0
  0
ENDSEC
  0
SECTION
  2
OBJECTS
  0
DICTIONARY
  5
19
100
AcDbDictionary
280
     0
281
     1
  3
ACAD_GROUP
350
1A
  3
ACAD_MLINESTYLE
350
1B
  3
ACAD_LAYOUT
350
1E
  3
ACAD_PLOTSETTINGS
350
22
  3
ACAD_PLOTSTYLENAME
350
1F
  3
ACAD_WIPEOUT_VARS
350
23
  0
DICTIONARY
  5
1A
102
{ACAD_REACTORS
330
19
102
}
100
AcDbDictionary
280
     0
281
     1
  0
DICTIONARY
  5
1B
102
{ACAD_REACTORS
330
19
102
}
100
AcDbDictionary
280
     0
281
     1
  3
Standard
350
1C
  0
MLINESTYLE
  5
1C
102
{ACAD_REACTORS
330
1B
102
}
100
AcDbMlineStyle
  2
Standard
 70
     0
  3

 62
     0
 51
90.0
 52
90.0
 71
     2
 49
0.5
 62
   256
  6
ByLayer
 49
-0.5
 62
   256
  6
ByLayer
  0
ACDBDICTIONARYWDFLT
  5
1F
102
{ACAD_REACTORS
330
19
102
}
100
AcDbDictionary
281
     1
  3
Normal
350
1D
100
AcDbDictionaryWithDefault
340
1D
  0
ACDBPLACEHOLDER
  5
1D
102
{ACAD_REACTORS
330
1F
102
}
  0
LAYOUT
  5
20
102
{ACAD_REACTORS
330
1E
102
}
100
AcDbPlotSettings
  1

  2

  4

  6

 40
0.0
 41
0.0
 42
0.0
 43
0.0
 44
0.0
 45
0.0
 46
0.0
 47
0.0
 48
0.0
 49
0.0
140
0.0
141
0.0
142
1.0
143
1.0
 70
  1024
 72
     0
 73
     0
 74
     0
  7

 75
     0
147
1.0
148
0.0
149
0.0
100
AcDbLayout
  1
Model
 70
     0
 71
     1
 10
0.0
 20
0.0
 11
0.0
 21
0.0
 12
0.0
 22
0.0
 32
0.0
 14
0.0
 24
0.0
 34
0.0
 15
0.0
 25
0.0
 35
0.0
146
0.0
 13
0.0
 23
0.0
 33
0.0
 16
0.0
 26
0.0
 36
0.0
 17
0.0
 27
0.0
 37
0.0
 76
     0
330
A
331
0
345
0
346
0
  0
LAYOUT
  5
21
102
{ACAD_REACTORS
330
1E
102
}
100
AcDbPlotSettings
  1

  2

  4

  6

 40
0.0
 41
0.0
 42
0.0
 43
0.0
 44
0.0
 45
0.0
 46
0.0
 47
0.0
 48
0.0
 49
0.0
140
0.0
141
0.0
142
1.0
143
1.0
 70
     0
 72
     0
 73
     0
 74
     0
  7

 75
     0
147
1.0
148
0.0
149
0.0
100
AcDbLayout
  1
Layout1
 70
     0
 71
     2
 10
0.0
 20
0.0
 11
0.0
 21
0.0
 12
0.0
 22
0.0
 32
0.0
 14
0.0
 24
0.0
 34
0.0
 15
0.0
 25
0.0
 35
0.0
146
0.0
 13
0.0
 23
0.0
 33
0.0
 16
0.0
 26
0.0
 36
0.0
 17
0.0
 27
0.0
 37
0.0
 76
     0
330
B
331
0
345
0
346
0
  0
DICTIONARY
  5
1E
102
{ACAD_REACTORS
330
19
102
}
100
AcDbDictionary
280
     0
281
     1
  3
Layout1
350
21
  3
Model
350
20
  0
DICTIONARY
  5
22
102
{ACAD_REACTORS
330
19
102
}
100
AcDbDictionary
280
     0
281
     1
  0
WIPEOUTVARIABLES
  5
23
100
AcDbWipeoutVariables
 70
     1
  0
ENDSEC
  0
EOF
