  0
SECTION
  2
HEADER
  9
$ACADVER
  1
AC1015
  9
$ACADMAINTVER
 70
     6
  9
$DWGCODEPAGE
  3
ANSI_1252
  9
$INSBASE
 10
0.0
 20
0.0
 30
0.0
  9
$EXTMIN
 10
-0.939693
 20
-0.984808
 30
0.0
  9
$EXTMAX
 10
13.0
 20
12.984808
 30
0.0
  9
$LIMMIN
 10
0.0
 20
0.0
  9
$LIMMAX
 10
0.0
 20
0.0
  9
$ORTHOMODE
 70
     0
  9
$REGENMODE
 70
     1
  9
$FILLMODE
 70
     1
  9
$QTEXTMODE
 70
     0
  9
$MIRRTEXT
 70
     1
  9
$LTSCALE
 40
1.0
  9
$ATTMODE
 70
     1
  9
$TEXTSIZE
 40
0.2
  9
$TRACEWID
 40
0.05
  9
$TEXTSTYLE
  7
Standard
  9
$CLAYER
  8
0
  9
$CELTYPE
  6
Continuous
  9
$CECOLOR
 62
   256
  9
$CELTSCALE
 40
1.0
  9
$DISPSILH
 70
     0
  9
$DIMSCALE
 40
1.0
  9
$DIMASZ
 40
0.18
  9
$DIMEXO
 40
0.0625
  9
$DIMDLI
 40
0.38
  9
$DIMRND
 40
0.0
  9
$DIMDLE
 40
0.0
  9
$DIMEXE
 40
0.18
  9
$DIMTP
 40
0.0
  9
$DIMTM
 40
0.0
  9
$DIMTXT
 40
0.18
  9
$DIMCEN
 40
0.09
  9
$DIMTSZ
 40
0.0
  9
$DIMTOL
 70
     0
  9
$DIMLIM
 70
     0
  9
$DIMTIH
 70
     1
  9
$DIMTOH
 70
     1
  9
$DIMSE1
 70
     0
  9
$DIMSE2
 70
     0
  9
$DIMTAD
 70
     0
  9
$DIMZIN
 70
     0
  9
$DIMBLK
  1

  9
$DIMASO
 70
     1
  9
$DIMSHO
 70
     1
  9
$DIMPOST
  1

  9
$DIMAPOST
  1

  9
$DIMALT
 70
     0
  9
$DIMALTD
 70
     2
  9
$DIMALTF
 40
25.4
  9
$DIMLFAC
 40
1.0
  9
$DIMTOFL
 70
     0
  9
$DIMTVP
 40
0.0
  9
$DIMTIX
 70
     0
  9
$DIMSOXD
 70
     0
  9
$DIMSAH
 70
     0
  9
$DIMBLK1
  1

  9
$DIMBLK2
  1

  9
$DIMSTYLE
  2
Standard
  9
$DIMCLRD
 70
     0
  9
$DIMCLRE
 70
     0
  9
$DIMCLRT
 70
     0
  9
$DIMTFAC
 40
1.0
  9
$DIMGAP
 40
0.09
  9
$DIMJUST
 70
     0
  9
$DIMSD1
 70
     0
  9
$DIMSD2
 70
     0
  9
$DIMTOLJ
 70
     1
  9
$DIMTZIN
 70
     0
  9
$DIMALTZ
 70
     0
  9
$DIMALTTZ
 70
     0
  9
$DIMUPT
 70
     0
  9
$DIMDEC
 70
     4
  9
$DIMTDEC
 70
     4
  9
$DIMALTU
 70
     2
  9
$DIMALTTD
 70
     2
  9
$DIMTXSTY
  7
Standard
  9
$DIMAUNIT
 70
     0
  9
$DIMADEC
 70
     0
  9
$DIMALTRND
 40
0.0
  9
$DIMAZIN
 70
     0
  9
$DIMDSEP
 70
    46
  9
$DIMATFIT
 70
     3
  9
$DIMFRAC
 70
     0
  9
$DIMLDRBLK
  1

  9
$DIMLUNIT
 70
     2
  9
$DIMLWD
 70
    -2
  9
$DIMLWE
 70
    -2
  9
$DIMTMOVE
 70
     0
  9
$LUNITS
 70
     2
  9
$LUPREC
 70
     4
  9
$SKETCHINC
 40
0.1
  9
$FILLETRAD
 40
0.0
  9
$AUNITS
 70
     0
  9
$AUPREC
 70
     0
  9
$MENU
  1
acad
  9
$ELEVATION
 40
0.0
  9
$PELEVATION
 40
0.0
  9
$THICKNESS
 40
0.0
  9
$LIMCHECK
 70
     0
  9
$CHAMFERA
 40
0.0
  9
$CHAMFERB
 40
0.0
  9
$CHAMFERC
 40
0.0
  9
$CHAMFERD
 40
0.0
  9
$SKPOLY
 70
     0
  9
$TDCREATE
 40
2458368.338101852
  9
$TDUCREATE
 40
0.000000000
  9
$TDUPDATE
 40
2458368.338101852
  9
$TDUUPDATE
 40
0.000000000
  9
$TDINDWG
 40
0.0000000000
  9
$TDUSRTIMER
 40
0.0000000000
  9
$USRTIMER
 70
     1
  9
$ANGBASE
 50
0.0
  9
$ANGDIR
 70
     0
  9
$PDMODE
 70
     0
  9
$PDSIZE
 40
0.0
  9
$PLINEWID
 40
0.0
  9
$SPLFRAME
 70
     0
  9
$SPLINETYPE
 70
     6
  9
$SPLINESEGS
 70
     8
  9
$HANDSEED
  5
161
  9
$SURFTAB1
 70
     6
  9
$SURFTAB2
 70
     6
  9
$SURFTYPE
 70
     6
  9
$SURFU
 70
     6
  9
$SURFV
 70
     6
  9
$UCSBASE
  2

  9
$UCSNAME
  2

  9
$UCSORG
 10
0.0
 20
0.0
 30
0.0
  9
$UCSXDIR
 10
1.0
 20
0.0
 30
0.0
  9
$UCSYDIR
 10
0.0
 20
1.0
 30
0.0
  9
$UCSORTHOREF
  2

  9
$UCSORTHOVIEW
 70
     0
  9
$UCSORGTOP
 10
0.0
 20
0.0
 30
0.0
  9
$UCSORGBOTTOM
 10
0.0
 20
0.0
 30
0.0
  9
$UCSORGLEFT
 10
0.0
 20
0.0
 30
0.0
  9
$UCSORGRIGHT
 10
0.0
 20
0.0
 30
0.0
  9
$UCSORGFRONT
 10
0.0
 20
0.0
 30
0.0
  9
$UCSORGBACK
 10
0.0
 20
0.0
 30
0.0
  9
$PUCSBASE
  2

  9
$PUCSNAME
  2

  9
$PUCSORG
 10
0.0
 20
0.0
 30
0.0
  9
$PUCSXDIR
 10
1.0
 20
0.0
 30
0.0
  9
$PUCSYDIR
 10
0.0
 20
1.0
 30
0.0
  9
$PUCSORTHOREF
  2

  9
$PUCSORTHOVIEW
 70
     0
  9
$PUCSORGTOP
 10
0.0
 20
0.0
 30
0.0
  9
$PUCSORGBOTTOM
 10
0.0
 20
0.0
 30
0.0
  9
$PUCSORGLEFT
 10
0.0
 20
0.0
 30
0.0
  9
$PUCSORGRIGHT
 10
0.0
 20
0.0
 30
0.0
  9
$PUCSORGFRONT
 10
0.0
 20
0.0
 30
0.0
  9
$PUCSORGBACK
 10
0.0
 20
0.0
 30
0.0
  9
$USERI1
 70
     0
  9
$USERI2
 70
     0
  9
$USERI3
 70
     0
  9
$USERI4
 70
     0
  9
$USERI5
 70
     0
  9
$USERR1
 40
0.0
  9
$USERR2
 40
0.0
  9
$USERR3
 40
0.0
  9
$USERR4
 40
0.0
  9
$USERR5
 40
0.0
  9
$WORLDVIEW
 70
     1
  9
$SHADEDGE
 70
     3
  9
$SHADEDIF
 70
    70
  9
$TILEMODE
 70
     1
  9
$MAXACTVP
 70
    16
  9
$PINSBASE
 10
0.0
 20
0.0
 30
0.0
  9
$PLIMCHECK
 70
     0
  9
$PEXTMIN
 10
1.000000E+20
 20
1.000000E+20
 30
1.000000E+20
  9
$PEXTMAX
 10
-1.000000E+20
 20
-1.000000E+20
 30
-1.000000E+20
  9
$PLIMMIN
 10
0.0
 20
0.0
  9
$PLIMMAX
 10
12.0
 20
9.0
  9
$UNITMODE
 70
     0
  9
$VISRETAIN
 70
     0
  9
$PLINEGEN
 70
     1
  9
$PSLTSCALE
 70
     0
  9
$TREEDEPTH
 70
  3020
  9
$CMLSTYLE
  2
Standard
  9
$CMLJUST
 70
     0
  9
$CMLSCALE
 40
1.0
  9
$PROXYGRAPHICS
 70
     0
  9
$MEASUREMENT
 70
     0
  9
$CELWEIGHT
370
     0
  9
$ENDCAPS
280
     0
  9
$JOINSTYLE
280
     0
  9
$LWDISPLAY
290
     0
  9
$INSUNITS
 70
     1
  9
$HYPERLINKBASE
  1

  9
$STYLESHEET
  1

  9
$XEDIT
290
     1
  9
$CEPSNTYPE
380
     0
  9
$PSTYLEMODE
290
     1
  9
$FINGERPRINTGUID
  2

  9
$VERSIONGUID
  2

  9
$EXTNAMES
290
     1
  9
$PSVPSCALE
 40
0.0
  0
ENDSEC
  0
SECTION
  2
CLASSES
  0
CLASS
  1
LWPOLYLINE
  2
AcDbPolyline
  3
AutoCAD 2000
 90
        0
280
     0
281
     1
  0
CLASS
  1
IMAGE
  2
AcDbRasterImage
  3
ISM
 90
      127
280
     0
281
     1
  0
CLASS
  1
OLE2FRAME
  2
AcDbOle2Frame
  3
AutoCAD 2000
 90
        0
280
     0
281
     1
  0
CLASS
  1
HATCH
  2
AcDbHatch
  3
AutoCAD 2000
 90
        0
280
     0
281
     1
  0
CLASS
  1
DICTIONARYVAR
  2
AcDbDictionaryVar
  3
AutoCAD 2000
 90
        0
280
     0
281
     0
  0
CLASS
  1
RASTERVARIABLES
  2
AcDbRasterVariables
  3
ISM
 90
        0
280
     0
281
     0
  0
CLASS
  1
IMAGEDEF
  2
AcDbRasterImageDef
  3
ISM
 90
        0
280
     0
281
     0
  0
CLASS
  1
IMAGEDEF_REACTOR
  2
AcDbRasterImageDefReactor
  3
ISM
 90
        1
280
     0
281
     0
  0
CLASS
  1
IDBUFFER
  2
AcDbIdBuffer
  3
AutoCAD 2000
 90
        0
280
     0
281
     0
  0
CLASS
  1
SPATIAL_FILTER
  2
AcDbSpatialFilter
  3
AutoCAD 2000
 90
        0
280
     0
281
     0
  0
CLASS
  1
XRECORD
  2
AcDbXrecord
  3
AutoCAD 2000
 90
        0
280
     0
281
     0
  0
CLASS
  1
SORTENTSTABLE
  2
AcDbSortentsTable
  3
AutoCAD 2000
 90
        0
280
     0
281
     0
  0
CLASS
  1
LAYER_INDEX
  2
AcDbLayerIndex
  3
AutoCAD 2000
 90
        0
280
     0
281
     0
  0
CLASS
  1
SPATIAL_INDEX
  2
AcDbSpatialIndex
  3
AutoCAD 2000
 90
        0
280
     0
281
     0
  0
CLASS
  1
OBJECT_PTR
  2
CAseDLPNTableRecord
  3
"ASE-LPNTableRecord"
 90
        1
280
     0
281
     0
  0
CLASS
  1
LAYOUT
  2
AcDbLayout
  3
AutoCAD 2000
 90
        0
280
     0
281
     0
  0
CLASS
  1
PLOTSETTINGS
  2
AcDbPlotSettings
  3
AutoCAD 2000
 90
        0
280
     0
281
     0
  0
CLASS
  1
ACDBDICTIONARYWDFLT
  2
AcDbDictionaryWithDefault
  3
AutoCAD 2000
 90
        0
280
     0
281
     0
  0
CLASS
  1
ACDBPLACEHOLDER
  2
AcDbPlaceHolder
  3
AutoCAD 2000
 90
        0
280
     0
281
     0
  0
CLASS
  1
VBA_PROJECT
  2
AcDbVbaProject
  3
acadvba
 90
        0
280
     0
281
     0
  0
CLASS
  1
WIPEOUT
  2
AcDbWipeout
  3
WipeOut|AutoCAD Express Tool|expresstools@autodesk.com
 90
      127
280
     0
281
     1
  0
CLASS
  1
WIPEOUTVARIABLES
  2
AcDbWipeoutVariables
  3
WipeOut|AutoCAD Express Tool|expresstools@autodesk.com
 90
        0
280
     0
281
     0
  0
CLASS
  1
RTEXT
  2
RText
  3
RText|AutoCAD Express Tool|expresstools@autodesk.com
 90
        0
280
     0
281
     1
  0
CLASS
  1
ARCALIGNEDTEXT
  2
AcDbArcAlignedText
  3
ATEXT|AutoCAD Express Tool|expresstools@autodesk.com
 90
        0
280
     0
281
     1
  0
ENDSEC
  0
SECTION
  2
TABLES
  0
TABLE
  2
VPORT
  5
7
100
AcDbSymbolTable
 70
     1
  0
VPORT
  5
15
100
AcDbSymbolTableRecord
100
AcDbViewportTableRecord
  2
*ACTIVE
 70
     0
 10
0.0
 20
0.0
 11
1.0
 21
1.0
 12
6.591288
 22
4.579184
 13
0.0
 23
0.0
 14
1.0
 24
1.0
 15
0.0
 25
0.0
 16
0.0
 26
0.0
 36
1.0
 17
0.0
 27
0.0
 37
0.0
 40
9.158369
 41
0.688564
 42
50.0
 43
0.0
 44
0.0
 50
0.0
 51
0.0
 71
     0
 72
   100
 73
     1
 74
     1
 75
     0
 76
     0
 77
     0
 78
     0
281
     0
 65
     0
110
0.0
120
0.0
130
0.0
111
1.0
121
0.0
131
0.0
112
0.0
122
1.0
132
0.0
345
0
346
0
 79
     0
146
0.0
  0
ENDTAB
  0
TABLE
  2
LTYPE
  5
4
100
AcDbSymbolTable
 70
     7
  0
LTYPE
  5
11
100
AcDbSymbolTableRecord
100
AcDbLinetypeTableRecord
  2
ByBlock
 70
    64
  3

 72
    65
 73
     0
 40
0.0
  0
LTYPE
  5
12
100
AcDbSymbolTableRecord
100
AcDbLinetypeTableRecord
  2
ByLayer
 70
    64
  3

 72
    65
 73
     0
 40
0.0
  0
LTYPE
  5
13
100
AcDbSymbolTableRecord
100
AcDbLinetypeTableRecord
  2
Continuous
 70
    64
  3
Solid line
 72
    65
 73
     0
 40
0.0
  0
LTYPE
  5
24
100
AcDbSymbolTableRecord
100
AcDbLinetypeTableRecord
  2
CONTINUOUS2
 70
     0
  3
Solid line
 72
    65
 73
     0
 40
0.0
  0
LTYPE
  5
25
100
AcDbSymbolTableRecord
100
AcDbLinetypeTableRecord
  2
DASHED
 70
    64
  3
__ __ __ __ __ __ __ __ __ __ __ __ __ __ __ __
 72
    65
 73
     2
 40
0.5
 49
0.375
 74
     0
 49
-0.125
 74
     0
  0
LTYPE
  5
26
100
AcDbSymbolTableRecord
100
AcDbLinetypeTableRecord
  2
CENTER
 70
    64
  3
____ _ ____ _ ____ _ ____ _ ____ _ ____ _ ____ _
 72
    65
 73
     4
 40
1.0
 49
0.625
 74
     0
 49
-0.125
 74
     0
 49
0.125
 74
     0
 49
-0.125
 74
     0
  0
LTYPE
  5
27
100
AcDbSymbolTableRecord
100
AcDbLinetypeTableRecord
  2
PHANTOM
 70
    64
  3
___ _ _ ___ _ _ ___ _ _ ___ _ _ ___ _ _ ___ _ _ 
 72
    65
 73
     6
 40
1.0
 49
0.5
 74
     0
 49
-0.1
 74
     0
 49
0.1
 74
     0
 49
-0.1
 74
     0
 49
0.1
 74
     0
 49
-0.1
 74
     0
  0
ENDTAB
  0
TABLE
  2
LAYER
  5
2
100
AcDbSymbolTable
 70
     2
  0
LAYER
  5
14
100
AcDbSymbolTableRecord
100
AcDbLayerTableRecord
  2
0
 70
     0
 62
     7
  6
Continuous
290
     1
370
    -3
390
1D
  0
LAYER
  5
28
100
AcDbSymbolTableRecord
100
AcDbLayerTableRecord
  2
0
 70
     0
 62
     1
  6
Continuous
290
     1
370
    -3
390
1D
  0
ENDTAB
  0
TABLE
  2
STYLE
  5
3
100
AcDbSymbolTable
 70
     1
  0
STYLE
  5
17
100
AcDbSymbolTableRecord
100
AcDbTextStyleTableRecord
  2
Standard
 70
     0
 40
0.0
 41
1.0
 50
0.0
 71
     0
 42
0.0
  3
txt
  4

  0
ENDTAB
  0
TABLE
  2
VIEW
  5
5
100
AcDbSymbolTable
 70
     0
  0
ENDTAB
  0
TABLE
  2
UCS
  5
6
100
AcDbSymbolTable
 70
     0
  0
ENDTAB
  0
TABLE
  2
APPID
  5
8
100
AcDbSymbolTable
 70
     1
  0
APPID
  5
16
100
AcDbSymbolTableRecord
100
AcDbRegAppTableRecord
  2
ACAD
 70
     0
  0
ENDTAB
  0
TABLE
  2
DIMSTYLE
  5
9
100
AcDbSymbolTable
 70
     1
100
AcDbDimStyleTable
 71
     0
  0
DIMSTYLE
105
18
100
AcDbSymbolTableRecord
100
AcDbDimStyleTableRecord
  2
Standard
 70
     0
  3

  4

 40
1.0
 41
0.18
 42
0.0625
 43
0.38
 44
0.18
 45
0.0
 46
0.0
 47
0.0
 48
0.0
 71
     0
 72
     0
 73
     1
 74
     1
 75
     0
 76
     0
 77
     0
 78
     0
 79
     0
140
0.18
141
0.09
142
0.0
143
25.4
144
1.0
145
0.0
146
1.0
147
0.09
148
0.0
170
     0
171
     2
172
     0
173
     0
174
     0
175
     0
176
     0
177
     0
178
     0
179
     0
271
     4
272
     4
273
     2
274
     2
275
     0
276
     0
277
     2
278
    46
279
     0
280
     0
281
     0
282
     0
283
     1
284
     0
285
     0
286
     0
288
     0
289
     3
340
17
341
0
342
0
343
0
344
0
371
    -2
372
    -2
  0
ENDTAB
  0
TABLE
  2
BLOCK_RECORD
  5
1
100
AcDbSymbolTable
 70
     0
  0
BLOCK_RECORD
  5
A
100
AcDbSymbolTableRecord
100
AcDbBlockTableRecord
  2
*MODEL_SPACE
340
20
  0
BLOCK_RECORD
  5
B
100
AcDbSymbolTableRecord
100
AcDbBlockTableRecord
  2
*PAPER_SPACE
340
21
  0
ENDTAB
  0
ENDSEC
  0
SECTION
  2
BLOCKS
  0
BLOCK
  5
D
100
AcDbEntity
  8
0
390
0
100
AcDbBlockBegin
  2
*MODEL_SPACE
 70
     0
 10
0.0
 20
0.0
 30
0.0
  3
*MODEL_SPACE
  1

  0
ENDBLK
  5
E
100
AcDbEntity
  8
0
390
0
100
AcDbBlockEnd
  0
BLOCK
  5
F
100
AcDbEntity
 67
     1
  8
0
390
0
100
AcDbBlockBegin
  2
*PAPER_SPACE
 70
     0
 10
0.0
 20
0.0
 30
0.0
  3
*PAPER_SPACE
  1

  0
ENDBLK
  5
10
100
AcDbEntity
 67
     1
  8
0
390
0
100
AcDbBlockEnd
  0
ENDSEC
  0
SECTION
  2
ENTITIES
  0
LINE
  5
29
100
AcDbEntity
  8
0
390
0
  6
CONTINUOUS2
 62
     9
100
AcDbLine
 10
4.301829
 20
7.237506
 30
0.0
 11
4.779729
 21
6.759606
 31
0.0
  0
LINE
  5
2A
100
AcDbEntity
  8
0
390
0
  6
CONTINUOUS2
 62
     9
100
AcDbLine
 10
2.317329
 20
7.440006
 30
0.0
 11
2.317329
 21
5.859453
 31
0.0
  0
LINE
  5
2B
100
AcDbEntity
  8
0
390
0
  6
CONTINUOUS2
 62
     9
100
AcDbLine
 10
2.649429
 20
7.107906
 30
0.0
 11
2.649429
 21
5.859691
 31
0.0
  0
LINE
  5
2C
100
AcDbEntity
  8
0
390
0
  6
CONTINUOUS2
 62
     9
100
AcDbLine
 10
2.317329
 20
7.440006
 30
0.0
 11
3.812951
 21
7.440006
 31
0.0
  0
LINE
  5
2D
100
AcDbEntity
  8
0
390
0
  6
CONTINUOUS2
 62
     9
100
AcDbLine
 10
2.649429
 20
7.107906
 30
0.0
 11
3.812713
 21
7.107906
 31
0.0
  0
LINE
  5
2E
100
AcDbEntity
  8
0
390
0
  6
CONTINUOUS2
 62
     9
100
AcDbLine
 10
3.872529
 20
6.590558
 30
0.0
 11
3.872529
 21
6.435129
 31
0.0
  0
LINE
  5
2F
100
AcDbEntity
  8
0
390
0
  6
CONTINUOUS2
 62
     9
100
AcDbLine
 10
4.204629
 20
6.59032
 30
0.0
 11
4.204629
 21
6.435367
 31
0.0
  0
LINE
  5
30
100
AcDbEntity
  8
0
390
0
  6
CONTINUOUS2
 62
     9
100
AcDbLine
 10
4.733432
 20
7.440006
 30
0.0
 11
5.249529
 21
7.440006
 31
0.0
  0
LINE
  5
31
100
AcDbEntity
  8
0
390
0
  6
CONTINUOUS2
 62
     9
100
AcDbLine
 10
4.73367
 20
7.107906
 30
0.0
 11
4.917429
 21
7.107906
 31
0.0
  0
LINE
  5
32
100
AcDbEntity
  8
0
390
0
  6
CONTINUOUS2
 62
     9
100
AcDbLine
 10
4.917429
 20
7.107906
 30
0.0
 11
4.917429
 21
6.953767
 31
0.0
  0
LINE
  5
33
100
AcDbEntity
  8
0
390
0
  6
CONTINUOUS2
 62
     9
100
AcDbLine
 10
5.249529
 20
7.440006
 30
0.0
 11
5.249529
 21
6.953529
 31
0.0
  0
LINE
  5
34
100
AcDbEntity
  8
0
390
0
  6
CONTINUOUS2
 62
     9
100
AcDbLine
 10
3.235508
 20
5.884806
 30
0.0
 11
3.351827
 21
5.884806
 31
0.0
  0
LINE
  5
35
100
AcDbEntity
  8
0
390
0
  6
CONTINUOUS2
 62
     9
100
AcDbLine
 10
3.235746
 20
5.552706
 30
0.0
 11
3.351588
 21
5.552706
 31
0.0
  0
LINE
  5
36
100
AcDbEntity
  8
0
390
0
  6
CONTINUOUS2
 62
     9
100
AcDbLine
 10
5.427729
 20
7.440006
 30
0.0
 11
5.427729
 21
6.896253
 31
0.0
  0
LINE
  5
37
100
AcDbEntity
  8
0
390
0
  6
CONTINUOUS2
 62
     9
100
AcDbLine
 10
5.759829
 20
7.107906
 30
0.0
 11
5.759829
 21
6.896491
 31
0.0
  0
LINE
  5
38
100
AcDbEntity
  8
0
390
0
  6
CONTINUOUS2
 62
     9
100
AcDbLine
 10
5.427729
 20
7.440006
 30
0.0
 11
5.886551
 21
7.440006
 31
0.0
  0
LINE
  5
39
100
AcDbEntity
  8
0
390
0
  6
CONTINUOUS2
 62
     9
100
AcDbLine
 10
5.759829
 20
7.107906
 30
0.0
 11
5.886313
 21
7.107906
 31
0.0
  0
LINE
  5
3A
100
AcDbEntity
  8
0
390
0
  6
CONTINUOUS2
 62
     9
100
AcDbLine
 10
6.807032
 20
7.440006
 30
0.0
 11
8.359929
 21
7.440006
 31
0.0
  0
LINE
  5
3B
100
AcDbEntity
  8
0
390
0
  6
CONTINUOUS2
 62
     9
100
AcDbLine
 10
6.80727
 20
7.107906
 30
0.0
 11
8.027829
 21
7.107906
 31
0.0
  0
LINE
  5
3C
100
AcDbEntity
  8
0
390
0
  6
CONTINUOUS2
 62
     9
100
AcDbLine
 10
8.027829
 20
7.107906
 30
0.0
 11
8.027829
 21
5.916967
 31
0.0
  0
LINE
  5
3D
100
AcDbEntity
  8
0
390
0
  6
CONTINUOUS2
 62
     9
100
AcDbLine
 10
8.359929
 20
7.440006
 30
0.0
 11
8.359929
 21
5.916729
 31
0.0
  0
LINE
  5
3E
100
AcDbEntity
  8
0
390
0
  6
CONTINUOUS2
 62
     9
100
AcDbLine
 10
6.472629
 20
6.533044
 30
0.0
 11
6.472629
 21
6.378091
 31
0.0
  0
LINE
  5
3F
100
AcDbEntity
  8
0
390
0
  6
CONTINUOUS2
 62
     9
100
AcDbLine
 10
6.804729
 20
6.533282
 30
0.0
 11
6.804729
 21
6.377853
 31
0.0
  0
LINE
  5
40
100
AcDbEntity
  8
0
390
0
  6
CONTINUOUS2
 62
     9
100
AcDbLine
 10
7.382708
 20
5.884806
 30
0.0
 11
7.499027
 21
5.884806
 31
0.0
  0
LINE
  5
41
100
AcDbEntity
  8
0
390
0
  6
CONTINUOUS2
 62
     9
100
AcDbLine
 10
7.382946
 20
5.552706
 30
0.0
 11
7.498788
 21
5.552706
 31
0.0
  0
LINE
  5
42
100
AcDbEntity
  8
0
390
0
  6
CONTINUOUS2
 62
     9
100
AcDbLine
 10
7.862236
 20
4.839906
 30
0.0
 11
8.027829
 21
4.839906
 31
0.0
  0
LINE
  5
43
100
AcDbEntity
  8
0
390
0
  6
CONTINUOUS2
 62
     9
100
AcDbLine
 10
7.861997
 20
4.507806
 30
0.0
 11
8.359929
 21
4.507806
 31
0.0
  0
LINE
  5
44
100
AcDbEntity
  8
0
390
0
  6
CONTINUOUS2
 62
     9
100
AcDbLine
 10
8.027829
 20
5.03512
 30
0.0
 11
8.027829
 21
4.839906
 31
0.0
  0
LINE
  5
45
100
AcDbEntity
  8
0
390
0
  6
CONTINUOUS2
 62
     9
100
AcDbLine
 10
8.359929
 20
5.035358
 30
0.0
 11
8.359929
 21
4.507806
 31
0.0
  0
LINE
  5
46
100
AcDbEntity
  8
0
390
0
  6
CONTINUOUS2
 62
     9
100
AcDbLine
 10
7.843832
 20
4.329606
 30
0.0
 11
8.359929
 21
4.329606
 31
0.0
  0
LINE
  5
47
100
AcDbEntity
  8
0
390
0
  6
CONTINUOUS2
 62
     9
100
AcDbLine
 10
7.84407
 20
3.997506
 30
0.0
 11
8.027829
 21
3.997506
 31
0.0
  0
LINE
  5
48
100
AcDbEntity
  8
0
390
0
  6
CONTINUOUS2
 62
     9
100
AcDbLine
 10
8.027829
 20
3.997506
 30
0.0
 11
8.027829
 21
3.843367
 31
0.0
  0
LINE
  5
49
100
AcDbEntity
  8
0
390
0
  6
CONTINUOUS2
 62
     9
100
AcDbLine
 10
8.359929
 20
4.329606
 30
0.0
 11
8.359929
 21
3.843129
 31
0.0
  0
LINE
  5
4A
100
AcDbEntity
  8
0
390
0
  6
CONTINUOUS2
 62
     9
100
AcDbLine
 10
7.28656
 20
3.284706
 30
0.0
 11
7.480623
 21
3.284706
 31
0.0
  0
LINE
  5
4B
100
AcDbEntity
  8
0
390
0
  6
CONTINUOUS2
 62
     9
100
AcDbLine
 10
7.286322
 20
2.952606
 30
0.0
 11
7.480861
 21
2.952606
 31
0.0
  0
LINE
  5
4C
100
AcDbEntity
  8
0
390
0
  6
CONTINUOUS2
 62
     9
100
AcDbLine
 10
8.027829
 20
2.96152
 30
0.0
 11
8.027829
 21
1.729506
 31
0.0
  0
LINE
  5
4D
100
AcDbEntity
  8
0
390
0
  6
CONTINUOUS2
 62
     9
100
AcDbLine
 10
8.359929
 20
2.961758
 30
0.0
 11
8.359929
 21
1.397406
 31
0.0
  0
LINE
  5
4E
100
AcDbEntity
  8
0
390
0
  6
CONTINUOUS2
 62
     9
100
AcDbLine
 10
6.825436
 20
1.729506
 30
0.0
 11
8.027829
 21
1.729506
 31
0.0
  0
LINE
  5
4F
100
AcDbEntity
  8
0
390
0
  6
CONTINUOUS2
 62
     9
100
AcDbLine
 10
6.825197
 20
1.397406
 30
0.0
 11
8.359929
 21
1.397406
 31
0.0
  0
LINE
  5
50
100
AcDbEntity
  8
0
390
0
  6
CONTINUOUS2
 62
     9
100
AcDbLine
 10
5.759829
 20
1.729506
 30
0.0
 11
5.982699
 21
1.729506
 31
0.0
  0
LINE
  5
51
100
AcDbEntity
  8
0
390
0
  6
CONTINUOUS2
 62
     9
100
AcDbLine
 10
5.427729
 20
1.397406
 30
0.0
 11
5.982937
 21
1.397406
 31
0.0
  0
LINE
  5
52
100
AcDbEntity
  8
0
390
0
  6
CONTINUOUS2
 62
     9
100
AcDbLine
 10
5.427729
 20
1.867682
 30
0.0
 11
5.427729
 21
1.397406
 31
0.0
  0
LINE
  5
53
100
AcDbEntity
  8
0
390
0
  6
CONTINUOUS2
 62
     9
100
AcDbLine
 10
5.759829
 20
1.867444
 30
0.0
 11
5.759829
 21
1.729506
 31
0.0
  0
LINE
  5
54
100
AcDbEntity
  8
0
390
0
  6
CONTINUOUS2
 62
     9
100
AcDbLine
 10
4.917429
 20
1.92472
 30
0.0
 11
4.917429
 21
1.729506
 31
0.0
  0
LINE
  5
55
100
AcDbEntity
  8
0
390
0
  6
CONTINUOUS2
 62
     9
100
AcDbLine
 10
5.249529
 20
1.924958
 30
0.0
 11
5.249529
 21
1.397406
 31
0.0
  0
LINE
  5
56
100
AcDbEntity
  8
0
390
0
  6
CONTINUOUS2
 62
     9
100
AcDbLine
 10
4.751836
 20
1.729506
 30
0.0
 11
4.917429
 21
1.729506
 31
0.0
  0
LINE
  5
57
100
AcDbEntity
  8
0
390
0
  6
CONTINUOUS2
 62
     9
100
AcDbLine
 10
4.751597
 20
1.397406
 30
0.0
 11
5.249529
 21
1.397406
 31
0.0
  0
LINE
  5
58
100
AcDbEntity
  8
0
390
0
  6
CONTINUOUS2
 62
     9
100
AcDbLine
 10
6.472629
 20
2.385844
 30
0.0
 11
6.472629
 21
2.230891
 31
0.0
  0
LINE
  5
59
100
AcDbEntity
  8
0
390
0
  6
CONTINUOUS2
 62
     9
100
AcDbLine
 10
6.804729
 20
2.386082
 30
0.0
 11
6.804729
 21
2.230653
 31
0.0
  0
LINE
  5
5A
100
AcDbEntity
  8
0
390
0
  6
CONTINUOUS2
 62
     9
100
AcDbLine
 10
5.946129
 20
4.516958
 30
0.0
 11
5.946129
 21
4.361529
 31
0.0
  0
LINE
  5
5B
100
AcDbEntity
  8
0
390
0
  6
CONTINUOUS2
 62
     9
100
AcDbLine
 10
6.278229
 20
4.51672
 30
0.0
 11
6.278229
 21
4.361767
 31
0.0
  0
LINE
  5
5C
100
AcDbEntity
  8
0
390
0
  6
CONTINUOUS2
 62
     9
100
AcDbLine
 10
5.309108
 20
3.811206
 30
0.0
 11
5.425427
 21
3.811206
 31
0.0
  0
LINE
  5
5D
100
AcDbEntity
  8
0
390
0
  6
CONTINUOUS2
 62
     9
100
AcDbLine
 10
5.309346
 20
3.479106
 30
0.0
 11
5.425188
 21
3.479106
 31
0.0
  0
LINE
  5
5E
100
AcDbEntity
  8
0
390
0
  6
CONTINUOUS2
 62
     9
100
AcDbLine
 10
3.872529
 20
2.443358
 30
0.0
 11
3.872529
 21
2.287929
 31
0.0
  0
LINE
  5
5F
100
AcDbEntity
  8
0
390
0
  6
CONTINUOUS2
 62
     9
100
AcDbLine
 10
4.204629
 20
2.44312
 30
0.0
 11
4.204629
 21
2.288167
 31
0.0
  0
LINE
  5
60
100
AcDbEntity
  8
0
390
0
  6
CONTINUOUS2
 62
     9
100
AcDbLine
 10
2.649429
 20
1.729506
 30
0.0
 11
3.909099
 21
1.729506
 31
0.0
  0
LINE
  5
61
100
AcDbEntity
  8
0
390
0
  6
CONTINUOUS2
 62
     9
100
AcDbLine
 10
2.317329
 20
1.397406
 30
0.0
 11
3.909337
 21
1.397406
 31
0.0
  0
LINE
  5
62
100
AcDbEntity
  8
0
390
0
  6
CONTINUOUS2
 62
     9
100
AcDbLine
 10
2.317329
 20
2.904482
 30
0.0
 11
2.317329
 21
1.397406
 31
0.0
  0
LINE
  5
63
100
AcDbEntity
  8
0
390
0
  6
CONTINUOUS2
 62
     9
100
AcDbLine
 10
2.649429
 20
2.904244
 30
0.0
 11
2.649429
 21
1.729506
 31
0.0
  0
LINE
  5
64
100
AcDbEntity
  8
0
390
0
  6
CONTINUOUS2
 62
     9
100
AcDbLine
 10
3.13936
 20
3.284706
 30
0.0
 11
3.333423
 21
3.284706
 31
0.0
  0
LINE
  5
65
100
AcDbEntity
  8
0
390
0
  6
CONTINUOUS2
 62
     9
100
AcDbLine
 10
3.139122
 20
2.952606
 30
0.0
 11
3.333661
 21
2.952606
 31
0.0
  0
LINE
  5
66
100
AcDbEntity
  8
0
390
0
  6
CONTINUOUS2
 62
     9
100
AcDbLine
 10
2.317329
 20
4.329606
 30
0.0
 11
2.317329
 21
3.785853
 31
0.0
  0
LINE
  5
67
100
AcDbEntity
  8
0
390
0
  6
CONTINUOUS2
 62
     9
100
AcDbLine
 10
2.649429
 20
3.997506
 30
0.0
 11
2.649429
 21
3.786091
 31
0.0
  0
LINE
  5
68
100
AcDbEntity
  8
0
390
0
  6
CONTINUOUS2
 62
     9
100
AcDbLine
 10
2.317329
 20
4.329606
 30
0.0
 11
2.776151
 21
4.329606
 31
0.0
  0
LINE
  5
69
100
AcDbEntity
  8
0
390
0
  6
CONTINUOUS2
 62
     9
100
AcDbLine
 10
2.649429
 20
3.997506
 30
0.0
 11
2.775913
 21
3.997506
 31
0.0
  0
LINE
  5
6A
100
AcDbEntity
  8
0
390
0
  6
CONTINUOUS2
 62
     9
100
AcDbLine
 10
4.399029
 20
4.459444
 30
0.0
 11
4.399029
 21
4.304491
 31
0.0
  0
LINE
  5
6B
100
AcDbEntity
  8
0
390
0
  6
CONTINUOUS2
 62
     9
100
AcDbLine
 10
4.731129
 20
4.459682
 30
0.0
 11
4.731129
 21
4.304253
 31
0.0
  0
LINE
  5
6C
100
AcDbEntity
  8
0
390
0
  6
CONTINUOUS2
 62
     9
100
AcDbLine
 10
2.649429
 20
4.839906
 30
0.0
 11
2.872299
 21
4.839906
 31
0.0
  0
LINE
  5
6D
100
AcDbEntity
  8
0
390
0
  6
CONTINUOUS2
 62
     9
100
AcDbLine
 10
2.317329
 20
4.507806
 30
0.0
 11
2.872537
 21
4.507806
 31
0.0
  0
LINE
  5
6E
100
AcDbEntity
  8
0
390
0
  6
CONTINUOUS2
 62
     9
100
AcDbLine
 10
2.317329
 20
4.978082
 30
0.0
 11
2.317329
 21
4.507806
 31
0.0
  0
LINE
  5
6F
100
AcDbEntity
  8
0
390
0
  6
CONTINUOUS2
 62
     9
100
AcDbLine
 10
2.649429
 20
4.977844
 30
0.0
 11
2.649429
 21
4.839906
 31
0.0
  0
LINE
  5
70
100
AcDbEntity
  8
0
390
0
  6
CONTINUOUS2
 62
     9
100
AcDbLine
 10
5.21296
 20
5.358306
 30
0.0
 11
5.407023
 21
5.358306
 31
0.0
  0
LINE
  5
71
100
AcDbEntity
  8
0
390
0
  6
CONTINUOUS2
 62
     9
100
AcDbLine
 10
5.212722
 20
5.026206
 30
0.0
 11
5.407261
 21
5.026206
 31
0.0
  0
LINE
  5
72
100
AcDbEntity
  8
0
390
0
  6
CONTINUOUS2
 62
     9
100
AcDbLine
 10
4.779729
 20
6.759606
 30
0.0
 11
4.544829
 21
6.524706
 31
0.0
  0
LINE
  5
73
100
AcDbEntity
  8
0
390
0
  6
CONTINUOUS2
 62
     9
100
AcDbLine
 10
4.066929
 20
7.002606
 30
0.0
 11
4.544829
 21
6.524706
 31
0.0
  0
LINE
  5
74
100
AcDbEntity
  8
0
390
0
  6
CONTINUOUS2
 62
     9
100
AcDbLine
 10
4.026429
 20
6.962106
 30
0.0
 11
4.261329
 21
6.727206
 31
0.0
  0
LINE
  5
75
100
AcDbEntity
  8
0
390
0
  6
CONTINUOUS2
 62
     9
100
AcDbLine
 10
4.342329
 20
7.278006
 30
0.0
 11
4.577229
 21
7.043106
 31
0.0
  0
LINE
  5
76
100
AcDbEntity
  8
0
390
0
  6
CONTINUOUS2
 62
     9
100
AcDbLine
 10
5.055129
 20
6.484206
 30
0.0
 11
4.577229
 21
6.006306
 31
0.0
  0
LINE
  5
77
100
AcDbEntity
  8
0
390
0
  6
CONTINUOUS2
 62
     9
100
AcDbLine
 10
4.577229
 20
6.006306
 30
0.0
 11
4.342329
 21
6.241206
 31
0.0
  0
LINE
  5
78
100
AcDbEntity
  8
0
390
0
  6
CONTINUOUS2
 62
     9
100
AcDbLine
 10
4.820229
 20
6.719106
 30
0.0
 11
4.342329
 21
6.241206
 31
0.0
  0
LINE
  5
79
100
AcDbEntity
  8
0
390
0
  6
CONTINUOUS2
 62
     9
100
AcDbLine
 10
4.066929
 20
5.965806
 30
0.0
 11
4.544829
 21
5.487906
 31
0.0
  0
LINE
  5
7A
100
AcDbEntity
  8
0
390
0
  6
CONTINUOUS2
 62
     9
100
AcDbLine
 10
4.544829
 20
5.487906
 30
0.0
 11
4.779729
 21
5.722806
 31
0.0
  0
LINE
  5
7B
100
AcDbEntity
  8
0
390
0
  6
CONTINUOUS2
 62
     9
100
AcDbLine
 10
4.301829
 20
6.200706
 30
0.0
 11
4.779729
 21
5.722806
 31
0.0
  0
LINE
  5
7C
100
AcDbEntity
  8
0
390
0
  6
CONTINUOUS2
 62
     9
100
AcDbLine
 10
5.379129
 20
6.241206
 30
0.0
 11
6.100029
 21
6.962106
 31
0.0
  0
LINE
  5
7D
100
AcDbEntity
  8
0
390
0
  6
CONTINUOUS2
 62
     9
100
AcDbLine
 10
5.379129
 20
6.241206
 30
0.0
 11
5.614029
 21
6.006306
 31
0.0
  0
LINE
  5
7E
100
AcDbEntity
  8
0
390
0
  6
CONTINUOUS2
 62
     9
100
AcDbLine
 10
6.100029
 20
6.962106
 30
0.0
 11
6.334929
 21
6.727206
 31
0.0
  0
LINE
  5
7F
100
AcDbEntity
  8
0
390
0
  6
CONTINUOUS2
 62
     9
100
AcDbLine
 10
5.614029
 20
6.006306
 30
0.0
 11
6.334929
 21
6.727206
 31
0.0
  0
LINE
  5
80
100
AcDbEntity
  8
0
390
0
  6
CONTINUOUS2
 62
     9
100
AcDbLine
 10
5.816529
 20
6.759606
 30
0.0
 11
5.581629
 21
6.524706
 31
0.0
  0
LINE
  5
81
100
AcDbEntity
  8
0
390
0
  6
CONTINUOUS2
 62
     9
100
AcDbLine
 10
6.375429
 20
7.237506
 30
0.0
 11
6.610329
 21
7.002606
 31
0.0
  0
LINE
  5
82
100
AcDbEntity
  8
0
390
0
  6
CONTINUOUS2
 62
     9
100
AcDbLine
 10
6.140529
 20
7.002606
 30
0.0
 11
6.375429
 21
6.767706
 31
0.0
  0
LINE
  5
83
100
AcDbEntity
  8
0
390
0
  6
CONTINUOUS2
 62
     9
100
AcDbLine
 10
6.415929
 20
7.278006
 30
0.0
 11
6.650829
 21
7.043106
 31
0.0
  0
LINE
  5
84
100
AcDbEntity
  8
0
390
0
  6
CONTINUOUS2
 62
     9
100
AcDbLine
 10
6.132429
 20
6.443706
 30
0.0
 11
6.853329
 21
5.722806
 31
0.0
  0
LINE
  5
85
100
AcDbEntity
  8
0
390
0
  6
CONTINUOUS2
 62
     9
100
AcDbLine
 10
6.132429
 20
6.443706
 30
0.0
 11
5.897529
 21
6.208806
 31
0.0
  0
LINE
  5
86
100
AcDbEntity
  8
0
390
0
  6
CONTINUOUS2
 62
     9
100
AcDbLine
 10
6.853329
 20
5.722806
 30
0.0
 11
6.618429
 21
5.487906
 31
0.0
  0
LINE
  5
87
100
AcDbEntity
  8
0
390
0
  6
CONTINUOUS2
 62
     9
100
AcDbLine
 10
5.897529
 20
6.208806
 30
0.0
 11
6.618429
 21
5.487906
 31
0.0
  0
LINE
  5
88
100
AcDbEntity
  8
0
390
0
  6
CONTINUOUS2
 62
     9
100
AcDbLine
 10
6.415929
 20
6.241206
 30
0.0
 11
6.650829
 21
6.006306
 31
0.0
  0
LINE
  5
89
100
AcDbEntity
  8
0
390
0
  6
CONTINUOUS2
 62
     9
100
AcDbLine
 10
8.165529
 20
5.447406
 30
0.0
 11
7.687629
 21
4.969506
 31
0.0
  0
LINE
  5
8A
100
AcDbEntity
  8
0
390
0
  6
CONTINUOUS2
 62
     9
100
AcDbLine
 10
7.687629
 20
4.969506
 30
0.0
 11
7.452729
 21
5.204406
 31
0.0
  0
LINE
  5
8B
100
AcDbEntity
  8
0
390
0
  6
CONTINUOUS2
 62
     9
100
AcDbLine
 10
7.930629
 20
5.682306
 30
0.0
 11
7.452729
 21
5.204406
 31
0.0
  0
LINE
  5
8C
100
AcDbEntity
  8
0
390
0
  6
CONTINUOUS2
 62
     9
100
AcDbLine
 10
7.890129
 20
5.722806
 30
0.0
 11
7.655229
 21
5.487906
 31
0.0
  0
LINE
  5
8D
100
AcDbEntity
  8
0
390
0
  6
CONTINUOUS2
 62
     9
100
AcDbLine
 10
7.971129
 20
5.172006
 30
0.0
 11
8.206029
 21
5.406906
 31
0.0
  0
LINE
  5
8E
100
AcDbEntity
  8
0
390
0
  6
CONTINUOUS2
 62
     9
100
AcDbLine
 10
6.934329
 20
5.172006
 30
0.0
 11
7.412229
 21
4.694106
 31
0.0
  0
LINE
  5
8F
100
AcDbEntity
  8
0
390
0
  6
CONTINUOUS2
 62
     9
100
AcDbLine
 10
6.934329
 20
5.172006
 30
0.0
 11
7.169229
 21
5.406906
 31
0.0
  0
LINE
  5
90
100
AcDbEntity
  8
0
390
0
  6
CONTINUOUS2
 62
     9
100
AcDbLine
 10
7.169229
 20
5.406906
 30
0.0
 11
7.647129
 21
4.929006
 31
0.0
  0
LINE
  5
91
100
AcDbEntity
  8
0
390
0
  6
CONTINUOUS2
 62
     9
100
AcDbLine
 10
6.415929
 20
5.204406
 30
0.0
 11
6.893829
 21
5.682306
 31
0.0
  0
LINE
  5
92
100
AcDbEntity
  8
0
390
0
  6
CONTINUOUS2
 62
     9
100
AcDbLine
 10
6.415929
 20
5.204406
 30
0.0
 11
6.650829
 21
4.969506
 31
0.0
  0
LINE
  5
93
100
AcDbEntity
  8
0
390
0
  6
CONTINUOUS2
 62
     9
100
AcDbLine
 10
6.650829
 20
4.969506
 30
0.0
 11
7.128729
 21
5.447406
 31
0.0
  0
LINE
  5
94
100
AcDbEntity
  8
0
390
0
  6
CONTINUOUS2
 62
     9
100
AcDbLine
 10
6.415929
 20
4.167606
 30
0.0
 11
7.136829
 21
4.888506
 31
0.0
  0
LINE
  5
95
100
AcDbEntity
  8
0
390
0
  6
CONTINUOUS2
 62
     9
100
AcDbLine
 10
6.415929
 20
4.167606
 30
0.0
 11
6.650829
 21
3.932706
 31
0.0
  0
LINE
  5
96
100
AcDbEntity
  8
0
390
0
  6
CONTINUOUS2
 62
     9
100
AcDbLine
 10
7.136829
 20
4.888506
 30
0.0
 11
7.371729
 21
4.653606
 31
0.0
  0
LINE
  5
97
100
AcDbEntity
  8
0
390
0
  6
CONTINUOUS2
 62
     9
100
AcDbLine
 10
6.650829
 20
3.932706
 30
0.0
 11
7.371729
 21
4.653606
 31
0.0
  0
LINE
  5
98
100
AcDbEntity
  8
0
390
0
  6
CONTINUOUS2
 62
     9
100
AcDbLine
 10
7.169229
 20
4.370106
 30
0.0
 11
7.890129
 21
3.649206
 31
0.0
  0
LINE
  5
99
100
AcDbEntity
  8
0
390
0
  6
CONTINUOUS2
 62
     9
100
AcDbLine
 10
7.169229
 20
4.370106
 30
0.0
 11
6.934329
 21
4.135206
 31
0.0
  0
LINE
  5
9A
100
AcDbEntity
  8
0
390
0
  6
CONTINUOUS2
 62
     9
100
AcDbLine
 10
7.890129
 20
3.649206
 30
0.0
 11
7.655229
 21
3.414306
 31
0.0
  0
LINE
  5
9B
100
AcDbEntity
  8
0
390
0
  6
CONTINUOUS2
 62
     9
100
AcDbLine
 10
6.934329
 20
4.135206
 30
0.0
 11
7.655229
 21
3.414306
 31
0.0
  0
LINE
  5
9C
100
AcDbEntity
  8
0
390
0
  6
CONTINUOUS2
 62
     9
100
AcDbLine
 10
7.452729
 20
4.167606
 30
0.0
 11
7.687629
 21
3.932706
 31
0.0
  0
LINE
  5
9D
100
AcDbEntity
  8
0
390
0
  6
CONTINUOUS2
 62
     9
100
AcDbLine
 10
8.165529
 20
3.373806
 30
0.0
 11
7.930629
 21
3.138906
 31
0.0
  0
LINE
  5
9E
100
AcDbEntity
  8
0
390
0
  6
CONTINUOUS2
 62
     9
100
AcDbLine
 10
7.930629
 20
3.608706
 30
0.0
 11
7.695729
 21
3.373806
 31
0.0
  0
LINE
  5
9F
100
AcDbEntity
  8
0
390
0
  6
CONTINUOUS2
 62
     9
100
AcDbLine
 10
8.206029
 20
3.333306
 30
0.0
 11
7.971129
 21
3.098406
 31
0.0
  0
LINE
  5
A0
100
AcDbEntity
  8
0
390
0
  6
CONTINUOUS2
 62
     9
100
AcDbLine
 10
6.415929
 20
3.130806
 30
0.0
 11
7.136829
 21
3.851706
 31
0.0
  0
LINE
  5
A1
100
AcDbEntity
  8
0
390
0
  6
CONTINUOUS2
 62
     9
100
AcDbLine
 10
6.415929
 20
3.130806
 30
0.0
 11
6.650829
 21
2.895906
 31
0.0
  0
LINE
  5
A2
100
AcDbEntity
  8
0
390
0
  6
CONTINUOUS2
 62
     9
100
AcDbLine
 10
7.136829
 20
3.851706
 30
0.0
 11
7.371729
 21
3.616806
 31
0.0
  0
LINE
  5
A3
100
AcDbEntity
  8
0
390
0
  6
CONTINUOUS2
 62
     9
100
AcDbLine
 10
6.650829
 20
2.895906
 30
0.0
 11
7.371729
 21
3.616806
 31
0.0
  0
LINE
  5
A4
100
AcDbEntity
  8
0
390
0
  6
CONTINUOUS2
 62
     9
100
AcDbLine
 10
7.169229
 20
3.333306
 30
0.0
 11
6.934329
 21
3.098406
 31
0.0
  0
LINE
  5
A5
100
AcDbEntity
  8
0
390
0
  6
CONTINUOUS2
 62
     9
100
AcDbLine
 10
5.897529
 20
2.061606
 30
0.0
 11
6.375429
 21
1.583706
 31
0.0
  0
LINE
  5
A6
100
AcDbEntity
  8
0
390
0
  6
CONTINUOUS2
 62
     9
100
AcDbLine
 10
5.897529
 20
2.061606
 30
0.0
 11
6.132429
 21
2.296506
 31
0.0
  0
LINE
  5
A7
100
AcDbEntity
  8
0
390
0
  6
CONTINUOUS2
 62
     9
100
AcDbLine
 10
6.132429
 20
2.296506
 30
0.0
 11
6.610329
 21
1.818606
 31
0.0
  0
LINE
  5
A8
100
AcDbEntity
  8
0
390
0
  6
CONTINUOUS2
 62
     9
100
AcDbLine
 10
6.415929
 20
2.094006
 30
0.0
 11
6.650829
 21
1.859106
 31
0.0
  0
LINE
  5
A9
100
AcDbEntity
  8
0
390
0
  6
CONTINUOUS2
 62
     9
100
AcDbLine
 10
6.100029
 20
1.778106
 30
0.0
 11
6.334929
 21
1.543206
 31
0.0
  0
LINE
  5
AA
100
AcDbEntity
  8
0
390
0
  6
CONTINUOUS2
 62
     9
100
AcDbLine
 10
5.622129
 20
2.337006
 30
0.0
 11
6.100029
 21
2.814906
 31
0.0
  0
LINE
  5
AB
100
AcDbEntity
  8
0
390
0
  6
CONTINUOUS2
 62
     9
100
AcDbLine
 10
6.100029
 20
2.814906
 30
0.0
 11
6.334929
 21
2.580006
 31
0.0
  0
LINE
  5
AC
100
AcDbEntity
  8
0
390
0
  6
CONTINUOUS2
 62
     9
100
AcDbLine
 10
5.857029
 20
2.102106
 30
0.0
 11
6.334929
 21
2.580006
 31
0.0
  0
LINE
  5
AD
100
AcDbEntity
  8
0
390
0
  6
CONTINUOUS2
 62
     9
100
AcDbLine
 10
6.132429
 20
3.333306
 30
0.0
 11
6.610329
 21
2.855406
 31
0.0
  0
LINE
  5
AE
100
AcDbEntity
  8
0
390
0
  6
CONTINUOUS2
 62
     9
100
AcDbLine
 10
6.132429
 20
3.333306
 30
0.0
 11
5.897529
 21
3.098406
 31
0.0
  0
LINE
  5
AF
100
AcDbEntity
  8
0
390
0
  6
CONTINUOUS2
 62
     9
100
AcDbLine
 10
5.897529
 20
3.098406
 30
0.0
 11
6.375429
 21
2.620506
 31
0.0
  0
LINE
  5
B0
100
AcDbEntity
  8
0
390
0
  6
CONTINUOUS2
 62
     9
100
AcDbLine
 10
5.379129
 20
3.130806
 30
0.0
 11
6.100029
 21
3.851706
 31
0.0
  0
LINE
  5
B1
100
AcDbEntity
  8
0
390
0
  6
CONTINUOUS2
 62
     9
100
AcDbLine
 10
5.379129
 20
3.130806
 30
0.0
 11
5.614029
 21
2.895906
 31
0.0
  0
LINE
  5
B2
100
AcDbEntity
  8
0
390
0
  6
CONTINUOUS2
 62
     9
100
AcDbLine
 10
6.100029
 20
3.851706
 30
0.0
 11
6.334929
 21
3.616806
 31
0.0
  0
LINE
  5
B3
100
AcDbEntity
  8
0
390
0
  6
CONTINUOUS2
 62
     9
100
AcDbLine
 10
5.614029
 20
2.895906
 30
0.0
 11
6.334929
 21
3.616806
 31
0.0
  0
LINE
  5
B4
100
AcDbEntity
  8
0
390
0
  6
CONTINUOUS2
 62
     9
100
AcDbLine
 10
5.816529
 20
3.649206
 30
0.0
 11
5.581629
 21
3.414306
 31
0.0
  0
LINE
  5
B5
100
AcDbEntity
  8
0
390
0
  6
CONTINUOUS2
 62
     9
100
AcDbLine
 10
4.342329
 20
2.094006
 30
0.0
 11
5.063229
 21
2.814906
 31
0.0
  0
LINE
  5
B6
100
AcDbEntity
  8
0
390
0
  6
CONTINUOUS2
 62
     9
100
AcDbLine
 10
4.342329
 20
2.094006
 30
0.0
 11
4.577229
 21
1.859106
 31
0.0
  0
LINE
  5
B7
100
AcDbEntity
  8
0
390
0
  6
CONTINUOUS2
 62
     9
100
AcDbLine
 10
5.063229
 20
2.814906
 30
0.0
 11
5.298129
 21
2.580006
 31
0.0
  0
LINE
  5
B8
100
AcDbEntity
  8
0
390
0
  6
CONTINUOUS2
 62
     9
100
AcDbLine
 10
4.577229
 20
1.859106
 30
0.0
 11
5.298129
 21
2.580006
 31
0.0
  0
LINE
  5
B9
100
AcDbEntity
  8
0
390
0
  6
CONTINUOUS2
 62
     9
100
AcDbLine
 10
4.860729
 20
2.061606
 30
0.0
 11
5.095629
 21
2.296506
 31
0.0
  0
LINE
  5
BA
100
AcDbEntity
  8
0
390
0
  6
CONTINUOUS2
 62
     9
100
AcDbLine
 10
4.066929
 20
1.818606
 30
0.0
 11
4.301829
 21
1.583706
 31
0.0
  0
LINE
  5
BB
100
AcDbEntity
  8
0
390
0
  6
CONTINUOUS2
 62
     9
100
AcDbLine
 10
4.301829
 20
2.053506
 30
0.0
 11
4.536729
 21
1.818606
 31
0.0
  0
LINE
  5
BC
100
AcDbEntity
  8
0
390
0
  6
CONTINUOUS2
 62
     9
100
AcDbLine
 10
4.026429
 20
1.778106
 30
0.0
 11
4.261329
 21
1.543206
 31
0.0
  0
LINE
  5
BD
100
AcDbEntity
  8
0
390
0
  6
CONTINUOUS2
 62
     9
100
AcDbLine
 10
4.058829
 20
3.333306
 30
0.0
 11
4.779729
 21
2.612406
 31
0.0
  0
LINE
  5
BE
100
AcDbEntity
  8
0
390
0
  6
CONTINUOUS2
 62
     9
100
AcDbLine
 10
4.058829
 20
3.333306
 30
0.0
 11
3.823929
 21
3.098406
 31
0.0
  0
LINE
  5
BF
100
AcDbEntity
  8
0
390
0
  6
CONTINUOUS2
 62
     9
100
AcDbLine
 10
4.779729
 20
2.612406
 30
0.0
 11
4.544829
 21
2.377506
 31
0.0
  0
LINE
  5
C0
100
AcDbEntity
  8
0
390
0
  6
CONTINUOUS2
 62
     9
100
AcDbLine
 10
3.823929
 20
3.098406
 30
0.0
 11
4.544829
 21
2.377506
 31
0.0
  0
LINE
  5
C1
100
AcDbEntity
  8
0
390
0
  6
CONTINUOUS2
 62
     9
100
AcDbLine
 10
4.026429
 20
2.814906
 30
0.0
 11
4.261329
 21
2.580006
 31
0.0
  0
LINE
  5
C2
100
AcDbEntity
  8
0
390
0
  6
CONTINUOUS2
 62
     9
100
AcDbLine
 10
2.511729
 20
3.373806
 30
0.0
 11
2.989629
 21
3.851706
 31
0.0
  0
LINE
  5
C3
100
AcDbEntity
  8
0
390
0
  6
CONTINUOUS2
 62
     9
100
AcDbLine
 10
2.989629
 20
3.851706
 30
0.0
 11
3.224529
 21
3.616806
 31
0.0
  0
LINE
  5
C4
100
AcDbEntity
  8
0
390
0
  6
CONTINUOUS2
 62
     9
100
AcDbLine
 10
2.746629
 20
3.138906
 30
0.0
 11
3.224529
 21
3.616806
 31
0.0
  0
LINE
  5
C5
100
AcDbEntity
  8
0
390
0
  6
CONTINUOUS2
 62
     9
100
AcDbLine
 10
2.787129
 20
3.098406
 30
0.0
 11
3.022029
 21
3.333306
 31
0.0
  0
LINE
  5
C6
100
AcDbEntity
  8
0
390
0
  6
CONTINUOUS2
 62
     9
100
AcDbLine
 10
2.706129
 20
3.649206
 30
0.0
 11
2.471229
 21
3.414306
 31
0.0
  0
LINE
  5
C7
100
AcDbEntity
  8
0
390
0
  6
CONTINUOUS2
 62
     9
100
AcDbLine
 10
3.265029
 20
4.127106
 30
0.0
 11
3.742929
 21
3.649206
 31
0.0
  0
LINE
  5
C8
100
AcDbEntity
  8
0
390
0
  6
CONTINUOUS2
 62
     9
100
AcDbLine
 10
3.742929
 20
3.649206
 30
0.0
 11
3.508029
 21
3.414306
 31
0.0
  0
LINE
  5
C9
100
AcDbEntity
  8
0
390
0
  6
CONTINUOUS2
 62
     9
100
AcDbLine
 10
3.030129
 20
3.892206
 30
0.0
 11
3.508029
 21
3.414306
 31
0.0
  0
LINE
  5
CA
100
AcDbEntity
  8
0
390
0
  6
CONTINUOUS2
 62
     9
100
AcDbLine
 10
4.026429
 20
3.851706
 30
0.0
 11
3.548529
 21
3.373806
 31
0.0
  0
LINE
  5
CB
100
AcDbEntity
  8
0
390
0
  6
CONTINUOUS2
 62
     9
100
AcDbLine
 10
4.026429
 20
3.851706
 30
0.0
 11
4.261329
 21
3.616806
 31
0.0
  0
LINE
  5
CC
100
AcDbEntity
  8
0
390
0
  6
CONTINUOUS2
 62
     9
100
AcDbLine
 10
4.261329
 20
3.616806
 30
0.0
 11
3.783429
 21
3.138906
 31
0.0
  0
LINE
  5
CD
100
AcDbEntity
  8
0
390
0
  6
CONTINUOUS2
 62
     9
100
AcDbLine
 10
3.022029
 20
5.406906
 30
0.0
 11
3.742929
 21
4.686006
 31
0.0
  0
LINE
  5
CE
100
AcDbEntity
  8
0
390
0
  6
CONTINUOUS2
 62
     9
100
AcDbLine
 10
3.022029
 20
5.406906
 30
0.0
 11
2.787129
 21
5.172006
 31
0.0
  0
LINE
  5
CF
100
AcDbEntity
  8
0
390
0
  6
CONTINUOUS2
 62
     9
100
AcDbLine
 10
3.742929
 20
4.686006
 30
0.0
 11
3.508029
 21
4.451106
 31
0.0
  0
LINE
  5
D0
100
AcDbEntity
  8
0
390
0
  6
CONTINUOUS2
 62
     9
100
AcDbLine
 10
2.787129
 20
5.172006
 30
0.0
 11
3.508029
 21
4.451106
 31
0.0
  0
LINE
  5
D1
100
AcDbEntity
  8
0
390
0
  6
CONTINUOUS2
 62
     9
100
AcDbLine
 10
2.989629
 20
4.888506
 30
0.0
 11
3.224529
 21
4.653606
 31
0.0
  0
LINE
  5
D2
100
AcDbEntity
  8
0
390
0
  6
CONTINUOUS2
 62
     9
100
AcDbLine
 10
2.511729
 20
5.447406
 30
0.0
 11
2.746629
 21
5.682306
 31
0.0
  0
LINE
  5
D3
100
AcDbEntity
  8
0
390
0
  6
CONTINUOUS2
 62
     9
100
AcDbLine
 10
2.746629
 20
5.212506
 30
0.0
 11
2.981529
 21
5.447406
 31
0.0
  0
LINE
  5
D4
100
AcDbEntity
  8
0
390
0
  6
CONTINUOUS2
 62
     9
100
AcDbLine
 10
2.706129
 20
5.722806
 30
0.0
 11
2.471229
 21
5.487906
 31
0.0
  0
LINE
  5
D5
100
AcDbEntity
  8
0
390
0
  6
CONTINUOUS2
 62
     9
100
AcDbLine
 10
3.305529
 20
5.204406
 30
0.0
 11
4.026429
 21
5.925306
 31
0.0
  0
LINE
  5
D6
100
AcDbEntity
  8
0
390
0
  6
CONTINUOUS2
 62
     9
100
AcDbLine
 10
3.305529
 20
5.204406
 30
0.0
 11
3.540429
 21
4.969506
 31
0.0
  0
LINE
  5
D7
100
AcDbEntity
  8
0
390
0
  6
CONTINUOUS2
 62
     9
100
AcDbLine
 10
4.026429
 20
5.925306
 30
0.0
 11
4.261329
 21
5.690406
 31
0.0
  0
LINE
  5
D8
100
AcDbEntity
  8
0
390
0
  6
CONTINUOUS2
 62
     9
100
AcDbLine
 10
3.540429
 20
4.969506
 30
0.0
 11
4.261329
 21
5.690406
 31
0.0
  0
LINE
  5
D9
100
AcDbEntity
  8
0
390
0
  6
CONTINUOUS2
 62
     9
100
AcDbLine
 10
3.742929
 20
5.722806
 30
0.0
 11
3.508029
 21
5.487906
 31
0.0
  0
LINE
  5
DA
100
AcDbEntity
  8
0
390
0
  6
CONTINUOUS2
 62
     9
100
AcDbLine
 10
5.095629
 20
6.443706
 30
0.0
 11
5.816529
 21
5.722806
 31
0.0
  0
LINE
  5
DB
100
AcDbEntity
  8
0
390
0
  6
CONTINUOUS2
 62
     9
100
AcDbLine
 10
5.095629
 20
6.443706
 30
0.0
 11
4.860729
 21
6.208806
 31
0.0
  0
LINE
  5
DC
100
AcDbEntity
  8
0
390
0
  6
CONTINUOUS2
 62
     9
100
AcDbLine
 10
5.816529
 20
5.722806
 30
0.0
 11
5.581629
 21
5.487906
 31
0.0
  0
LINE
  5
DD
100
AcDbEntity
  8
0
390
0
  6
CONTINUOUS2
 62
     9
100
AcDbLine
 10
4.860729
 20
6.208806
 30
0.0
 11
5.581629
 21
5.487906
 31
0.0
  0
LINE
  5
DE
100
AcDbEntity
  8
0
390
0
  6
CONTINUOUS2
 62
     9
100
AcDbLine
 10
4.342329
 20
5.204406
 30
0.0
 11
5.063229
 21
5.925306
 31
0.0
  0
LINE
  5
DF
100
AcDbEntity
  8
0
390
0
  6
CONTINUOUS2
 62
     9
100
AcDbLine
 10
4.342329
 20
5.204406
 30
0.0
 11
4.577229
 21
4.969506
 31
0.0
  0
LINE
  5
E0
100
AcDbEntity
  8
0
390
0
  6
CONTINUOUS2
 62
     9
100
AcDbLine
 10
5.063229
 20
5.925306
 30
0.0
 11
5.298129
 21
5.690406
 31
0.0
  0
LINE
  5
E1
100
AcDbEntity
  8
0
390
0
  6
CONTINUOUS2
 62
     9
100
AcDbLine
 10
4.577229
 20
4.969506
 30
0.0
 11
5.298129
 21
5.690406
 31
0.0
  0
LINE
  5
E2
100
AcDbEntity
  8
0
390
0
  6
CONTINUOUS2
 62
     9
100
AcDbLine
 10
4.860729
 20
5.172006
 30
0.0
 11
5.095629
 21
5.406906
 31
0.0
  0
LINE
  5
E3
100
AcDbEntity
  8
0
390
0
  6
CONTINUOUS2
 62
     9
100
AcDbLine
 10
6.334929
 20
5.690406
 30
0.0
 11
5.857029
 21
5.212506
 31
0.0
  0
LINE
  5
E4
100
AcDbEntity
  8
0
390
0
  6
CONTINUOUS2
 62
     9
100
AcDbLine
 10
6.334929
 20
5.690406
 30
0.0
 11
6.100029
 21
5.925306
 31
0.0
  0
LINE
  5
E5
100
AcDbEntity
  8
0
390
0
  6
CONTINUOUS2
 62
     9
100
AcDbLine
 10
6.100029
 20
5.925306
 30
0.0
 11
5.622129
 21
5.447406
 31
0.0
  0
LINE
  5
E6
100
AcDbEntity
  8
0
390
0
  6
CONTINUOUS2
 62
     9
100
AcDbLine
 10
6.132429
 20
5.406906
 30
0.0
 11
6.853329
 21
4.686006
 31
0.0
  0
LINE
  5
E7
100
AcDbEntity
  8
0
390
0
  6
CONTINUOUS2
 62
     9
100
AcDbLine
 10
6.132429
 20
5.406906
 30
0.0
 11
5.897529
 21
5.172006
 31
0.0
  0
LINE
  5
E8
100
AcDbEntity
  8
0
390
0
  6
CONTINUOUS2
 62
     9
100
AcDbLine
 10
6.853329
 20
4.686006
 30
0.0
 11
6.618429
 21
4.451106
 31
0.0
  0
LINE
  5
E9
100
AcDbEntity
  8
0
390
0
  6
CONTINUOUS2
 62
     9
100
AcDbLine
 10
5.897529
 20
5.172006
 30
0.0
 11
6.618429
 21
4.451106
 31
0.0
  0
LINE
  5
EA
100
AcDbEntity
  8
0
390
0
  6
CONTINUOUS2
 62
     9
100
AcDbLine
 10
6.100029
 20
4.888506
 30
0.0
 11
6.334929
 21
4.653606
 31
0.0
  0
LINE
  5
EB
100
AcDbEntity
  8
0
390
0
  6
CONTINUOUS2
 62
     9
100
AcDbLine
 10
6.140529
 20
3.892206
 30
0.0
 11
6.618429
 21
3.414306
 31
0.0
  0
LINE
  5
EC
100
AcDbEntity
  8
0
390
0
  6
CONTINUOUS2
 62
     9
100
AcDbLine
 10
6.618429
 20
3.414306
 30
0.0
 11
6.853329
 21
3.649206
 31
0.0
  0
LINE
  5
ED
100
AcDbEntity
  8
0
390
0
  6
CONTINUOUS2
 62
     9
100
AcDbLine
 10
6.375429
 20
4.127106
 30
0.0
 11
6.853329
 21
3.649206
 31
0.0
  0
LINE
  5
EE
100
AcDbEntity
  8
0
390
0
  6
CONTINUOUS2
 62
     9
100
AcDbLine
 10
4.860729
 20
3.098406
 30
0.0
 11
5.581629
 21
2.377506
 31
0.0
  0
LINE
  5
EF
100
AcDbEntity
  8
0
390
0
  6
CONTINUOUS2
 62
     9
100
AcDbLine
 10
4.860729
 20
3.098406
 30
0.0
 11
5.095629
 21
3.333306
 31
0.0
  0
LINE
  5
F0
100
AcDbEntity
  8
0
390
0
  6
CONTINUOUS2
 62
     9
100
AcDbLine
 10
5.581629
 20
2.377506
 30
0.0
 11
5.816529
 21
2.612406
 31
0.0
  0
LINE
  5
F1
100
AcDbEntity
  8
0
390
0
  6
CONTINUOUS2
 62
     9
100
AcDbLine
 10
5.095629
 20
3.333306
 30
0.0
 11
5.816529
 21
2.612406
 31
0.0
  0
LINE
  5
F2
100
AcDbEntity
  8
0
390
0
  6
CONTINUOUS2
 62
     9
100
AcDbLine
 10
5.055129
 20
3.373806
 30
0.0
 11
4.577229
 21
2.895906
 31
0.0
  0
LINE
  5
F3
100
AcDbEntity
  8
0
390
0
  6
CONTINUOUS2
 62
     9
100
AcDbLine
 10
4.577229
 20
2.895906
 30
0.0
 11
4.342329
 21
3.130806
 31
0.0
  0
LINE
  5
F4
100
AcDbEntity
  8
0
390
0
  6
CONTINUOUS2
 62
     9
100
AcDbLine
 10
4.820229
 20
3.608706
 30
0.0
 11
4.342329
 21
3.130806
 31
0.0
  0
LINE
  5
F5
100
AcDbEntity
  8
0
390
0
  6
CONTINUOUS2
 62
     9
100
AcDbLine
 10
3.823929
 20
4.135206
 30
0.0
 11
4.544829
 21
3.414306
 31
0.0
  0
LINE
  5
F6
100
AcDbEntity
  8
0
390
0
  6
CONTINUOUS2
 62
     9
100
AcDbLine
 10
3.823929
 20
4.135206
 30
0.0
 11
4.058829
 21
4.370106
 31
0.0
  0
LINE
  5
F7
100
AcDbEntity
  8
0
390
0
  6
CONTINUOUS2
 62
     9
100
AcDbLine
 10
4.544829
 20
3.414306
 30
0.0
 11
4.779729
 21
3.649206
 31
0.0
  0
LINE
  5
F8
100
AcDbEntity
  8
0
390
0
  6
CONTINUOUS2
 62
     9
100
AcDbLine
 10
4.058829
 20
4.370106
 30
0.0
 11
4.779729
 21
3.649206
 31
0.0
  0
LINE
  5
F9
100
AcDbEntity
  8
0
390
0
  6
CONTINUOUS2
 62
     9
100
AcDbLine
 10
3.305529
 20
4.167606
 30
0.0
 11
4.026429
 21
4.888506
 31
0.0
  0
LINE
  5
FA
100
AcDbEntity
  8
0
390
0
  6
CONTINUOUS2
 62
     9
100
AcDbLine
 10
3.305529
 20
4.167606
 30
0.0
 11
3.540429
 21
3.932706
 31
0.0
  0
LINE
  5
FB
100
AcDbEntity
  8
0
390
0
  6
CONTINUOUS2
 62
     9
100
AcDbLine
 10
4.026429
 20
4.888506
 30
0.0
 11
4.261329
 21
4.653606
 31
0.0
  0
LINE
  5
FC
100
AcDbEntity
  8
0
390
0
  6
CONTINUOUS2
 62
     9
100
AcDbLine
 10
3.540429
 20
3.932706
 30
0.0
 11
4.261329
 21
4.653606
 31
0.0
  0
LINE
  5
FD
100
AcDbEntity
  8
0
390
0
  6
CONTINUOUS2
 62
     9
100
AcDbLine
 10
4.342329
 20
4.167606
 30
0.0
 11
4.577229
 21
3.932706
 31
0.0
  0
LINE
  5
FE
100
AcDbEntity
  8
0
390
0
  6
CONTINUOUS2
 62
     9
100
AcDbLine
 10
3.823929
 20
5.172006
 30
0.0
 11
4.301829
 21
4.694106
 31
0.0
  0
LINE
  5
FF
100
AcDbEntity
  8
0
390
0
  6
CONTINUOUS2
 62
     9
100
AcDbLine
 10
3.823929
 20
5.172006
 30
0.0
 11
4.058829
 21
5.406906
 31
0.0
  0
LINE
  5
100
100
AcDbEntity
  8
0
390
0
  6
CONTINUOUS2
 62
     9
100
AcDbLine
 10
4.058829
 20
5.406906
 30
0.0
 11
4.536729
 21
4.929006
 31
0.0
  0
ARC
  5
101
100
AcDbEntity
  8
0
390
0
  6
CONTINUOUS2
 62
     9
100
AcDbCircle
 10
2.842777
 20
5.859453
 30
0.0
 40
0.525447
210
0.0
220
0.0
230
1.0
100
AcDbArc
 50
180.0
 51
225.0
  0
ARC
  5
102
100
AcDbEntity
  8
0
390
0
  6
CONTINUOUS2
 62
     9
100
AcDbCircle
 10
2.843015
 20
5.859691
 30
0.0
 40
0.193586
210
0.0
220
0.0
230
1.0
100
AcDbArc
 50
180.0
 51
225.0
  0
ARC
  5
103
100
AcDbEntity
  8
0
390
0
  6
CONTINUOUS2
 62
     9
100
AcDbCircle
 10
2.981053
 20
4.978082
 30
0.0
 40
0.663723
210
0.0
220
0.0
230
1.0
100
AcDbArc
 50
135.0
 51
180.0
  0
ARC
  5
104
100
AcDbEntity
  8
0
390
0
  6
CONTINUOUS2
 62
     9
100
AcDbCircle
 10
2.981291
 20
4.977844
 30
0.0
 40
0.331862
210
0.0
220
0.0
230
1.0
100
AcDbArc
 50
135.0
 51
180.0
  0
ARC
  5
105
100
AcDbEntity
  8
0
390
0
  6
CONTINUOUS2
 62
     9
100
AcDbCircle
 10
3.235508
 20
5.193427
 30
0.0
 40
0.691378
210
0.0
220
0.0
230
1.0
100
AcDbArc
 50
90.0
 51
135.0
  0
ARC
  5
106
100
AcDbEntity
  8
0
390
0
  6
CONTINUOUS2
 62
     9
100
AcDbCircle
 10
3.235746
 20
5.193189
 30
0.0
 40
0.359517
210
0.0
220
0.0
230
1.0
100
AcDbArc
 50
90.0
 51
135.0
  0
ARC
  5
107
100
AcDbEntity
  8
0
390
0
  6
CONTINUOUS2
 62
     9
100
AcDbCircle
 10
3.351588
 20
5.331465
 30
0.0
 40
0.221241
210
0.0
220
0.0
230
1.0
100
AcDbArc
 50
45.0
 51
90.0
  0
ARC
  5
108
100
AcDbEntity
  8
0
390
0
  6
CONTINUOUS2
 62
     9
100
AcDbCircle
 10
3.351827
 20
5.331703
 30
0.0
 40
0.553103
210
0.0
220
0.0
230
1.0
100
AcDbArc
 50
45.0
 51
90.0
  0
ARC
  5
109
100
AcDbEntity
  8
0
390
0
  6
CONTINUOUS2
 62
     9
100
AcDbCircle
 10
4.536253
 20
6.435129
 30
0.0
 40
0.663723
210
0.0
220
0.0
230
1.0
100
AcDbArc
 50
180.0
 51
225.0
  0
ARC
  5
10A
100
AcDbEntity
  8
0
390
0
  6
CONTINUOUS2
 62
     9
100
AcDbCircle
 10
4.536491
 20
6.435367
 30
0.0
 40
0.331862
210
0.0
220
0.0
230
1.0
100
AcDbArc
 50
180.0
 51
225.0
  0
ARC
  5
10B
100
AcDbEntity
  8
0
390
0
  6
CONTINUOUS2
 62
     9
100
AcDbCircle
 10
4.397977
 20
6.590558
 30
0.0
 40
0.525447
210
0.0
220
0.0
230
1.0
100
AcDbArc
 50
135.0
 51
180.0
  0
ARC
  5
10C
100
AcDbEntity
  8
0
390
0
  6
CONTINUOUS2
 62
     9
100
AcDbCircle
 10
4.398215
 20
6.59032
 30
0.0
 40
0.193586
210
0.0
220
0.0
230
1.0
100
AcDbArc
 50
135.0
 51
180.0
  0
ARC
  5
10D
100
AcDbEntity
  8
0
390
0
  6
CONTINUOUS2
 62
     9
100
AcDbCircle
 10
3.812713
 20
6.748389
 30
0.0
 40
0.359517
210
0.0
220
0.0
230
1.0
100
AcDbArc
 50
45.0
 51
90.0
  0
ARC
  5
10E
100
AcDbEntity
  8
0
390
0
  6
CONTINUOUS2
 62
     9
100
AcDbCircle
 10
3.812951
 20
6.748627
 30
0.0
 40
0.691378
210
0.0
220
0.0
230
1.0
100
AcDbArc
 50
45.0
 51
90.0
  0
ARC
  5
10F
100
AcDbEntity
  8
0
390
0
  6
CONTINUOUS2
 62
     9
100
AcDbCircle
 10
4.733432
 20
6.886903
 30
0.0
 40
0.553103
210
0.0
220
0.0
230
1.0
100
AcDbArc
 50
90.0
 51
135.0
  0
ARC
  5
110
100
AcDbEntity
  8
0
390
0
  6
CONTINUOUS2
 62
     9
100
AcDbCircle
 10
4.73367
 20
6.886665
 30
0.0
 40
0.221241
210
0.0
220
0.0
230
1.0
100
AcDbArc
 50
90.0
 51
135.0
  0
ARC
  5
111
100
AcDbEntity
  8
0
390
0
  6
CONTINUOUS2
 62
     9
100
AcDbCircle
 10
4.585568
 20
6.953767
 30
0.0
 40
0.331862
210
0.0
220
0.0
230
1.0
100
AcDbArc
 50
315.0
 51
360.0
  0
ARC
  5
112
100
AcDbEntity
  8
0
390
0
  6
CONTINUOUS2
 62
     9
100
AcDbCircle
 10
4.585806
 20
6.953529
 30
0.0
 40
0.663723
210
0.0
220
0.0
230
1.0
100
AcDbArc
 50
315.0
 51
360.0
  0
ARC
  5
113
100
AcDbEntity
  8
0
390
0
  6
CONTINUOUS2
 62
     9
100
AcDbCircle
 10
5.953177
 20
6.896253
 30
0.0
 40
0.525447
210
0.0
220
0.0
230
1.0
100
AcDbArc
 50
180.0
 51
225.0
  0
ARC
  5
114
100
AcDbEntity
  8
0
390
0
  6
CONTINUOUS2
 62
     9
100
AcDbCircle
 10
5.953415
 20
6.896491
 30
0.0
 40
0.193586
210
0.0
220
0.0
230
1.0
100
AcDbArc
 50
180.0
 51
225.0
  0
ARC
  5
115
100
AcDbEntity
  8
0
390
0
  6
CONTINUOUS2
 62
     9
100
AcDbCircle
 10
5.886313
 20
6.748389
 30
0.0
 40
0.359517
210
0.0
220
0.0
230
1.0
100
AcDbArc
 50
45.0
 51
90.0
  0
ARC
  5
116
100
AcDbEntity
  8
0
390
0
  6
CONTINUOUS2
 62
     9
100
AcDbCircle
 10
5.886551
 20
6.748627
 30
0.0
 40
0.691378
210
0.0
220
0.0
230
1.0
100
AcDbArc
 50
45.0
 51
90.0
  0
ARC
  5
117
100
AcDbEntity
  8
0
390
0
  6
CONTINUOUS2
 62
     9
100
AcDbCircle
 10
6.807032
 20
6.886903
 30
0.0
 40
0.553103
210
0.0
220
0.0
230
1.0
100
AcDbArc
 50
90.0
 51
135.0
  0
ARC
  5
118
100
AcDbEntity
  8
0
390
0
  6
CONTINUOUS2
 62
     9
100
AcDbCircle
 10
6.80727
 20
6.886665
 30
0.0
 40
0.221241
210
0.0
220
0.0
230
1.0
100
AcDbArc
 50
90.0
 51
135.0
  0
ARC
  5
119
100
AcDbEntity
  8
0
390
0
  6
CONTINUOUS2
 62
     9
100
AcDbCircle
 10
6.140768
 20
6.533044
 30
0.0
 40
0.331862
210
0.0
220
0.0
230
1.0
100
AcDbArc
 50
0.0
 51
45.0
  0
ARC
  5
11A
100
AcDbEntity
  8
0
390
0
  6
CONTINUOUS2
 62
     9
100
AcDbCircle
 10
6.141006
 20
6.533282
 30
0.0
 40
0.663723
210
0.0
220
0.0
230
1.0
100
AcDbArc
 50
0.0
 51
45.0
  0
ARC
  5
11B
100
AcDbEntity
  8
0
390
0
  6
CONTINUOUS2
 62
     9
100
AcDbCircle
 10
6.279044
 20
6.378091
 30
0.0
 40
0.193586
210
0.0
220
0.0
230
1.0
100
AcDbArc
 50
315.0
 51
360.0
  0
ARC
  5
11C
100
AcDbEntity
  8
0
390
0
  6
CONTINUOUS2
 62
     9
100
AcDbCircle
 10
6.279282
 20
6.377853
 30
0.0
 40
0.525447
210
0.0
220
0.0
230
1.0
100
AcDbArc
 50
315.0
 51
360.0
  0
ARC
  5
11D
100
AcDbEntity
  8
0
390
0
  6
CONTINUOUS2
 62
     9
100
AcDbCircle
 10
5.21296
 20
5.524236
 30
0.0
 40
0.165931
210
0.0
220
0.0
230
1.0
100
AcDbArc
 50
225.0
 51
270.0
  0
ARC
  5
11E
100
AcDbEntity
  8
0
390
0
  6
CONTINUOUS2
 62
     9
100
AcDbCircle
 10
5.212722
 20
5.523998
 30
0.0
 40
0.497792
210
0.0
220
0.0
230
1.0
100
AcDbArc
 50
225.0
 51
270.0
  0
ARC
  5
11F
100
AcDbEntity
  8
0
390
0
  6
CONTINUOUS2
 62
     9
100
AcDbCircle
 10
5.407023
 20
5.662512
 30
0.0
 40
0.304206
210
0.0
220
0.0
230
1.0
100
AcDbArc
 50
270.0
 51
315.0
  0
ARC
  5
120
100
AcDbEntity
  8
0
390
0
  6
CONTINUOUS2
 62
     9
100
AcDbCircle
 10
5.407261
 20
5.662274
 30
0.0
 40
0.636068
210
0.0
220
0.0
230
1.0
100
AcDbArc
 50
270.0
 51
315.0
  0
ARC
  5
121
100
AcDbEntity
  8
0
390
0
  6
CONTINUOUS2
 62
     9
100
AcDbCircle
 10
7.382708
 20
5.193427
 30
0.0
 40
0.691378
210
0.0
220
0.0
230
1.0
100
AcDbArc
 50
90.0
 51
135.0
  0
ARC
  5
122
100
AcDbEntity
  8
0
390
0
  6
CONTINUOUS2
 62
     9
100
AcDbCircle
 10
7.382946
 20
5.193189
 30
0.0
 40
0.359517
210
0.0
220
0.0
230
1.0
100
AcDbArc
 50
90.0
 51
135.0
  0
ARC
  5
123
100
AcDbEntity
  8
0
390
0
  6
CONTINUOUS2
 62
     9
100
AcDbCircle
 10
7.499027
 20
5.331703
 30
0.0
 40
0.553103
210
0.0
220
0.0
230
1.0
100
AcDbArc
 50
45.0
 51
90.0
  0
ARC
  5
124
100
AcDbEntity
  8
0
390
0
  6
CONTINUOUS2
 62
     9
100
AcDbCircle
 10
7.498788
 20
5.331465
 30
0.0
 40
0.221241
210
0.0
220
0.0
230
1.0
100
AcDbArc
 50
45.0
 51
90.0
  0
ARC
  5
125
100
AcDbEntity
  8
0
390
0
  6
CONTINUOUS2
 62
     9
100
AcDbCircle
 10
7.834244
 20
5.03512
 30
0.0
 40
0.193586
210
0.0
220
0.0
230
1.0
100
AcDbArc
 50
0.0
 51
45.0
  0
ARC
  5
126
100
AcDbEntity
  8
0
390
0
  6
CONTINUOUS2
 62
     9
100
AcDbCircle
 10
7.834482
 20
5.035358
 30
0.0
 40
0.525447
210
0.0
220
0.0
230
1.0
100
AcDbArc
 50
0.0
 51
45.0
  0
ARC
  5
127
100
AcDbEntity
  8
0
390
0
  6
CONTINUOUS2
 62
     9
100
AcDbCircle
 10
7.862236
 20
5.144112
 30
0.0
 40
0.304206
210
0.0
220
0.0
230
1.0
100
AcDbArc
 50
225.0
 51
270.0
  0
ARC
  5
128
100
AcDbEntity
  8
0
390
0
  6
CONTINUOUS2
 62
     9
100
AcDbCircle
 10
7.861997
 20
5.143874
 30
0.0
 40
0.636068
210
0.0
220
0.0
230
1.0
100
AcDbArc
 50
225.0
 51
270.0
  0
ARC
  5
129
100
AcDbEntity
  8
0
390
0
  6
CONTINUOUS2
 62
     9
100
AcDbCircle
 10
7.695968
 20
5.916967
 30
0.0
 40
0.331862
210
0.0
220
0.0
230
1.0
100
AcDbArc
 50
315.0
 51
360.0
  0
ARC
  5
12A
100
AcDbEntity
  8
0
390
0
  6
CONTINUOUS2
 62
     9
100
AcDbCircle
 10
7.696206
 20
5.916729
 30
0.0
 40
0.663723
210
0.0
220
0.0
230
1.0
100
AcDbArc
 50
315.0
 51
360.0
  0
ARC
  5
12B
100
AcDbEntity
  8
0
390
0
  6
CONTINUOUS2
 62
     9
100
AcDbCircle
 10
6.471577
 20
4.516958
 30
0.0
 40
0.525447
210
0.0
220
0.0
230
1.0
100
AcDbArc
 50
135.0
 51
180.0
  0
ARC
  5
12C
100
AcDbEntity
  8
0
390
0
  6
CONTINUOUS2
 62
     9
100
AcDbCircle
 10
6.471815
 20
4.51672
 30
0.0
 40
0.193586
210
0.0
220
0.0
230
1.0
100
AcDbArc
 50
135.0
 51
180.0
  0
ARC
  5
12D
100
AcDbEntity
  8
0
390
0
  6
CONTINUOUS2
 62
     9
100
AcDbCircle
 10
6.610091
 20
4.361767
 30
0.0
 40
0.331862
210
0.0
220
0.0
230
1.0
100
AcDbArc
 50
180.0
 51
225.0
  0
ARC
  5
12E
100
AcDbEntity
  8
0
390
0
  6
CONTINUOUS2
 62
     9
100
AcDbCircle
 10
6.609853
 20
4.361529
 30
0.0
 40
0.663723
210
0.0
220
0.0
230
1.0
100
AcDbArc
 50
180.0
 51
225.0
  0
ARC
  5
12F
100
AcDbEntity
  8
0
390
0
  6
CONTINUOUS2
 62
     9
100
AcDbCircle
 10
7.843832
 20
3.776503
 30
0.0
 40
0.553103
210
0.0
220
0.0
230
1.0
100
AcDbArc
 50
90.0
 51
135.0
  0
ARC
  5
130
100
AcDbEntity
  8
0
390
0
  6
CONTINUOUS2
 62
     9
100
AcDbCircle
 10
7.84407
 20
3.776265
 30
0.0
 40
0.221241
210
0.0
220
0.0
230
1.0
100
AcDbArc
 50
90.0
 51
135.0
  0
ARC
  5
131
100
AcDbEntity
  8
0
390
0
  6
CONTINUOUS2
 62
     9
100
AcDbCircle
 10
7.695968
 20
3.843367
 30
0.0
 40
0.331862
210
0.0
220
0.0
230
1.0
100
AcDbArc
 50
315.0
 51
360.0
  0
ARC
  5
132
100
AcDbEntity
  8
0
390
0
  6
CONTINUOUS2
 62
     9
100
AcDbCircle
 10
7.696206
 20
3.843129
 30
0.0
 40
0.663723
210
0.0
220
0.0
230
1.0
100
AcDbArc
 50
315.0
 51
360.0
  0
ARC
  5
133
100
AcDbEntity
  8
0
390
0
  6
CONTINUOUS2
 62
     9
100
AcDbCircle
 10
7.480623
 20
3.588912
 30
0.0
 40
0.304206
210
0.0
220
0.0
230
1.0
100
AcDbArc
 50
270.0
 51
315.0
  0
ARC
  5
134
100
AcDbEntity
  8
0
390
0
  6
CONTINUOUS2
 62
     9
100
AcDbCircle
 10
7.480861
 20
3.588674
 30
0.0
 40
0.636068
210
0.0
220
0.0
230
1.0
100
AcDbArc
 50
270.0
 51
315.0
  0
ARC
  5
135
100
AcDbEntity
  8
0
390
0
  6
CONTINUOUS2
 62
     9
100
AcDbCircle
 10
7.28656
 20
3.450636
 30
0.0
 40
0.165931
210
0.0
220
0.0
230
1.0
100
AcDbArc
 50
225.0
 51
270.0
  0
ARC
  5
136
100
AcDbEntity
  8
0
390
0
  6
CONTINUOUS2
 62
     9
100
AcDbCircle
 10
7.286322
 20
3.450398
 30
0.0
 40
0.497792
210
0.0
220
0.0
230
1.0
100
AcDbArc
 50
225.0
 51
270.0
  0
ARC
  5
137
100
AcDbEntity
  8
0
390
0
  6
CONTINUOUS2
 62
     9
100
AcDbCircle
 10
7.834244
 20
2.96152
 30
0.0
 40
0.193586
210
0.0
220
0.0
230
1.0
100
AcDbArc
 50
0.0
 51
45.0
  0
ARC
  5
138
100
AcDbEntity
  8
0
390
0
  6
CONTINUOUS2
 62
     9
100
AcDbCircle
 10
7.834482
 20
2.961758
 30
0.0
 40
0.525447
210
0.0
220
0.0
230
1.0
100
AcDbArc
 50
0.0
 51
45.0
  0
ARC
  5
139
100
AcDbEntity
  8
0
390
0
  6
CONTINUOUS2
 62
     9
100
AcDbCircle
 10
6.091453
 20
1.867682
 30
0.0
 40
0.663723
210
0.0
220
0.0
230
1.0
100
AcDbArc
 50
135.0
 51
180.0
  0
ARC
  5
13A
100
AcDbEntity
  8
0
390
0
  6
CONTINUOUS2
 62
     9
100
AcDbCircle
 10
6.091691
 20
1.867444
 30
0.0
 40
0.331862
210
0.0
220
0.0
230
1.0
100
AcDbArc
 50
135.0
 51
180.0
  0
ARC
  5
13B
100
AcDbEntity
  8
0
390
0
  6
CONTINUOUS2
 62
     9
100
AcDbCircle
 10
5.982699
 20
1.895436
 30
0.0
 40
0.165931
210
0.0
220
0.0
230
1.0
100
AcDbArc
 50
270.0
 51
315.0
  0
ARC
  5
13C
100
AcDbEntity
  8
0
390
0
  6
CONTINUOUS2
 62
     9
100
AcDbCircle
 10
5.982937
 20
1.895198
 30
0.0
 40
0.497792
210
0.0
220
0.0
230
1.0
100
AcDbArc
 50
270.0
 51
315.0
  0
ARC
  5
13D
100
AcDbEntity
  8
0
390
0
  6
CONTINUOUS2
 62
     9
100
AcDbCircle
 10
6.825197
 20
2.033474
 30
0.0
 40
0.636068
210
0.0
220
0.0
230
1.0
100
AcDbArc
 50
225.0
 51
270.0
  0
ARC
  5
13E
100
AcDbEntity
  8
0
390
0
  6
CONTINUOUS2
 62
     9
100
AcDbCircle
 10
6.825436
 20
2.033712
 30
0.0
 40
0.304206
210
0.0
220
0.0
230
1.0
100
AcDbArc
 50
225.0
 51
270.0
  0
ARC
  5
13F
100
AcDbEntity
  8
0
390
0
  6
CONTINUOUS2
 62
     9
100
AcDbCircle
 10
6.279044
 20
2.230891
 30
0.0
 40
0.193586
210
0.0
220
0.0
230
1.0
100
AcDbArc
 50
315.0
 51
360.0
  0
ARC
  5
140
100
AcDbEntity
  8
0
390
0
  6
CONTINUOUS2
 62
     9
100
AcDbCircle
 10
6.279282
 20
2.230653
 30
0.0
 40
0.525447
210
0.0
220
0.0
230
1.0
100
AcDbArc
 50
315.0
 51
360.0
  0
ARC
  5
141
100
AcDbEntity
  8
0
390
0
  6
CONTINUOUS2
 62
     9
100
AcDbCircle
 10
6.140768
 20
2.385844
 30
0.0
 40
0.331862
210
0.0
220
0.0
230
1.0
100
AcDbArc
 50
0.0
 51
45.0
  0
ARC
  5
142
100
AcDbEntity
  8
0
390
0
  6
CONTINUOUS2
 62
     9
100
AcDbCircle
 10
6.141006
 20
2.386082
 30
0.0
 40
0.663723
210
0.0
220
0.0
230
1.0
100
AcDbArc
 50
0.0
 51
45.0
  0
ARC
  5
143
100
AcDbEntity
  8
0
390
0
  6
CONTINUOUS2
 62
     9
100
AcDbCircle
 10
5.309108
 20
3.119827
 30
0.0
 40
0.691378
210
0.0
220
0.0
230
1.0
100
AcDbArc
 50
90.0
 51
135.0
  0
ARC
  5
144
100
AcDbEntity
  8
0
390
0
  6
CONTINUOUS2
 62
     9
100
AcDbCircle
 10
5.309346
 20
3.119589
 30
0.0
 40
0.359517
210
0.0
220
0.0
230
1.0
100
AcDbArc
 50
90.0
 51
135.0
  0
ARC
  5
145
100
AcDbEntity
  8
0
390
0
  6
CONTINUOUS2
 62
     9
100
AcDbCircle
 10
5.425188
 20
3.257865
 30
0.0
 40
0.221241
210
0.0
220
0.0
230
1.0
100
AcDbArc
 50
45.0
 51
90.0
  0
ARC
  5
146
100
AcDbEntity
  8
0
390
0
  6
CONTINUOUS2
 62
     9
100
AcDbCircle
 10
5.425427
 20
3.258103
 30
0.0
 40
0.553103
210
0.0
220
0.0
230
1.0
100
AcDbArc
 50
45.0
 51
90.0
  0
ARC
  5
147
100
AcDbEntity
  8
0
390
0
  6
CONTINUOUS2
 62
     9
100
AcDbCircle
 10
4.397977
 20
2.443358
 30
0.0
 40
0.525447
210
0.0
220
0.0
230
1.0
100
AcDbArc
 50
135.0
 51
180.0
  0
ARC
  5
148
100
AcDbEntity
  8
0
390
0
  6
CONTINUOUS2
 62
     9
100
AcDbCircle
 10
4.398215
 20
2.44312
 30
0.0
 40
0.193586
210
0.0
220
0.0
230
1.0
100
AcDbArc
 50
135.0
 51
180.0
  0
ARC
  5
149
100
AcDbEntity
  8
0
390
0
  6
CONTINUOUS2
 62
     9
100
AcDbCircle
 10
4.536491
 20
2.288167
 30
0.0
 40
0.331862
210
0.0
220
0.0
230
1.0
100
AcDbArc
 50
180.0
 51
225.0
  0
ARC
  5
14A
100
AcDbEntity
  8
0
390
0
  6
CONTINUOUS2
 62
     9
100
AcDbCircle
 10
4.536253
 20
2.287929
 30
0.0
 40
0.663723
210
0.0
220
0.0
230
1.0
100
AcDbArc
 50
180.0
 51
225.0
  0
ARC
  5
14B
100
AcDbEntity
  8
0
390
0
  6
CONTINUOUS2
 62
     9
100
AcDbCircle
 10
3.909099
 20
1.895436
 30
0.0
 40
0.165931
210
0.0
220
0.0
230
1.0
100
AcDbArc
 50
270.0
 51
315.0
  0
ARC
  5
14C
100
AcDbEntity
  8
0
390
0
  6
CONTINUOUS2
 62
     9
100
AcDbCircle
 10
3.909337
 20
1.895198
 30
0.0
 40
0.497792
210
0.0
220
0.0
230
1.0
100
AcDbArc
 50
270.0
 51
315.0
  0
ARC
  5
14D
100
AcDbEntity
  8
0
390
0
  6
CONTINUOUS2
 62
     9
100
AcDbCircle
 10
4.751597
 20
2.033474
 30
0.0
 40
0.636068
210
0.0
220
0.0
230
1.0
100
AcDbArc
 50
225.0
 51
270.0
  0
ARC
  5
14E
100
AcDbEntity
  8
0
390
0
  6
CONTINUOUS2
 62
     9
100
AcDbCircle
 10
4.751836
 20
2.033712
 30
0.0
 40
0.304206
210
0.0
220
0.0
230
1.0
100
AcDbArc
 50
225.0
 51
270.0
  0
ARC
  5
14F
100
AcDbEntity
  8
0
390
0
  6
CONTINUOUS2
 62
     9
100
AcDbCircle
 10
4.723844
 20
1.92472
 30
0.0
 40
0.193586
210
0.0
220
0.0
230
1.0
100
AcDbArc
 50
0.0
 51
45.0
  0
ARC
  5
150
100
AcDbEntity
  8
0
390
0
  6
CONTINUOUS2
 62
     9
100
AcDbCircle
 10
4.724082
 20
1.924958
 30
0.0
 40
0.525447
210
0.0
220
0.0
230
1.0
100
AcDbArc
 50
0.0
 51
45.0
  0
ARC
  5
151
100
AcDbEntity
  8
0
390
0
  6
CONTINUOUS2
 62
     9
100
AcDbCircle
 10
2.981053
 20
2.904482
 30
0.0
 40
0.663723
210
0.0
220
0.0
230
1.0
100
AcDbArc
 50
135.0
 51
180.0
  0
ARC
  5
152
100
AcDbEntity
  8
0
390
0
  6
CONTINUOUS2
 62
     9
100
AcDbCircle
 10
2.981291
 20
2.904244
 30
0.0
 40
0.331862
210
0.0
220
0.0
230
1.0
100
AcDbArc
 50
135.0
 51
180.0
  0
ARC
  5
153
100
AcDbEntity
  8
0
390
0
  6
CONTINUOUS2
 62
     9
100
AcDbCircle
 10
3.139122
 20
3.450398
 30
0.0
 40
0.497792
210
0.0
220
0.0
230
1.0
100
AcDbArc
 50
225.0
 51
270.0
  0
ARC
  5
154
100
AcDbEntity
  8
0
390
0
  6
CONTINUOUS2
 62
     9
100
AcDbCircle
 10
3.13936
 20
3.450636
 30
0.0
 40
0.165931
210
0.0
220
0.0
230
1.0
100
AcDbArc
 50
225.0
 51
270.0
  0
ARC
  5
155
100
AcDbEntity
  8
0
390
0
  6
CONTINUOUS2
 62
     9
100
AcDbCircle
 10
3.333423
 20
3.588912
 30
0.0
 40
0.304206
210
0.0
220
0.0
230
1.0
100
AcDbArc
 50
270.0
 51
315.0
  0
ARC
  5
156
100
AcDbEntity
  8
0
390
0
  6
CONTINUOUS2
 62
     9
100
AcDbCircle
 10
3.333661
 20
3.588674
 30
0.0
 40
0.636068
210
0.0
220
0.0
230
1.0
100
AcDbArc
 50
270.0
 51
315.0
  0
ARC
  5
157
100
AcDbEntity
  8
0
390
0
  6
CONTINUOUS2
 62
     9
100
AcDbCircle
 10
2.842777
 20
3.785853
 30
0.0
 40
0.525447
210
0.0
220
0.0
230
1.0
100
AcDbArc
 50
180.0
 51
225.0
  0
ARC
  5
158
100
AcDbEntity
  8
0
390
0
  6
CONTINUOUS2
 62
     9
100
AcDbCircle
 10
2.843015
 20
3.786091
 30
0.0
 40
0.193586
210
0.0
220
0.0
230
1.0
100
AcDbArc
 50
180.0
 51
225.0
  0
ARC
  5
159
100
AcDbEntity
  8
0
390
0
  6
CONTINUOUS2
 62
     9
100
AcDbCircle
 10
2.775913
 20
3.637989
 30
0.0
 40
0.359517
210
0.0
220
0.0
230
1.0
100
AcDbArc
 50
45.0
 51
90.0
  0
ARC
  5
15A
100
AcDbEntity
  8
0
390
0
  6
CONTINUOUS2
 62
     9
100
AcDbCircle
 10
2.776151
 20
3.638227
 30
0.0
 40
0.691378
210
0.0
220
0.0
230
1.0
100
AcDbArc
 50
45.0
 51
90.0
  0
ARC
  5
15B
100
AcDbEntity
  8
0
390
0
  6
CONTINUOUS2
 62
     9
100
AcDbCircle
 10
4.067168
 20
4.459444
 30
0.0
 40
0.331862
210
0.0
220
0.0
230
1.0
100
AcDbArc
 50
0.0
 51
45.0
  0
ARC
  5
15C
100
AcDbEntity
  8
0
390
0
  6
CONTINUOUS2
 62
     9
100
AcDbCircle
 10
4.067406
 20
4.459682
 30
0.0
 40
0.663723
210
0.0
220
0.0
230
1.0
100
AcDbArc
 50
0.0
 51
45.0
  0
ARC
  5
15D
100
AcDbEntity
  8
0
390
0
  6
CONTINUOUS2
 62
     9
100
AcDbCircle
 10
4.205444
 20
4.304491
 30
0.0
 40
0.193586
210
0.0
220
0.0
230
1.0
100
AcDbArc
 50
315.0
 51
360.0
  0
ARC
  5
15E
100
AcDbEntity
  8
0
390
0
  6
CONTINUOUS2
 62
     9
100
AcDbCircle
 10
4.205682
 20
4.304253
 30
0.0
 40
0.525447
210
0.0
220
0.0
230
1.0
100
AcDbArc
 50
315.0
 51
360.0
  0
ARC
  5
15F
100
AcDbEntity
  8
0
390
0
  6
CONTINUOUS2
 62
     9
100
AcDbCircle
 10
2.872299
 20
5.005836
 30
0.0
 40
0.165931
210
0.0
220
0.0
230
1.0
100
AcDbArc
 50
270.0
 51
315.0
  0
ARC
  5
160
100
AcDbEntity
  8
0
390
0
  6
CONTINUOUS2
 62
     9
100
AcDbCircle
 10
2.872537
 20
5.005598
 30
0.0
 40
0.497792
210
0.0
220
0.0
230
1.0
100
AcDbArc
 50
270.0
 51
315.0
  0
ENDSEC
  0
SECTION
  2
OBJECTS
  0
DICTIONARY
  5
19
100
AcDbDictionary
280
     0
281
     1
  3
ACAD_GROUP
350
1A
  3
ACAD_MLINESTYLE
350
1B
  3
ACAD_LAYOUT
350
1E
  3
ACAD_PLOTSETTINGS
350
22
  3
ACAD_PLOTSTYLENAME
350
1F
  3
ACAD_WIPEOUT_VARS
350
23
  0
DICTIONARY
  5
1A
102
{ACAD_REACTORS
330
19
102
}
100
AcDbDictionary
280
     0
281
     1
  0
DICTIONARY
  5
1B
102
{ACAD_REACTORS
330
19
102
}
100
AcDbDictionary
280
     0
281
     1
  3
Standard
350
1C
  0
MLINESTYLE
  5
1C
102
{ACAD_REACTORS
330
1B
102
}
100
AcDbMlineStyle
  2
Standard
 70
     0
  3

 62
     0
 51
90.0
 52
90.0
 71
     2
 49
0.5
 62
   256
  6
ByLayer
 49
-0.5
 62
   256
  6
ByLayer
  0
ACDBDICTIONARYWDFLT
  5
1F
102
{ACAD_REACTORS
330
19
102
}
100
AcDbDictionary
281
     1
  3
Normal
350
1D
100
AcDbDictionaryWithDefault
340
1D
  0
ACDBPLACEHOLDER
  5
1D
102
{ACAD_REACTORS
330
1F
102
}
  0
LAYOUT
  5
20
102
{ACAD_REACTORS
330
1E
102
}
100
AcDbPlotSettings
  1

  2

  4

  6

 40
0.0
 41
0.0
 42
0.0
 43
0.0
 44
0.0
 45
0.0
 46
0.0
 47
0.0
 48
0.0
 49
0.0
140
0.0
141
0.0
142
1.0
143
1.0
 70
  1024
 72
     0
 73
     0
 74
     0
  7

 75
     0
147
1.0
148
0.0
149
0.0
100
AcDbLayout
  1
Model
 70
     0
 71
     1
 10
0.0
 20
0.0
 11
0.0
 21
0.0
 12
0.0
 22
0.0
 32
0.0
 14
0.0
 24
0.0
 34
0.0
 15
0.0
 25
0.0
 35
0.0
146
0.0
 13
0.0
 23
0.0
 33
0.0
 16
0.0
 26
0.0
 36
0.0
 17
0.0
 27
0.0
 37
0.0
 76
     0
330
A
331
0
345
0
346
0
  0
LAYOUT
  5
21
102
{ACAD_REACTORS
330
1E
102
}
100
AcDbPlotSettings
  1

  2

  4

  6

 40
0.0
 41
0.0
 42
0.0
 43
0.0
 44
0.0
 45
0.0
 46
0.0
 47
0.0
 48
0.0
 49
0.0
140
0.0
141
0.0
142
1.0
143
1.0
 70
     0
 72
     0
 73
     0
 74
     0
  7

 75
     0
147
1.0
148
0.0
149
0.0
100
AcDbLayout
  1
Layout1
 70
     0
 71
     2
 10
0.0
 20
0.0
 11
0.0
 21
0.0
 12
0.0
 22
0.0
 32
0.0
 14
0.0
 24
0.0
 34
0.0
 15
0.0
 25
0.0
 35
0.0
146
0.0
 13
0.0
 23
0.0
 33
0.0
 16
0.0
 26
0.0
 36
0.0
 17
0.0
 27
0.0
 37
0.0
 76
     0
330
B
331
0
345
0
346
0
  0
DICTIONARY
  5
1E
102
{ACAD_REACTORS
330
19
102
}
100
AcDbDictionary
280
     0
281
     1
  3
Layout1
350
21
  3
Model
350
20
  0
DICTIONARY
  5
22
102
{ACAD_REACTORS
330
19
102
}
100
AcDbDictionary
280
     0
281
     1
  0
WIPEOUTVARIABLES
  5
23
100
AcDbWipeoutVariables
 70
     1
  0
ENDSEC
  0
EOF
