  0
SECTION
  2
HEADER
  9
$ACADVER
  1
AC1015
  9
$ACADMAINTVER
 70
     6
  9
$DWGCODEPAGE
  3
ANSI_1252
  9
$INSBASE
 10
0.0
 20
0.0
 30
0.0
  9
$EXTMIN
 10
-0.939693
 20
-0.984808
 30
0.0
  9
$EXTMAX
 10
13.0
 20
12.984808
 30
0.0
  9
$LIMMIN
 10
0.0
 20
0.0
  9
$LIMMAX
 10
0.0
 20
0.0
  9
$ORTHOMODE
 70
     0
  9
$REGENMODE
 70
     1
  9
$FILLMODE
 70
     1
  9
$QTEXTMODE
 70
     0
  9
$MIRRTEXT
 70
     1
  9
$LTSCALE
 40
1.0
  9
$ATTMODE
 70
     1
  9
$TEXTSIZE
 40
0.2
  9
$TRACEWID
 40
0.05
  9
$TEXTSTYLE
  7
Standard
  9
$CLAYER
  8
0
  9
$CELTYPE
  6
Continuous
  9
$CECOLOR
 62
   256
  9
$CELTSCALE
 40
1.0
  9
$DISPSILH
 70
     0
  9
$DIMSCALE
 40
1.0
  9
$DIMASZ
 40
0.18
  9
$DIMEXO
 40
0.0625
  9
$DIMDLI
 40
0.38
  9
$DIMRND
 40
0.0
  9
$DIMDLE
 40
0.0
  9
$DIMEXE
 40
0.18
  9
$DIMTP
 40
0.0
  9
$DIMTM
 40
0.0
  9
$DIMTXT
 40
0.18
  9
$DIMCEN
 40
0.09
  9
$DIMTSZ
 40
0.0
  9
$DIMTOL
 70
     0
  9
$DIMLIM
 70
     0
  9
$DIMTIH
 70
     1
  9
$DIMTOH
 70
     1
  9
$DIMSE1
 70
     0
  9
$DIMSE2
 70
     0
  9
$DIMTAD
 70
     0
  9
$DIMZIN
 70
     0
  9
$DIMBLK
  1

  9
$DIMASO
 70
     1
  9
$DIMSHO
 70
     1
  9
$DIMPOST
  1

  9
$DIMAPOST
  1

  9
$DIMALT
 70
     0
  9
$DIMALTD
 70
     2
  9
$DIMALTF
 40
25.4
  9
$DIMLFAC
 40
1.0
  9
$DIMTOFL
 70
     0
  9
$DIMTVP
 40
0.0
  9
$DIMTIX
 70
     0
  9
$DIMSOXD
 70
     0
  9
$DIMSAH
 70
     0
  9
$DIMBLK1
  1

  9
$DIMBLK2
  1

  9
$DIMSTYLE
  2
Standard
  9
$DIMCLRD
 70
     0
  9
$DIMCLRE
 70
     0
  9
$DIMCLRT
 70
     0
  9
$DIMTFAC
 40
1.0
  9
$DIMGAP
 40
0.09
  9
$DIMJUST
 70
     0
  9
$DIMSD1
 70
     0
  9
$DIMSD2
 70
     0
  9
$DIMTOLJ
 70
     1
  9
$DIMTZIN
 70
     0
  9
$DIMALTZ
 70
     0
  9
$DIMALTTZ
 70
     0
  9
$DIMUPT
 70
     0
  9
$DIMDEC
 70
     4
  9
$DIMTDEC
 70
     4
  9
$DIMALTU
 70
     2
  9
$DIMALTTD
 70
     2
  9
$DIMTXSTY
  7
Standard
  9
$DIMAUNIT
 70
     0
  9
$DIMADEC
 70
     0
  9
$DIMALTRND
 40
0.0
  9
$DIMAZIN
 70
     0
  9
$DIMDSEP
 70
    46
  9
$DIMATFIT
 70
     3
  9
$DIMFRAC
 70
     0
  9
$DIMLDRBLK
  1

  9
$DIMLUNIT
 70
     2
  9
$DIMLWD
 70
    -2
  9
$DIMLWE
 70
    -2
  9
$DIMTMOVE
 70
     0
  9
$LUNITS
 70
     2
  9
$LUPREC
 70
     4
  9
$SKETCHINC
 40
0.1
  9
$FILLETRAD
 40
0.0
  9
$AUNITS
 70
     0
  9
$AUPREC
 70
     0
  9
$MENU
  1
acad
  9
$ELEVATION
 40
0.0
  9
$PELEVATION
 40
0.0
  9
$THICKNESS
 40
0.0
  9
$LIMCHECK
 70
     0
  9
$CHAMFERA
 40
0.0
  9
$CHAMFERB
 40
0.0
  9
$CHAMFERC
 40
0.0
  9
$CHAMFERD
 40
0.0
  9
$SKPOLY
 70
     0
  9
$TDCREATE
 40
2458206.461423611
  9
$TDUCREATE
 40
0.000000000
  9
$TDUPDATE
 40
2458206.461423611
  9
$TDUUPDATE
 40
0.000000000
  9
$TDINDWG
 40
0.0000000000
  9
$TDUSRTIMER
 40
0.0000000000
  9
$USRTIMER
 70
     1
  9
$ANGBASE
 50
0.0
  9
$ANGDIR
 70
     0
  9
$PDMODE
 70
     0
  9
$PDSIZE
 40
0.0
  9
$PLINEWID
 40
0.0
  9
$SPLFRAME
 70
     0
  9
$SPLINETYPE
 70
     6
  9
$SPLINESEGS
 70
     8
  9
$HANDSEED
  5
221
  9
$SURFTAB1
 70
     6
  9
$SURFTAB2
 70
     6
  9
$SURFTYPE
 70
     6
  9
$SURFU
 70
     6
  9
$SURFV
 70
     6
  9
$UCSBASE
  2

  9
$UCSNAME
  2

  9
$UCSORG
 10
0.0
 20
0.0
 30
0.0
  9
$UCSXDIR
 10
1.0
 20
0.0
 30
0.0
  9
$UCSYDIR
 10
0.0
 20
1.0
 30
0.0
  9
$UCSORTHOREF
  2

  9
$UCSORTHOVIEW
 70
     0
  9
$UCSORGTOP
 10
0.0
 20
0.0
 30
0.0
  9
$UCSORGBOTTOM
 10
0.0
 20
0.0
 30
0.0
  9
$UCSORGLEFT
 10
0.0
 20
0.0
 30
0.0
  9
$UCSORGRIGHT
 10
0.0
 20
0.0
 30
0.0
  9
$UCSORGFRONT
 10
0.0
 20
0.0
 30
0.0
  9
$UCSORGBACK
 10
0.0
 20
0.0
 30
0.0
  9
$PUCSBASE
  2

  9
$PUCSNAME
  2

  9
$PUCSORG
 10
0.0
 20
0.0
 30
0.0
  9
$PUCSXDIR
 10
1.0
 20
0.0
 30
0.0
  9
$PUCSYDIR
 10
0.0
 20
1.0
 30
0.0
  9
$PUCSORTHOREF
  2

  9
$PUCSORTHOVIEW
 70
     0
  9
$PUCSORGTOP
 10
0.0
 20
0.0
 30
0.0
  9
$PUCSORGBOTTOM
 10
0.0
 20
0.0
 30
0.0
  9
$PUCSORGLEFT
 10
0.0
 20
0.0
 30
0.0
  9
$PUCSORGRIGHT
 10
0.0
 20
0.0
 30
0.0
  9
$PUCSORGFRONT
 10
0.0
 20
0.0
 30
0.0
  9
$PUCSORGBACK
 10
0.0
 20
0.0
 30
0.0
  9
$USERI1
 70
     0
  9
$USERI2
 70
     0
  9
$USERI3
 70
     0
  9
$USERI4
 70
     0
  9
$USERI5
 70
     0
  9
$USERR1
 40
0.0
  9
$USERR2
 40
0.0
  9
$USERR3
 40
0.0
  9
$USERR4
 40
0.0
  9
$USERR5
 40
0.0
  9
$WORLDVIEW
 70
     1
  9
$SHADEDGE
 70
     3
  9
$SHADEDIF
 70
    70
  9
$TILEMODE
 70
     1
  9
$MAXACTVP
 70
    16
  9
$PINSBASE
 10
0.0
 20
0.0
 30
0.0
  9
$PLIMCHECK
 70
     0
  9
$PEXTMIN
 10
1.000000E+20
 20
1.000000E+20
 30
1.000000E+20
  9
$PEXTMAX
 10
-1.000000E+20
 20
-1.000000E+20
 30
-1.000000E+20
  9
$PLIMMIN
 10
0.0
 20
0.0
  9
$PLIMMAX
 10
12.0
 20
9.0
  9
$UNITMODE
 70
     0
  9
$VISRETAIN
 70
     0
  9
$PLINEGEN
 70
     1
  9
$PSLTSCALE
 70
     0
  9
$TREEDEPTH
 70
  3020
  9
$CMLSTYLE
  2
Standard
  9
$CMLJUST
 70
     0
  9
$CMLSCALE
 40
1.0
  9
$PROXYGRAPHICS
 70
     0
  9
$MEASUREMENT
 70
     0
  9
$CELWEIGHT
370
     0
  9
$ENDCAPS
280
     0
  9
$JOINSTYLE
280
     0
  9
$LWDISPLAY
290
     0
  9
$INSUNITS
 70
     1
  9
$HYPERLINKBASE
  1

  9
$STYLESHEET
  1

  9
$XEDIT
290
     1
  9
$CEPSNTYPE
380
     0
  9
$PSTYLEMODE
290
     1
  9
$FINGERPRINTGUID
  2

  9
$VERSIONGUID
  2

  9
$EXTNAMES
290
     1
  9
$PSVPSCALE
 40
0.0
  0
ENDSEC
  0
SECTION
  2
CLASSES
  0
CLASS
  1
LWPOLYLINE
  2
AcDbPolyline
  3
AutoCAD 2000
 90
        0
280
     0
281
     1
  0
CLASS
  1
IMAGE
  2
AcDbRasterImage
  3
ISM
 90
      127
280
     0
281
     1
  0
CLASS
  1
OLE2FRAME
  2
AcDbOle2Frame
  3
AutoCAD 2000
 90
        0
280
     0
281
     1
  0
CLASS
  1
HATCH
  2
AcDbHatch
  3
AutoCAD 2000
 90
        0
280
     0
281
     1
  0
CLASS
  1
DICTIONARYVAR
  2
AcDbDictionaryVar
  3
AutoCAD 2000
 90
        0
280
     0
281
     0
  0
CLASS
  1
RASTERVARIABLES
  2
AcDbRasterVariables
  3
ISM
 90
        0
280
     0
281
     0
  0
CLASS
  1
IMAGEDEF
  2
AcDbRasterImageDef
  3
ISM
 90
        0
280
     0
281
     0
  0
CLASS
  1
IMAGEDEF_REACTOR
  2
AcDbRasterImageDefReactor
  3
ISM
 90
        1
280
     0
281
     0
  0
CLASS
  1
IDBUFFER
  2
AcDbIdBuffer
  3
AutoCAD 2000
 90
        0
280
     0
281
     0
  0
CLASS
  1
SPATIAL_FILTER
  2
AcDbSpatialFilter
  3
AutoCAD 2000
 90
        0
280
     0
281
     0
  0
CLASS
  1
XRECORD
  2
AcDbXrecord
  3
AutoCAD 2000
 90
        0
280
     0
281
     0
  0
CLASS
  1
SORTENTSTABLE
  2
AcDbSortentsTable
  3
AutoCAD 2000
 90
        0
280
     0
281
     0
  0
CLASS
  1
LAYER_INDEX
  2
AcDbLayerIndex
  3
AutoCAD 2000
 90
        0
280
     0
281
     0
  0
CLASS
  1
SPATIAL_INDEX
  2
AcDbSpatialIndex
  3
AutoCAD 2000
 90
        0
280
     0
281
     0
  0
CLASS
  1
OBJECT_PTR
  2
CAseDLPNTableRecord
  3
"ASE-LPNTableRecord"
 90
        1
280
     0
281
     0
  0
CLASS
  1
LAYOUT
  2
AcDbLayout
  3
AutoCAD 2000
 90
        0
280
     0
281
     0
  0
CLASS
  1
PLOTSETTINGS
  2
AcDbPlotSettings
  3
AutoCAD 2000
 90
        0
280
     0
281
     0
  0
CLASS
  1
ACDBDICTIONARYWDFLT
  2
AcDbDictionaryWithDefault
  3
AutoCAD 2000
 90
        0
280
     0
281
     0
  0
CLASS
  1
ACDBPLACEHOLDER
  2
AcDbPlaceHolder
  3
AutoCAD 2000
 90
        0
280
     0
281
     0
  0
CLASS
  1
VBA_PROJECT
  2
AcDbVbaProject
  3
acadvba
 90
        0
280
     0
281
     0
  0
CLASS
  1
WIPEOUT
  2
AcDbWipeout
  3
WipeOut|AutoCAD Express Tool|expresstools@autodesk.com
 90
      127
280
     0
281
     1
  0
CLASS
  1
WIPEOUTVARIABLES
  2
AcDbWipeoutVariables
  3
WipeOut|AutoCAD Express Tool|expresstools@autodesk.com
 90
        0
280
     0
281
     0
  0
CLASS
  1
RTEXT
  2
RText
  3
RText|AutoCAD Express Tool|expresstools@autodesk.com
 90
        0
280
     0
281
     1
  0
CLASS
  1
ARCALIGNEDTEXT
  2
AcDbArcAlignedText
  3
ATEXT|AutoCAD Express Tool|expresstools@autodesk.com
 90
        0
280
     0
281
     1
  0
ENDSEC
  0
SECTION
  2
TABLES
  0
TABLE
  2
VPORT
  5
7
100
AcDbSymbolTable
 70
     1
  0
VPORT
  5
15
100
AcDbSymbolTableRecord
100
AcDbViewportTableRecord
  2
*ACTIVE
 70
     0
 10
0.0
 20
0.0
 11
1.0
 21
1.0
 12
6.591288
 22
4.579184
 13
0.0
 23
0.0
 14
1.0
 24
1.0
 15
0.0
 25
0.0
 16
0.0
 26
0.0
 36
1.0
 17
0.0
 27
0.0
 37
0.0
 40
9.158369
 41
0.688564
 42
50.0
 43
0.0
 44
0.0
 50
0.0
 51
0.0
 71
     0
 72
   100
 73
     1
 74
     1
 75
     0
 76
     0
 77
     0
 78
     0
281
     0
 65
     0
110
0.0
120
0.0
130
0.0
111
1.0
121
0.0
131
0.0
112
0.0
122
1.0
132
0.0
345
0
346
0
 79
     0
146
0.0
  0
ENDTAB
  0
TABLE
  2
LTYPE
  5
4
100
AcDbSymbolTable
 70
     7
  0
LTYPE
  5
11
100
AcDbSymbolTableRecord
100
AcDbLinetypeTableRecord
  2
ByBlock
 70
    64
  3

 72
    65
 73
     0
 40
0.0
  0
LTYPE
  5
12
100
AcDbSymbolTableRecord
100
AcDbLinetypeTableRecord
  2
ByLayer
 70
    64
  3

 72
    65
 73
     0
 40
0.0
  0
LTYPE
  5
13
100
AcDbSymbolTableRecord
100
AcDbLinetypeTableRecord
  2
Continuous
 70
    64
  3
Solid line
 72
    65
 73
     0
 40
0.0
  0
LTYPE
  5
24
100
AcDbSymbolTableRecord
100
AcDbLinetypeTableRecord
  2
CONTINUOUS2
 70
     0
  3
Solid line
 72
    65
 73
     0
 40
0.0
  0
LTYPE
  5
25
100
AcDbSymbolTableRecord
100
AcDbLinetypeTableRecord
  2
DASHED
 70
    64
  3
__ __ __ __ __ __ __ __ __ __ __ __ __ __ __ __
 72
    65
 73
     2
 40
0.5
 49
0.375
 74
     0
 49
-0.125
 74
     0
  0
LTYPE
  5
26
100
AcDbSymbolTableRecord
100
AcDbLinetypeTableRecord
  2
CENTER
 70
    64
  3
____ _ ____ _ ____ _ ____ _ ____ _ ____ _ ____ _
 72
    65
 73
     4
 40
1.0
 49
0.625
 74
     0
 49
-0.125
 74
     0
 49
0.125
 74
     0
 49
-0.125
 74
     0
  0
LTYPE
  5
27
100
AcDbSymbolTableRecord
100
AcDbLinetypeTableRecord
  2
PHANTOM
 70
    64
  3
___ _ _ ___ _ _ ___ _ _ ___ _ _ ___ _ _ ___ _ _ 
 72
    65
 73
     6
 40
1.0
 49
0.5
 74
     0
 49
-0.1
 74
     0
 49
0.1
 74
     0
 49
-0.1
 74
     0
 49
0.1
 74
     0
 49
-0.1
 74
     0
  0
ENDTAB
  0
TABLE
  2
LAYER
  5
2
100
AcDbSymbolTable
 70
     2
  0
LAYER
  5
14
100
AcDbSymbolTableRecord
100
AcDbLayerTableRecord
  2
0
 70
     0
 62
     7
  6
Continuous
290
     1
370
    -3
390
1D
  0
LAYER
  5
28
100
AcDbSymbolTableRecord
100
AcDbLayerTableRecord
  2
0
 70
     0
 62
     1
  6
Continuous
290
     1
370
    -3
390
1D
  0
ENDTAB
  0
TABLE
  2
STYLE
  5
3
100
AcDbSymbolTable
 70
     1
  0
STYLE
  5
17
100
AcDbSymbolTableRecord
100
AcDbTextStyleTableRecord
  2
Standard
 70
     0
 40
0.0
 41
1.0
 50
0.0
 71
     0
 42
0.0
  3
txt
  4

  0
ENDTAB
  0
TABLE
  2
VIEW
  5
5
100
AcDbSymbolTable
 70
     0
  0
ENDTAB
  0
TABLE
  2
UCS
  5
6
100
AcDbSymbolTable
 70
     0
  0
ENDTAB
  0
TABLE
  2
APPID
  5
8
100
AcDbSymbolTable
 70
     1
  0
APPID
  5
16
100
AcDbSymbolTableRecord
100
AcDbRegAppTableRecord
  2
ACAD
 70
     0
  0
ENDTAB
  0
TABLE
  2
DIMSTYLE
  5
9
100
AcDbSymbolTable
 70
     1
100
AcDbDimStyleTable
 71
     0
  0
DIMSTYLE
105
18
100
AcDbSymbolTableRecord
100
AcDbDimStyleTableRecord
  2
Standard
 70
     0
  3

  4

 40
1.0
 41
0.18
 42
0.0625
 43
0.38
 44
0.18
 45
0.0
 46
0.0
 47
0.0
 48
0.0
 71
     0
 72
     0
 73
     1
 74
     1
 75
     0
 76
     0
 77
     0
 78
     0
 79
     0
140
0.18
141
0.09
142
0.0
143
25.4
144
1.0
145
0.0
146
1.0
147
0.09
148
0.0
170
     0
171
     2
172
     0
173
     0
174
     0
175
     0
176
     0
177
     0
178
     0
179
     0
271
     4
272
     4
273
     2
274
     2
275
     0
276
     0
277
     2
278
    46
279
     0
280
     0
281
     0
282
     0
283
     1
284
     0
285
     0
286
     0
288
     0
289
     3
340
17
341
0
342
0
343
0
344
0
371
    -2
372
    -2
  0
ENDTAB
  0
TABLE
  2
BLOCK_RECORD
  5
1
100
AcDbSymbolTable
 70
     0
  0
BLOCK_RECORD
  5
A
100
AcDbSymbolTableRecord
100
AcDbBlockTableRecord
  2
*MODEL_SPACE
340
20
  0
BLOCK_RECORD
  5
B
100
AcDbSymbolTableRecord
100
AcDbBlockTableRecord
  2
*PAPER_SPACE
340
21
  0
ENDTAB
  0
ENDSEC
  0
SECTION
  2
BLOCKS
  0
BLOCK
  5
D
100
AcDbEntity
  8
0
390
0
100
AcDbBlockBegin
  2
*MODEL_SPACE
 70
     0
 10
0.0
 20
0.0
 30
0.0
  3
*MODEL_SPACE
  1

  0
ENDBLK
  5
E
100
AcDbEntity
  8
0
390
0
100
AcDbBlockEnd
  0
BLOCK
  5
F
100
AcDbEntity
 67
     1
  8
0
390
0
100
AcDbBlockBegin
  2
*PAPER_SPACE
 70
     0
 10
0.0
 20
0.0
 30
0.0
  3
*PAPER_SPACE
  1

  0
ENDBLK
  5
10
100
AcDbEntity
 67
     1
  8
0
390
0
100
AcDbBlockEnd
  0
ENDSEC
  0
SECTION
  2
ENTITIES
  0
LINE
  5
29
100
AcDbEntity
  8
0
390
0
  6
CONTINUOUS2
 62
     9
100
AcDbLine
 10
2.984569
 20
5.501396
 30
0.0
 11
3.129569
 21
5.646396
 31
0.0
  0
LINE
  5
2A
100
AcDbEntity
  8
0
390
0
  6
CONTINUOUS2
 62
     9
100
AcDbLine
 10
2.889569
 20
6.706396
 30
0.0
 11
2.889569
 21
5.730746
 31
0.0
  0
LINE
  5
2B
100
AcDbEntity
  8
0
390
0
  6
CONTINUOUS2
 62
     9
100
AcDbLine
 10
3.094669
 20
6.501296
 30
0.0
 11
3.094669
 21
5.730652
 31
0.0
  0
LINE
  5
2C
100
AcDbEntity
  8
0
390
0
  6
CONTINUOUS2
 62
     9
100
AcDbLine
 10
2.889569
 20
6.706396
 30
0.0
 11
3.812792
 21
6.706396
 31
0.0
  0
LINE
  5
2D
100
AcDbEntity
  8
0
390
0
  6
CONTINUOUS2
 62
     9
100
AcDbLine
 10
3.094669
 20
6.501296
 30
0.0
 11
3.812886
 21
6.501296
 31
0.0
  0
LINE
  5
2E
100
AcDbEntity
  8
0
390
0
  6
CONTINUOUS2
 62
     9
100
AcDbLine
 10
3.209569
 20
6.386396
 30
0.0
 11
3.528147
 21
6.386396
 31
0.0
  0
LINE
  5
2F
100
AcDbEntity
  8
0
390
0
  6
CONTINUOUS2
 62
     9
100
AcDbLine
 10
3.414669
 20
6.181296
 30
0.0
 11
3.528241
 21
6.181296
 31
0.0
  0
LINE
  5
30
100
AcDbEntity
  8
0
390
0
  6
CONTINUOUS2
 62
     9
100
AcDbLine
 10
3.209569
 20
6.386396
 30
0.0
 11
3.209569
 21
6.086102
 31
0.0
  0
LINE
  5
31
100
AcDbEntity
  8
0
390
0
  6
CONTINUOUS2
 62
     9
100
AcDbLine
 10
3.414669
 20
6.181296
 30
0.0
 11
3.414669
 21
6.086007
 31
0.0
  0
LINE
  5
32
100
AcDbEntity
  8
0
390
0
  6
CONTINUOUS2
 62
     9
100
AcDbLine
 10
4.38099
 20
6.706396
 30
0.0
 11
4.452792
 21
6.706396
 31
0.0
  0
LINE
  5
33
100
AcDbEntity
  8
0
390
0
  6
CONTINUOUS2
 62
     9
100
AcDbLine
 10
4.380896
 20
6.501296
 30
0.0
 11
4.452886
 21
6.501296
 31
0.0
  0
LINE
  5
34
100
AcDbEntity
  8
0
390
0
  6
CONTINUOUS2
 62
     9
100
AcDbLine
 10
4.814469
 20
6.146785
 30
0.0
 11
4.814469
 21
6.061496
 31
0.0
  0
LINE
  5
35
100
AcDbEntity
  8
0
390
0
  6
CONTINUOUS2
 62
     9
100
AcDbLine
 10
5.019569
 20
6.14669
 30
0.0
 11
5.019569
 21
5.856396
 31
0.0
  0
LINE
  5
36
100
AcDbEntity
  8
0
390
0
  6
CONTINUOUS2
 62
     9
100
AcDbLine
 10
4.676754
 20
6.061496
 30
0.0
 11
4.814469
 21
6.061496
 31
0.0
  0
LINE
  5
37
100
AcDbEntity
  8
0
390
0
  6
CONTINUOUS2
 62
     9
100
AcDbLine
 10
4.676848
 20
5.856396
 30
0.0
 11
5.019569
 21
5.856396
 31
0.0
  0
LINE
  5
38
100
AcDbEntity
  8
0
390
0
  6
CONTINUOUS2
 62
     9
100
AcDbLine
 10
2.889569
 20
5.18669
 30
0.0
 11
2.889569
 21
5.090746
 31
0.0
  0
LINE
  5
39
100
AcDbEntity
  8
0
390
0
  6
CONTINUOUS2
 62
     9
100
AcDbLine
 10
3.094669
 20
5.186785
 30
0.0
 11
3.094669
 21
5.090652
 31
0.0
  0
LINE
  5
3A
100
AcDbEntity
  8
0
390
0
  6
CONTINUOUS2
 62
     9
100
AcDbLine
 10
4.736345
 20
5.746396
 30
0.0
 11
4.808147
 21
5.746396
 31
0.0
  0
LINE
  5
3B
100
AcDbEntity
  8
0
390
0
  6
CONTINUOUS2
 62
     9
100
AcDbLine
 10
4.736251
 20
5.541296
 30
0.0
 11
4.808241
 21
5.541296
 31
0.0
  0
LINE
  5
3C
100
AcDbEntity
  8
0
390
0
  6
CONTINUOUS2
 62
     9
100
AcDbLine
 10
5.02099
 20
6.706396
 30
0.0
 11
5.092792
 21
6.706396
 31
0.0
  0
LINE
  5
3D
100
AcDbEntity
  8
0
390
0
  6
CONTINUOUS2
 62
     9
100
AcDbLine
 10
5.020896
 20
6.501296
 30
0.0
 11
5.092886
 21
6.501296
 31
0.0
  0
LINE
  5
3E
100
AcDbEntity
  8
0
390
0
  6
CONTINUOUS2
 62
     9
100
AcDbLine
 10
5.129569
 20
6.182046
 30
0.0
 11
5.129569
 21
5.856396
 31
0.0
  0
LINE
  5
3F
100
AcDbEntity
  8
0
390
0
  6
CONTINUOUS2
 62
     9
100
AcDbLine
 10
5.334669
 20
6.18214
 30
0.0
 11
5.334669
 21
6.061496
 31
0.0
  0
LINE
  5
40
100
AcDbEntity
  8
0
390
0
  6
CONTINUOUS2
 62
     9
100
AcDbLine
 10
5.376345
 20
5.746396
 30
0.0
 11
5.448147
 21
5.746396
 31
0.0
  0
LINE
  5
41
100
AcDbEntity
  8
0
390
0
  6
CONTINUOUS2
 62
     9
100
AcDbLine
 10
5.376251
 20
5.541296
 30
0.0
 11
5.448241
 21
5.541296
 31
0.0
  0
LINE
  5
42
100
AcDbEntity
  8
0
390
0
  6
CONTINUOUS2
 62
     9
100
AcDbLine
 10
5.66099
 20
6.706396
 30
0.0
 11
5.732792
 21
6.706396
 31
0.0
  0
LINE
  5
43
100
AcDbEntity
  8
0
390
0
  6
CONTINUOUS2
 62
     9
100
AcDbLine
 10
5.660896
 20
6.501296
 30
0.0
 11
5.732886
 21
6.501296
 31
0.0
  0
LINE
  5
44
100
AcDbEntity
  8
0
390
0
  6
CONTINUOUS2
 62
     9
100
AcDbLine
 10
6.30099
 20
6.706396
 30
0.0
 11
7.259569
 21
6.706396
 31
0.0
  0
LINE
  5
45
100
AcDbEntity
  8
0
390
0
  6
CONTINUOUS2
 62
     9
100
AcDbLine
 10
6.300896
 20
6.501296
 30
0.0
 11
7.054469
 21
6.501296
 31
0.0
  0
LINE
  5
46
100
AcDbEntity
  8
0
390
0
  6
CONTINUOUS2
 62
     9
100
AcDbLine
 10
7.054469
 20
6.501296
 30
0.0
 11
7.054469
 21
5.766007
 31
0.0
  0
LINE
  5
47
100
AcDbEntity
  8
0
390
0
  6
CONTINUOUS2
 62
     9
100
AcDbLine
 10
7.259569
 20
6.706396
 30
0.0
 11
7.259569
 21
5.766102
 31
0.0
  0
LINE
  5
48
100
AcDbEntity
  8
0
390
0
  6
CONTINUOUS2
 62
     9
100
AcDbLine
 10
6.734469
 20
6.181296
 30
0.0
 11
6.734469
 21
6.050652
 31
0.0
  0
LINE
  5
49
100
AcDbEntity
  8
0
390
0
  6
CONTINUOUS2
 62
     9
100
AcDbLine
 10
6.939569
 20
6.386396
 30
0.0
 11
6.939569
 21
6.050746
 31
0.0
  0
LINE
  5
4A
100
AcDbEntity
  8
0
390
0
  6
CONTINUOUS2
 62
     9
100
AcDbLine
 10
6.656345
 20
6.386396
 30
0.0
 11
6.939569
 21
6.386396
 31
0.0
  0
LINE
  5
4B
100
AcDbEntity
  8
0
390
0
  6
CONTINUOUS2
 62
     9
100
AcDbLine
 10
6.656251
 20
6.181296
 30
0.0
 11
6.734469
 21
6.181296
 31
0.0
  0
LINE
  5
4C
100
AcDbEntity
  8
0
390
0
  6
CONTINUOUS2
 62
     9
100
AcDbLine
 10
7.054469
 20
5.22214
 30
0.0
 11
7.054469
 21
5.126007
 31
0.0
  0
LINE
  5
4D
100
AcDbEntity
  8
0
390
0
  6
CONTINUOUS2
 62
     9
100
AcDbLine
 10
7.259569
 20
5.222046
 30
0.0
 11
7.259569
 21
5.126102
 31
0.0
  0
LINE
  5
4E
100
AcDbEntity
  8
0
390
0
  6
CONTINUOUS2
 62
     9
100
AcDbLine
 10
6.409569
 20
4.902046
 30
0.0
 11
6.409569
 21
4.576396
 31
0.0
  0
LINE
  5
4F
100
AcDbEntity
  8
0
390
0
  6
CONTINUOUS2
 62
     9
100
AcDbLine
 10
6.614669
 20
4.90214
 30
0.0
 11
6.614669
 21
4.781496
 31
0.0
  0
LINE
  5
50
100
AcDbEntity
  8
0
390
0
  6
CONTINUOUS2
 62
     9
100
AcDbLine
 10
6.614669
 20
4.781496
 30
0.0
 11
6.717028
 21
4.781496
 31
0.0
  0
LINE
  5
51
100
AcDbEntity
  8
0
390
0
  6
CONTINUOUS2
 62
     9
100
AcDbLine
 10
6.409569
 20
4.576396
 30
0.0
 11
6.716934
 21
4.576396
 31
0.0
  0
LINE
  5
52
100
AcDbEntity
  8
0
390
0
  6
CONTINUOUS2
 62
     9
100
AcDbLine
 10
6.094469
 20
4.866785
 30
0.0
 11
6.094469
 21
4.770652
 31
0.0
  0
LINE
  5
53
100
AcDbEntity
  8
0
390
0
  6
CONTINUOUS2
 62
     9
100
AcDbLine
 10
6.299569
 20
4.86669
 30
0.0
 11
6.299569
 21
4.770746
 31
0.0
  0
LINE
  5
54
100
AcDbEntity
  8
0
390
0
  6
CONTINUOUS2
 62
     9
100
AcDbLine
 10
6.094469
 20
4.226785
 30
0.0
 11
6.094469
 21
4.130652
 31
0.0
  0
LINE
  5
55
100
AcDbEntity
  8
0
390
0
  6
CONTINUOUS2
 62
     9
100
AcDbLine
 10
6.299569
 20
4.22669
 30
0.0
 11
6.299569
 21
4.130746
 31
0.0
  0
LINE
  5
56
100
AcDbEntity
  8
0
390
0
  6
CONTINUOUS2
 62
     9
100
AcDbLine
 10
6.409569
 20
4.466396
 30
0.0
 11
6.409569
 21
4.166102
 31
0.0
  0
LINE
  5
57
100
AcDbEntity
  8
0
390
0
  6
CONTINUOUS2
 62
     9
100
AcDbLine
 10
6.614669
 20
4.261296
 30
0.0
 11
6.614669
 21
4.166007
 31
0.0
  0
LINE
  5
58
100
AcDbEntity
  8
0
390
0
  6
CONTINUOUS2
 62
     9
100
AcDbLine
 10
6.409569
 20
4.466396
 30
0.0
 11
6.728147
 21
4.466396
 31
0.0
  0
LINE
  5
59
100
AcDbEntity
  8
0
390
0
  6
CONTINUOUS2
 62
     9
100
AcDbLine
 10
6.614669
 20
4.261296
 30
0.0
 11
6.728241
 21
4.261296
 31
0.0
  0
LINE
  5
5A
100
AcDbEntity
  8
0
390
0
  6
CONTINUOUS2
 62
     9
100
AcDbLine
 10
7.054469
 20
4.58214
 30
0.0
 11
7.054469
 21
4.486007
 31
0.0
  0
LINE
  5
5B
100
AcDbEntity
  8
0
390
0
  6
CONTINUOUS2
 62
     9
100
AcDbLine
 10
7.259569
 20
4.582046
 30
0.0
 11
7.259569
 21
4.486102
 31
0.0
  0
LINE
  5
5C
100
AcDbEntity
  8
0
390
0
  6
CONTINUOUS2
 62
     9
100
AcDbLine
 10
7.054469
 20
3.94214
 30
0.0
 11
7.054469
 21
3.846007
 31
0.0
  0
LINE
  5
5D
100
AcDbEntity
  8
0
390
0
  6
CONTINUOUS2
 62
     9
100
AcDbLine
 10
7.259569
 20
3.942046
 30
0.0
 11
7.259569
 21
3.846102
 31
0.0
  0
LINE
  5
5E
100
AcDbEntity
  8
0
390
0
  6
CONTINUOUS2
 62
     9
100
AcDbLine
 10
6.734469
 20
2.946785
 30
0.0
 11
6.734469
 21
2.861496
 31
0.0
  0
LINE
  5
5F
100
AcDbEntity
  8
0
390
0
  6
CONTINUOUS2
 62
     9
100
AcDbLine
 10
6.939569
 20
2.94669
 30
0.0
 11
6.939569
 21
2.656396
 31
0.0
  0
LINE
  5
60
100
AcDbEntity
  8
0
390
0
  6
CONTINUOUS2
 62
     9
100
AcDbLine
 10
6.596754
 20
2.861496
 30
0.0
 11
6.734469
 21
2.861496
 31
0.0
  0
LINE
  5
61
100
AcDbEntity
  8
0
390
0
  6
CONTINUOUS2
 62
     9
100
AcDbLine
 10
6.596848
 20
2.656396
 30
0.0
 11
6.939569
 21
2.656396
 31
0.0
  0
LINE
  5
62
100
AcDbEntity
  8
0
390
0
  6
CONTINUOUS2
 62
     9
100
AcDbLine
 10
7.054469
 20
3.30214
 30
0.0
 11
7.054469
 21
2.541496
 31
0.0
  0
LINE
  5
63
100
AcDbEntity
  8
0
390
0
  6
CONTINUOUS2
 62
     9
100
AcDbLine
 10
7.259569
 20
3.302046
 30
0.0
 11
7.259569
 21
2.336396
 31
0.0
  0
LINE
  5
64
100
AcDbEntity
  8
0
390
0
  6
CONTINUOUS2
 62
     9
100
AcDbLine
 10
6.312109
 20
2.541496
 30
0.0
 11
7.054469
 21
2.541496
 31
0.0
  0
LINE
  5
65
100
AcDbEntity
  8
0
390
0
  6
CONTINUOUS2
 62
     9
100
AcDbLine
 10
6.312203
 20
2.336396
 30
0.0
 11
7.259569
 21
2.336396
 31
0.0
  0
LINE
  5
66
100
AcDbEntity
  8
0
390
0
  6
CONTINUOUS2
 62
     9
100
AcDbLine
 10
4.736345
 20
3.186396
 30
0.0
 11
5.019569
 21
3.186396
 31
0.0
  0
LINE
  5
67
100
AcDbEntity
  8
0
390
0
  6
CONTINUOUS2
 62
     9
100
AcDbLine
 10
4.736251
 20
2.981296
 30
0.0
 11
4.814469
 21
2.981296
 31
0.0
  0
LINE
  5
68
100
AcDbEntity
  8
0
390
0
  6
CONTINUOUS2
 62
     9
100
AcDbLine
 10
4.814469
 20
2.981296
 30
0.0
 11
4.814469
 21
2.850652
 31
0.0
  0
LINE
  5
69
100
AcDbEntity
  8
0
390
0
  6
CONTINUOUS2
 62
     9
100
AcDbLine
 10
5.019569
 20
3.186396
 30
0.0
 11
5.019569
 21
2.850746
 31
0.0
  0
LINE
  5
6A
100
AcDbEntity
  8
0
390
0
  6
CONTINUOUS2
 62
     9
100
AcDbLine
 10
5.129569
 20
3.186396
 30
0.0
 11
5.129569
 21
2.886102
 31
0.0
  0
LINE
  5
6B
100
AcDbEntity
  8
0
390
0
  6
CONTINUOUS2
 62
     9
100
AcDbLine
 10
5.334669
 20
2.981296
 30
0.0
 11
5.334669
 21
2.886007
 31
0.0
  0
LINE
  5
6C
100
AcDbEntity
  8
0
390
0
  6
CONTINUOUS2
 62
     9
100
AcDbLine
 10
5.129569
 20
3.186396
 30
0.0
 11
5.448147
 21
3.186396
 31
0.0
  0
LINE
  5
6D
100
AcDbEntity
  8
0
390
0
  6
CONTINUOUS2
 62
     9
100
AcDbLine
 10
5.334669
 20
2.981296
 30
0.0
 11
5.448241
 21
2.981296
 31
0.0
  0
LINE
  5
6E
100
AcDbEntity
  8
0
390
0
  6
CONTINUOUS2
 62
     9
100
AcDbLine
 10
5.672109
 20
2.541496
 30
0.0
 11
5.792384
 21
2.541496
 31
0.0
  0
LINE
  5
6F
100
AcDbEntity
  8
0
390
0
  6
CONTINUOUS2
 62
     9
100
AcDbLine
 10
5.672203
 20
2.336396
 30
0.0
 11
5.792289
 21
2.336396
 31
0.0
  0
LINE
  5
70
100
AcDbEntity
  8
0
390
0
  6
CONTINUOUS2
 62
     9
100
AcDbLine
 10
5.032109
 20
2.541496
 30
0.0
 11
5.152384
 21
2.541496
 31
0.0
  0
LINE
  5
71
100
AcDbEntity
  8
0
390
0
  6
CONTINUOUS2
 62
     9
100
AcDbLine
 10
5.032203
 20
2.336396
 30
0.0
 11
5.152289
 21
2.336396
 31
0.0
  0
LINE
  5
72
100
AcDbEntity
  8
0
390
0
  6
CONTINUOUS2
 62
     9
100
AcDbLine
 10
4.676754
 20
3.501496
 30
0.0
 11
4.797028
 21
3.501496
 31
0.0
  0
LINE
  5
73
100
AcDbEntity
  8
0
390
0
  6
CONTINUOUS2
 62
     9
100
AcDbLine
 10
4.676848
 20
3.296396
 30
0.0
 11
4.796934
 21
3.296396
 31
0.0
  0
LINE
  5
74
100
AcDbEntity
  8
0
390
0
  6
CONTINUOUS2
 62
     9
100
AcDbLine
 10
5.316754
 20
3.501496
 30
0.0
 11
5.437028
 21
3.501496
 31
0.0
  0
LINE
  5
75
100
AcDbEntity
  8
0
390
0
  6
CONTINUOUS2
 62
     9
100
AcDbLine
 10
5.316848
 20
3.296396
 30
0.0
 11
5.436934
 21
3.296396
 31
0.0
  0
LINE
  5
76
100
AcDbEntity
  8
0
390
0
  6
CONTINUOUS2
 62
     9
100
AcDbLine
 10
4.392109
 20
2.541496
 30
0.0
 11
4.512384
 21
2.541496
 31
0.0
  0
LINE
  5
77
100
AcDbEntity
  8
0
390
0
  6
CONTINUOUS2
 62
     9
100
AcDbLine
 10
4.392203
 20
2.336396
 30
0.0
 11
4.512289
 21
2.336396
 31
0.0
  0
LINE
  5
78
100
AcDbEntity
  8
0
390
0
  6
CONTINUOUS2
 62
     9
100
AcDbLine
 10
3.094669
 20
2.541496
 30
0.0
 11
3.872384
 21
2.541496
 31
0.0
  0
LINE
  5
79
100
AcDbEntity
  8
0
390
0
  6
CONTINUOUS2
 62
     9
100
AcDbLine
 10
2.889569
 20
2.336396
 30
0.0
 11
3.872289
 21
2.336396
 31
0.0
  0
LINE
  5
7A
100
AcDbEntity
  8
0
390
0
  6
CONTINUOUS2
 62
     9
100
AcDbLine
 10
3.414669
 20
2.861496
 30
0.0
 11
3.517028
 21
2.861496
 31
0.0
  0
LINE
  5
7B
100
AcDbEntity
  8
0
390
0
  6
CONTINUOUS2
 62
     9
100
AcDbLine
 10
3.209569
 20
2.656396
 30
0.0
 11
3.516934
 21
2.656396
 31
0.0
  0
LINE
  5
7C
100
AcDbEntity
  8
0
390
0
  6
CONTINUOUS2
 62
     9
100
AcDbLine
 10
3.209569
 20
2.982046
 30
0.0
 11
3.209569
 21
2.656396
 31
0.0
  0
LINE
  5
7D
100
AcDbEntity
  8
0
390
0
  6
CONTINUOUS2
 62
     9
100
AcDbLine
 10
3.414669
 20
2.98214
 30
0.0
 11
3.414669
 21
2.861496
 31
0.0
  0
LINE
  5
7E
100
AcDbEntity
  8
0
390
0
  6
CONTINUOUS2
 62
     9
100
AcDbLine
 10
2.889569
 20
3.26669
 30
0.0
 11
2.889569
 21
2.336396
 31
0.0
  0
LINE
  5
7F
100
AcDbEntity
  8
0
390
0
  6
CONTINUOUS2
 62
     9
100
AcDbLine
 10
3.094669
 20
3.266785
 30
0.0
 11
3.094669
 21
2.541496
 31
0.0
  0
LINE
  5
80
100
AcDbEntity
  8
0
390
0
  6
CONTINUOUS2
 62
     9
100
AcDbLine
 10
2.889569
 20
3.90669
 30
0.0
 11
2.889569
 21
3.810746
 31
0.0
  0
LINE
  5
81
100
AcDbEntity
  8
0
390
0
  6
CONTINUOUS2
 62
     9
100
AcDbLine
 10
3.094669
 20
3.906785
 30
0.0
 11
3.094669
 21
3.810652
 31
0.0
  0
LINE
  5
82
100
AcDbEntity
  8
0
390
0
  6
CONTINUOUS2
 62
     9
100
AcDbLine
 10
3.456345
 20
4.466396
 30
0.0
 11
3.739569
 21
4.466396
 31
0.0
  0
LINE
  5
83
100
AcDbEntity
  8
0
390
0
  6
CONTINUOUS2
 62
     9
100
AcDbLine
 10
3.456251
 20
4.261296
 30
0.0
 11
3.534469
 21
4.261296
 31
0.0
  0
LINE
  5
84
100
AcDbEntity
  8
0
390
0
  6
CONTINUOUS2
 62
     9
100
AcDbLine
 10
3.534469
 20
4.261296
 30
0.0
 11
3.534469
 21
4.130652
 31
0.0
  0
LINE
  5
85
100
AcDbEntity
  8
0
390
0
  6
CONTINUOUS2
 62
     9
100
AcDbLine
 10
3.739569
 20
4.466396
 30
0.0
 11
3.739569
 21
4.130746
 31
0.0
  0
LINE
  5
86
100
AcDbEntity
  8
0
390
0
  6
CONTINUOUS2
 62
     9
100
AcDbLine
 10
3.849569
 20
4.262046
 30
0.0
 11
3.849569
 21
4.166102
 31
0.0
  0
LINE
  5
87
100
AcDbEntity
  8
0
390
0
  6
CONTINUOUS2
 62
     9
100
AcDbLine
 10
4.054669
 20
4.26214
 30
0.0
 11
4.054669
 21
4.166007
 31
0.0
  0
LINE
  5
88
100
AcDbEntity
  8
0
390
0
  6
CONTINUOUS2
 62
     9
100
AcDbLine
 10
2.889569
 20
4.54669
 30
0.0
 11
2.889569
 21
4.450746
 31
0.0
  0
LINE
  5
89
100
AcDbEntity
  8
0
390
0
  6
CONTINUOUS2
 62
     9
100
AcDbLine
 10
3.094669
 20
4.546785
 30
0.0
 11
3.094669
 21
4.450652
 31
0.0
  0
LINE
  5
8A
100
AcDbEntity
  8
0
390
0
  6
CONTINUOUS2
 62
     9
100
AcDbLine
 10
3.534469
 20
4.866785
 30
0.0
 11
3.534469
 21
4.781496
 31
0.0
  0
LINE
  5
8B
100
AcDbEntity
  8
0
390
0
  6
CONTINUOUS2
 62
     9
100
AcDbLine
 10
3.739569
 20
4.86669
 30
0.0
 11
3.739569
 21
4.576396
 31
0.0
  0
LINE
  5
8C
100
AcDbEntity
  8
0
390
0
  6
CONTINUOUS2
 62
     9
100
AcDbLine
 10
3.396754
 20
4.781496
 30
0.0
 11
3.534469
 21
4.781496
 31
0.0
  0
LINE
  5
8D
100
AcDbEntity
  8
0
390
0
  6
CONTINUOUS2
 62
     9
100
AcDbLine
 10
3.396848
 20
4.576396
 30
0.0
 11
3.739569
 21
4.576396
 31
0.0
  0
LINE
  5
8E
100
AcDbEntity
  8
0
390
0
  6
CONTINUOUS2
 62
     9
100
AcDbLine
 10
3.849569
 20
4.902046
 30
0.0
 11
3.849569
 21
4.806102
 31
0.0
  0
LINE
  5
8F
100
AcDbEntity
  8
0
390
0
  6
CONTINUOUS2
 62
     9
100
AcDbLine
 10
4.054669
 20
4.90214
 30
0.0
 11
4.054669
 21
4.806007
 31
0.0
  0
LINE
  5
90
100
AcDbEntity
  8
0
390
0
  6
CONTINUOUS2
 62
     9
100
AcDbLine
 10
3.009569
 20
5.476396
 30
0.0
 11
3.304569
 21
5.771396
 31
0.0
  0
LINE
  5
91
100
AcDbEntity
  8
0
390
0
  6
CONTINUOUS2
 62
     9
100
AcDbLine
 10
3.304569
 20
5.771396
 30
0.0
 11
3.449569
 21
5.626396
 31
0.0
  0
LINE
  5
92
100
AcDbEntity
  8
0
390
0
  6
CONTINUOUS2
 62
     9
100
AcDbLine
 10
3.154569
 20
5.331396
 30
0.0
 11
3.449569
 21
5.626396
 31
0.0
  0
LINE
  5
93
100
AcDbEntity
  8
0
390
0
  6
CONTINUOUS2
 62
     9
100
AcDbLine
 10
3.329569
 20
5.796396
 30
0.0
 11
3.624569
 21
5.501396
 31
0.0
  0
LINE
  5
94
100
AcDbEntity
  8
0
390
0
  6
CONTINUOUS2
 62
     9
100
AcDbLine
 10
3.624569
 20
5.501396
 30
0.0
 11
3.769569
 21
5.646396
 31
0.0
  0
LINE
  5
95
100
AcDbEntity
  8
0
390
0
  6
CONTINUOUS2
 62
     9
100
AcDbLine
 10
3.474569
 20
5.941396
 30
0.0
 11
3.769569
 21
5.646396
 31
0.0
  0
LINE
  5
96
100
AcDbEntity
  8
0
390
0
  6
CONTINUOUS2
 62
     9
100
AcDbLine
 10
3.769569
 20
6.286396
 30
0.0
 11
3.624569
 21
6.141396
 31
0.0
  0
LINE
  5
97
100
AcDbEntity
  8
0
390
0
  6
CONTINUOUS2
 62
     9
100
AcDbLine
 10
3.499569
 20
5.966396
 30
0.0
 11
3.944569
 21
6.411396
 31
0.0
  0
LINE
  5
98
100
AcDbEntity
  8
0
390
0
  6
CONTINUOUS2
 62
     9
100
AcDbLine
 10
3.499569
 20
5.966396
 30
0.0
 11
3.644569
 21
5.821396
 31
0.0
  0
LINE
  5
99
100
AcDbEntity
  8
0
390
0
  6
CONTINUOUS2
 62
     9
100
AcDbLine
 10
3.944569
 20
6.411396
 30
0.0
 11
4.089569
 21
6.266396
 31
0.0
  0
LINE
  5
9A
100
AcDbEntity
  8
0
390
0
  6
CONTINUOUS2
 62
     9
100
AcDbLine
 10
3.644569
 20
5.821396
 30
0.0
 11
4.089569
 21
6.266396
 31
0.0
  0
LINE
  5
9B
100
AcDbEntity
  8
0
390
0
  6
CONTINUOUS2
 62
     9
100
AcDbLine
 10
4.114569
 20
6.581396
 30
0.0
 11
4.409569
 21
6.286396
 31
0.0
  0
LINE
  5
9C
100
AcDbEntity
  8
0
390
0
  6
CONTINUOUS2
 62
     9
100
AcDbLine
 10
4.409569
 20
6.286396
 30
0.0
 11
4.264569
 21
6.141396
 31
0.0
  0
LINE
  5
9D
100
AcDbEntity
  8
0
390
0
  6
CONTINUOUS2
 62
     9
100
AcDbLine
 10
3.969569
 20
6.436396
 30
0.0
 11
4.264569
 21
6.141396
 31
0.0
  0
LINE
  5
9E
100
AcDbEntity
  8
0
390
0
  6
CONTINUOUS2
 62
     9
100
AcDbLine
 10
4.139569
 20
6.606396
 30
0.0
 11
4.284569
 21
6.461396
 31
0.0
  0
LINE
  5
9F
100
AcDbEntity
  8
0
390
0
  6
CONTINUOUS2
 62
     9
100
AcDbLine
 10
4.754569
 20
6.581396
 30
0.0
 11
4.899569
 21
6.436396
 31
0.0
  0
LINE
  5
A0
100
AcDbEntity
  8
0
390
0
  6
CONTINUOUS2
 62
     9
100
AcDbLine
 10
4.609569
 20
6.436396
 30
0.0
 11
4.754569
 21
6.291396
 31
0.0
  0
LINE
  5
A1
100
AcDbEntity
  8
0
390
0
  6
CONTINUOUS2
 62
     9
100
AcDbLine
 10
4.139569
 20
5.966396
 30
0.0
 11
4.584569
 21
6.411396
 31
0.0
  0
LINE
  5
A2
100
AcDbEntity
  8
0
390
0
  6
CONTINUOUS2
 62
     9
100
AcDbLine
 10
4.139569
 20
5.966396
 30
0.0
 11
4.284569
 21
5.821396
 31
0.0
  0
LINE
  5
A3
100
AcDbEntity
  8
0
390
0
  6
CONTINUOUS2
 62
     9
100
AcDbLine
 10
4.584569
 20
6.411396
 30
0.0
 11
4.729569
 21
6.266396
 31
0.0
  0
LINE
  5
A4
100
AcDbEntity
  8
0
390
0
  6
CONTINUOUS2
 62
     9
100
AcDbLine
 10
4.284569
 20
5.821396
 30
0.0
 11
4.729569
 21
6.266396
 31
0.0
  0
LINE
  5
A5
100
AcDbEntity
  8
0
390
0
  6
CONTINUOUS2
 62
     9
100
AcDbLine
 10
4.604569
 20
6.091396
 30
0.0
 11
4.459569
 21
5.946396
 31
0.0
  0
LINE
  5
A6
100
AcDbEntity
  8
0
390
0
  6
CONTINUOUS2
 62
     9
100
AcDbLine
 10
4.779569
 20
6.606396
 30
0.0
 11
4.924569
 21
6.461396
 31
0.0
  0
LINE
  5
A7
100
AcDbEntity
  8
0
390
0
  6
CONTINUOUS2
 62
     9
100
AcDbLine
 10
5.394569
 20
6.581396
 30
0.0
 11
5.689569
 21
6.286396
 31
0.0
  0
LINE
  5
A8
100
AcDbEntity
  8
0
390
0
  6
CONTINUOUS2
 62
     9
100
AcDbLine
 10
5.689569
 20
6.286396
 30
0.0
 11
5.544569
 21
6.141396
 31
0.0
  0
LINE
  5
A9
100
AcDbEntity
  8
0
390
0
  6
CONTINUOUS2
 62
     9
100
AcDbLine
 10
5.249569
 20
6.436396
 30
0.0
 11
5.544569
 21
6.141396
 31
0.0
  0
LINE
  5
AA
100
AcDbEntity
  8
0
390
0
  6
CONTINUOUS2
 62
     9
100
AcDbLine
 10
5.224569
 20
6.411396
 30
0.0
 11
5.369569
 21
6.266396
 31
0.0
  0
LINE
  5
AB
100
AcDbEntity
  8
0
390
0
  6
CONTINUOUS2
 62
     9
100
AcDbLine
 10
5.419569
 20
6.606396
 30
0.0
 11
5.564569
 21
6.461396
 31
0.0
  0
LINE
  5
AC
100
AcDbEntity
  8
0
390
0
  6
CONTINUOUS2
 62
     9
100
AcDbLine
 10
6.009569
 20
6.266396
 30
0.0
 11
5.714569
 21
5.971396
 31
0.0
  0
LINE
  5
AD
100
AcDbEntity
  8
0
390
0
  6
CONTINUOUS2
 62
     9
100
AcDbLine
 10
6.009569
 20
6.266396
 30
0.0
 11
5.864569
 21
6.411396
 31
0.0
  0
LINE
  5
AE
100
AcDbEntity
  8
0
390
0
  6
CONTINUOUS2
 62
     9
100
AcDbLine
 10
5.864569
 20
6.411396
 30
0.0
 11
5.569569
 21
6.116396
 31
0.0
  0
LINE
  5
AF
100
AcDbEntity
  8
0
390
0
  6
CONTINUOUS2
 62
     9
100
AcDbLine
 10
6.034569
 20
6.581396
 30
0.0
 11
6.329569
 21
6.286396
 31
0.0
  0
LINE
  5
B0
100
AcDbEntity
  8
0
390
0
  6
CONTINUOUS2
 62
     9
100
AcDbLine
 10
5.334669
 20
6.061496
 30
0.0
 11
5.437028
 21
6.061496
 31
0.0
  0
LINE
  5
B1
100
AcDbEntity
  8
0
390
0
  6
CONTINUOUS2
 62
     9
100
AcDbLine
 10
5.129569
 20
5.856396
 30
0.0
 11
5.436934
 21
5.856396
 31
0.0
  0
LINE
  5
B2
100
AcDbEntity
  8
0
390
0
  6
CONTINUOUS2
 62
     9
100
AcDbLine
 10
6.329569
 20
6.286396
 30
0.0
 11
6.184569
 21
6.141396
 31
0.0
  0
LINE
  5
B3
100
AcDbEntity
  8
0
390
0
  6
CONTINUOUS2
 62
     9
100
AcDbLine
 10
5.889569
 20
6.436396
 30
0.0
 11
6.184569
 21
6.141396
 31
0.0
  0
LINE
  5
B4
100
AcDbEntity
  8
0
390
0
  6
CONTINUOUS2
 62
     9
100
AcDbLine
 10
6.059569
 20
6.606396
 30
0.0
 11
6.204569
 21
6.461396
 31
0.0
  0
LINE
  5
B5
100
AcDbEntity
  8
0
390
0
  6
CONTINUOUS2
 62
     9
100
AcDbLine
 10
6.354569
 20
6.261396
 30
0.0
 11
6.059569
 21
5.966396
 31
0.0
  0
LINE
  5
B6
100
AcDbEntity
  8
0
390
0
  6
CONTINUOUS2
 62
     9
100
AcDbLine
 10
6.059569
 20
5.966396
 30
0.0
 11
6.204569
 21
5.821396
 31
0.0
  0
LINE
  5
B7
100
AcDbEntity
  8
0
390
0
  6
CONTINUOUS2
 62
     9
100
AcDbLine
 10
6.499569
 20
6.116396
 30
0.0
 11
6.204569
 21
5.821396
 31
0.0
  0
LINE
  5
B8
100
AcDbEntity
  8
0
390
0
  6
CONTINUOUS2
 62
     9
100
AcDbLine
 10
6.699569
 20
5.966396
 30
0.0
 11
6.844569
 21
5.821396
 31
0.0
  0
LINE
  5
B9
100
AcDbEntity
  8
0
390
0
  6
CONTINUOUS2
 62
     9
100
AcDbLine
 10
6.379569
 20
5.946396
 30
0.0
 11
6.824569
 21
5.501396
 31
0.0
  0
LINE
  5
BA
100
AcDbEntity
  8
0
390
0
  6
CONTINUOUS2
 62
     9
100
AcDbLine
 10
6.379569
 20
5.946396
 30
0.0
 11
6.524569
 21
6.091396
 31
0.0
  0
LINE
  5
BB
100
AcDbEntity
  8
0
390
0
  6
CONTINUOUS2
 62
     9
100
AcDbLine
 10
6.824569
 20
5.501396
 30
0.0
 11
6.969569
 21
5.646396
 31
0.0
  0
LINE
  5
BC
100
AcDbEntity
  8
0
390
0
  6
CONTINUOUS2
 62
     9
100
AcDbLine
 10
6.524569
 20
6.091396
 30
0.0
 11
6.969569
 21
5.646396
 31
0.0
  0
LINE
  5
BD
100
AcDbEntity
  8
0
390
0
  6
CONTINUOUS2
 62
     9
100
AcDbLine
 10
7.139569
 20
5.476396
 30
0.0
 11
6.844569
 21
5.181396
 31
0.0
  0
LINE
  5
BE
100
AcDbEntity
  8
0
390
0
  6
CONTINUOUS2
 62
     9
100
AcDbLine
 10
6.844569
 20
5.181396
 30
0.0
 11
6.699569
 21
5.326396
 31
0.0
  0
LINE
  5
BF
100
AcDbEntity
  8
0
390
0
  6
CONTINUOUS2
 62
     9
100
AcDbLine
 10
6.994569
 20
5.621396
 30
0.0
 11
6.699569
 21
5.326396
 31
0.0
  0
LINE
  5
C0
100
AcDbEntity
  8
0
390
0
  6
CONTINUOUS2
 62
     9
100
AcDbLine
 10
7.019569
 20
5.306396
 30
0.0
 11
7.164569
 21
5.451396
 31
0.0
  0
LINE
  5
C1
100
AcDbEntity
  8
0
390
0
  6
CONTINUOUS2
 62
     9
100
AcDbLine
 10
5.884569
 20
6.091396
 30
0.0
 11
6.329569
 21
5.646396
 31
0.0
  0
LINE
  5
C2
100
AcDbEntity
  8
0
390
0
  6
CONTINUOUS2
 62
     9
100
AcDbLine
 10
5.884569
 20
6.091396
 30
0.0
 11
5.739569
 21
5.946396
 31
0.0
  0
LINE
  5
C3
100
AcDbEntity
  8
0
390
0
  6
CONTINUOUS2
 62
     9
100
AcDbLine
 10
6.329569
 20
5.646396
 30
0.0
 11
6.184569
 21
5.501396
 31
0.0
  0
LINE
  5
C4
100
AcDbEntity
  8
0
390
0
  6
CONTINUOUS2
 62
     9
100
AcDbLine
 10
5.739569
 20
5.946396
 30
0.0
 11
6.184569
 21
5.501396
 31
0.0
  0
LINE
  5
C5
100
AcDbEntity
  8
0
390
0
  6
CONTINUOUS2
 62
     9
100
AcDbLine
 10
6.059569
 20
5.326396
 30
0.0
 11
6.504569
 21
5.771396
 31
0.0
  0
LINE
  5
C6
100
AcDbEntity
  8
0
390
0
  6
CONTINUOUS2
 62
     9
100
AcDbLine
 10
6.059569
 20
5.326396
 30
0.0
 11
6.204569
 21
5.181396
 31
0.0
  0
LINE
  5
C7
100
AcDbEntity
  8
0
390
0
  6
CONTINUOUS2
 62
     9
100
AcDbLine
 10
6.504569
 20
5.771396
 30
0.0
 11
6.649569
 21
5.626396
 31
0.0
  0
LINE
  5
C8
100
AcDbEntity
  8
0
390
0
  6
CONTINUOUS2
 62
     9
100
AcDbLine
 10
6.204569
 20
5.181396
 30
0.0
 11
6.649569
 21
5.626396
 31
0.0
  0
LINE
  5
C9
100
AcDbEntity
  8
0
390
0
  6
CONTINUOUS2
 62
     9
100
AcDbLine
 10
6.379569
 20
5.306396
 30
0.0
 11
6.824569
 21
4.861396
 31
0.0
  0
LINE
  5
CA
100
AcDbEntity
  8
0
390
0
  6
CONTINUOUS2
 62
     9
100
AcDbLine
 10
6.379569
 20
5.306396
 30
0.0
 11
6.524569
 21
5.451396
 31
0.0
  0
LINE
  5
CB
100
AcDbEntity
  8
0
390
0
  6
CONTINUOUS2
 62
     9
100
AcDbLine
 10
6.824569
 20
4.861396
 30
0.0
 11
6.969569
 21
5.006396
 31
0.0
  0
LINE
  5
CC
100
AcDbEntity
  8
0
390
0
  6
CONTINUOUS2
 62
     9
100
AcDbLine
 10
6.524569
 20
5.451396
 30
0.0
 11
6.969569
 21
5.006396
 31
0.0
  0
LINE
  5
CD
100
AcDbEntity
  8
0
390
0
  6
CONTINUOUS2
 62
     9
100
AcDbLine
 10
6.504569
 20
5.131396
 30
0.0
 11
6.649569
 21
4.986396
 31
0.0
  0
LINE
  5
CE
100
AcDbEntity
  8
0
390
0
  6
CONTINUOUS2
 62
     9
100
AcDbLine
 10
5.884569
 20
5.451396
 30
0.0
 11
6.179569
 21
5.156396
 31
0.0
  0
LINE
  5
CF
100
AcDbEntity
  8
0
390
0
  6
CONTINUOUS2
 62
     9
100
AcDbLine
 10
5.884569
 20
5.451396
 30
0.0
 11
5.739569
 21
5.306396
 31
0.0
  0
LINE
  5
D0
100
AcDbEntity
  8
0
390
0
  6
CONTINUOUS2
 62
     9
100
AcDbLine
 10
5.739569
 20
5.306396
 30
0.0
 11
6.034569
 21
5.011396
 31
0.0
  0
LINE
  5
D1
100
AcDbEntity
  8
0
390
0
  6
CONTINUOUS2
 62
     9
100
AcDbLine
 10
5.689569
 20
5.646396
 30
0.0
 11
5.544569
 21
5.501396
 31
0.0
  0
LINE
  5
D2
100
AcDbEntity
  8
0
390
0
  6
CONTINUOUS2
 62
     9
100
AcDbLine
 10
5.419569
 20
5.326396
 30
0.0
 11
5.864569
 21
5.771396
 31
0.0
  0
LINE
  5
D3
100
AcDbEntity
  8
0
390
0
  6
CONTINUOUS2
 62
     9
100
AcDbLine
 10
5.419569
 20
5.326396
 30
0.0
 11
5.564569
 21
5.181396
 31
0.0
  0
LINE
  5
D4
100
AcDbEntity
  8
0
390
0
  6
CONTINUOUS2
 62
     9
100
AcDbLine
 10
5.864569
 20
5.771396
 30
0.0
 11
6.009569
 21
5.626396
 31
0.0
  0
LINE
  5
D5
100
AcDbEntity
  8
0
390
0
  6
CONTINUOUS2
 62
     9
100
AcDbLine
 10
5.564569
 20
5.181396
 30
0.0
 11
6.009569
 21
5.626396
 31
0.0
  0
LINE
  5
D6
100
AcDbEntity
  8
0
390
0
  6
CONTINUOUS2
 62
     9
100
AcDbLine
 10
6.059569
 20
4.686396
 30
0.0
 11
6.204569
 21
4.541396
 31
0.0
  0
LINE
  5
D7
100
AcDbEntity
  8
0
390
0
  6
CONTINUOUS2
 62
     9
100
AcDbLine
 10
5.884569
 20
4.811396
 30
0.0
 11
6.179569
 21
4.516396
 31
0.0
  0
LINE
  5
D8
100
AcDbEntity
  8
0
390
0
  6
CONTINUOUS2
 62
     9
100
AcDbLine
 10
5.884569
 20
4.811396
 30
0.0
 11
5.739569
 21
4.666396
 31
0.0
  0
LINE
  5
D9
100
AcDbEntity
  8
0
390
0
  6
CONTINUOUS2
 62
     9
100
AcDbLine
 10
5.739569
 20
4.666396
 30
0.0
 11
6.034569
 21
4.371396
 31
0.0
  0
LINE
  5
DA
100
AcDbEntity
  8
0
390
0
  6
CONTINUOUS2
 62
     9
100
AcDbLine
 10
7.139569
 20
4.836396
 30
0.0
 11
6.994569
 21
4.691396
 31
0.0
  0
LINE
  5
DB
100
AcDbEntity
  8
0
390
0
  6
CONTINUOUS2
 62
     9
100
AcDbLine
 10
6.994569
 20
4.981396
 30
0.0
 11
6.849569
 21
4.836396
 31
0.0
  0
LINE
  5
DC
100
AcDbEntity
  8
0
390
0
  6
CONTINUOUS2
 62
     9
100
AcDbLine
 10
7.164569
 20
4.811396
 30
0.0
 11
7.019569
 21
4.666396
 31
0.0
  0
LINE
  5
DD
100
AcDbEntity
  8
0
390
0
  6
CONTINUOUS2
 62
     9
100
AcDbLine
 10
6.969569
 20
4.366396
 30
0.0
 11
6.824569
 21
4.221396
 31
0.0
  0
LINE
  5
DE
100
AcDbEntity
  8
0
390
0
  6
CONTINUOUS2
 62
     9
100
AcDbLine
 10
7.139569
 20
4.196396
 30
0.0
 11
6.844569
 21
3.901396
 31
0.0
  0
LINE
  5
DF
100
AcDbEntity
  8
0
390
0
  6
CONTINUOUS2
 62
     9
100
AcDbLine
 10
6.844569
 20
3.901396
 30
0.0
 11
6.699569
 21
4.046396
 31
0.0
  0
LINE
  5
E0
100
AcDbEntity
  8
0
390
0
  6
CONTINUOUS2
 62
     9
100
AcDbLine
 10
6.994569
 20
4.341396
 30
0.0
 11
6.699569
 21
4.046396
 31
0.0
  0
LINE
  5
E1
100
AcDbEntity
  8
0
390
0
  6
CONTINUOUS2
 62
     9
100
AcDbLine
 10
7.164569
 20
4.171396
 30
0.0
 11
7.019569
 21
4.026396
 31
0.0
  0
LINE
  5
E2
100
AcDbEntity
  8
0
390
0
  6
CONTINUOUS2
 62
     9
100
AcDbLine
 10
6.529569
 20
3.876396
 30
0.0
 11
6.824569
 21
3.581396
 31
0.0
  0
LINE
  5
E3
100
AcDbEntity
  8
0
390
0
  6
CONTINUOUS2
 62
     9
100
AcDbLine
 10
6.824569
 20
3.581396
 30
0.0
 11
6.969569
 21
3.726396
 31
0.0
  0
LINE
  5
E4
100
AcDbEntity
  8
0
390
0
  6
CONTINUOUS2
 62
     9
100
AcDbLine
 10
6.674569
 20
4.021396
 30
0.0
 11
6.969569
 21
3.726396
 31
0.0
  0
LINE
  5
E5
100
AcDbEntity
  8
0
390
0
  6
CONTINUOUS2
 62
     9
100
AcDbLine
 10
6.059569
 20
4.046396
 30
0.0
 11
6.204569
 21
3.901396
 31
0.0
  0
LINE
  5
E6
100
AcDbEntity
  8
0
390
0
  6
CONTINUOUS2
 62
     9
100
AcDbLine
 10
5.884569
 20
4.171396
 30
0.0
 11
6.329569
 21
3.726396
 31
0.0
  0
LINE
  5
E7
100
AcDbEntity
  8
0
390
0
  6
CONTINUOUS2
 62
     9
100
AcDbLine
 10
5.884569
 20
4.171396
 30
0.0
 11
5.739569
 21
4.026396
 31
0.0
  0
LINE
  5
E8
100
AcDbEntity
  8
0
390
0
  6
CONTINUOUS2
 62
     9
100
AcDbLine
 10
6.329569
 20
3.726396
 30
0.0
 11
6.184569
 21
3.581396
 31
0.0
  0
LINE
  5
E9
100
AcDbEntity
  8
0
390
0
  6
CONTINUOUS2
 62
     9
100
AcDbLine
 10
5.739569
 20
4.026396
 30
0.0
 11
6.184569
 21
3.581396
 31
0.0
  0
LINE
  5
EA
100
AcDbEntity
  8
0
390
0
  6
CONTINUOUS2
 62
     9
100
AcDbLine
 10
7.139569
 20
3.556396
 30
0.0
 11
6.844569
 21
3.261396
 31
0.0
  0
LINE
  5
EB
100
AcDbEntity
  8
0
390
0
  6
CONTINUOUS2
 62
     9
100
AcDbLine
 10
6.844569
 20
3.261396
 30
0.0
 11
6.699569
 21
3.406396
 31
0.0
  0
LINE
  5
EC
100
AcDbEntity
  8
0
390
0
  6
CONTINUOUS2
 62
     9
100
AcDbLine
 10
6.994569
 20
3.701396
 30
0.0
 11
6.699569
 21
3.406396
 31
0.0
  0
LINE
  5
ED
100
AcDbEntity
  8
0
390
0
  6
CONTINUOUS2
 62
     9
100
AcDbLine
 10
7.019569
 20
3.386396
 30
0.0
 11
7.164569
 21
3.531396
 31
0.0
  0
LINE
  5
EE
100
AcDbEntity
  8
0
390
0
  6
CONTINUOUS2
 62
     9
100
AcDbLine
 10
6.379569
 20
3.386396
 30
0.0
 11
6.674569
 21
3.091396
 31
0.0
  0
LINE
  5
EF
100
AcDbEntity
  8
0
390
0
  6
CONTINUOUS2
 62
     9
100
AcDbLine
 10
6.379569
 20
3.386396
 30
0.0
 11
6.524569
 21
3.531396
 31
0.0
  0
LINE
  5
F0
100
AcDbEntity
  8
0
390
0
  6
CONTINUOUS2
 62
     9
100
AcDbLine
 10
6.524569
 20
3.531396
 30
0.0
 11
6.819569
 21
3.236396
 31
0.0
  0
LINE
  5
F1
100
AcDbEntity
  8
0
390
0
  6
CONTINUOUS2
 62
     9
100
AcDbLine
 10
6.504569
 20
3.851396
 30
0.0
 11
6.059569
 21
3.406396
 31
0.0
  0
LINE
  5
F2
100
AcDbEntity
  8
0
390
0
  6
CONTINUOUS2
 62
     9
100
AcDbLine
 10
6.504569
 20
3.851396
 30
0.0
 11
6.649569
 21
3.706396
 31
0.0
  0
LINE
  5
F3
100
AcDbEntity
  8
0
390
0
  6
CONTINUOUS2
 62
     9
100
AcDbLine
 10
6.059569
 20
3.406396
 30
0.0
 11
6.204569
 21
3.261396
 31
0.0
  0
LINE
  5
F4
100
AcDbEntity
  8
0
390
0
  6
CONTINUOUS2
 62
     9
100
AcDbLine
 10
6.649569
 20
3.706396
 30
0.0
 11
6.204569
 21
3.261396
 31
0.0
  0
LINE
  5
F5
100
AcDbEntity
  8
0
390
0
  6
CONTINUOUS2
 62
     9
100
AcDbLine
 10
6.379569
 20
2.746396
 30
0.0
 11
6.524569
 21
2.891396
 31
0.0
  0
LINE
  5
F6
100
AcDbEntity
  8
0
390
0
  6
CONTINUOUS2
 62
     9
100
AcDbLine
 10
5.739569
 20
2.746396
 30
0.0
 11
6.034569
 21
2.451396
 31
0.0
  0
LINE
  5
F7
100
AcDbEntity
  8
0
390
0
  6
CONTINUOUS2
 62
     9
100
AcDbLine
 10
5.739569
 20
2.746396
 30
0.0
 11
5.884569
 21
2.891396
 31
0.0
  0
LINE
  5
F8
100
AcDbEntity
  8
0
390
0
  6
CONTINUOUS2
 62
     9
100
AcDbLine
 10
5.884569
 20
2.891396
 30
0.0
 11
6.179569
 21
2.596396
 31
0.0
  0
LINE
  5
F9
100
AcDbEntity
  8
0
390
0
  6
CONTINUOUS2
 62
     9
100
AcDbLine
 10
5.864569
 20
2.571396
 30
0.0
 11
6.009569
 21
2.426396
 31
0.0
  0
LINE
  5
FA
100
AcDbEntity
  8
0
390
0
  6
CONTINUOUS2
 62
     9
100
AcDbLine
 10
6.504569
 20
3.211396
 30
0.0
 11
6.059569
 21
2.766396
 31
0.0
  0
LINE
  5
FB
100
AcDbEntity
  8
0
390
0
  6
CONTINUOUS2
 62
     9
100
AcDbLine
 10
6.504569
 20
3.211396
 30
0.0
 11
6.649569
 21
3.066396
 31
0.0
  0
LINE
  5
FC
100
AcDbEntity
  8
0
390
0
  6
CONTINUOUS2
 62
     9
100
AcDbLine
 10
6.059569
 20
2.766396
 30
0.0
 11
6.204569
 21
2.621396
 31
0.0
  0
LINE
  5
FD
100
AcDbEntity
  8
0
390
0
  6
CONTINUOUS2
 62
     9
100
AcDbLine
 10
6.649569
 20
3.066396
 30
0.0
 11
6.204569
 21
2.621396
 31
0.0
  0
LINE
  5
FE
100
AcDbEntity
  8
0
390
0
  6
CONTINUOUS2
 62
     9
100
AcDbLine
 10
5.884569
 20
3.531396
 30
0.0
 11
6.329569
 21
3.086396
 31
0.0
  0
LINE
  5
FF
100
AcDbEntity
  8
0
390
0
  6
CONTINUOUS2
 62
     9
100
AcDbLine
 10
5.884569
 20
3.531396
 30
0.0
 11
5.739569
 21
3.386396
 31
0.0
  0
LINE
  5
100
100
AcDbEntity
  8
0
390
0
  6
CONTINUOUS2
 62
     9
100
AcDbLine
 10
6.329569
 20
3.086396
 30
0.0
 11
6.184569
 21
2.941396
 31
0.0
  0
LINE
  5
101
100
AcDbEntity
  8
0
390
0
  6
CONTINUOUS2
 62
     9
100
AcDbLine
 10
5.739569
 20
3.386396
 30
0.0
 11
6.184569
 21
2.941396
 31
0.0
  0
LINE
  5
102
100
AcDbEntity
  8
0
390
0
  6
CONTINUOUS2
 62
     9
100
AcDbLine
 10
5.864569
 20
3.211396
 30
0.0
 11
5.419569
 21
2.766396
 31
0.0
  0
LINE
  5
103
100
AcDbEntity
  8
0
390
0
  6
CONTINUOUS2
 62
     9
100
AcDbLine
 10
5.864569
 20
3.211396
 30
0.0
 11
6.009569
 21
3.066396
 31
0.0
  0
LINE
  5
104
100
AcDbEntity
  8
0
390
0
  6
CONTINUOUS2
 62
     9
100
AcDbLine
 10
5.419569
 20
2.766396
 30
0.0
 11
5.564569
 21
2.621396
 31
0.0
  0
LINE
  5
105
100
AcDbEntity
  8
0
390
0
  6
CONTINUOUS2
 62
     9
100
AcDbLine
 10
6.009569
 20
3.066396
 30
0.0
 11
5.564569
 21
2.621396
 31
0.0
  0
LINE
  5
106
100
AcDbEntity
  8
0
390
0
  6
CONTINUOUS2
 62
     9
100
AcDbLine
 10
5.689569
 20
3.086396
 30
0.0
 11
5.544569
 21
2.941396
 31
0.0
  0
LINE
  5
107
100
AcDbEntity
  8
0
390
0
  6
CONTINUOUS2
 62
     9
100
AcDbLine
 10
5.249569
 20
2.596396
 30
0.0
 11
5.394569
 21
2.451396
 31
0.0
  0
LINE
  5
108
100
AcDbEntity
  8
0
390
0
  6
CONTINUOUS2
 62
     9
100
AcDbLine
 10
5.394569
 20
2.741396
 30
0.0
 11
5.539569
 21
2.596396
 31
0.0
  0
LINE
  5
109
100
AcDbEntity
  8
0
390
0
  6
CONTINUOUS2
 62
     9
100
AcDbLine
 10
5.224569
 20
2.571396
 30
0.0
 11
5.369569
 21
2.426396
 31
0.0
  0
LINE
  5
10A
100
AcDbEntity
  8
0
390
0
  6
CONTINUOUS2
 62
     9
100
AcDbLine
 10
4.459569
 20
2.746396
 30
0.0
 11
4.754569
 21
2.451396
 31
0.0
  0
LINE
  5
10B
100
AcDbEntity
  8
0
390
0
  6
CONTINUOUS2
 62
     9
100
AcDbLine
 10
4.459569
 20
2.746396
 30
0.0
 11
4.604569
 21
2.891396
 31
0.0
  0
LINE
  5
10C
100
AcDbEntity
  8
0
390
0
  6
CONTINUOUS2
 62
     9
100
AcDbLine
 10
4.604569
 20
2.891396
 30
0.0
 11
4.899569
 21
2.596396
 31
0.0
  0
LINE
  5
10D
100
AcDbEntity
  8
0
390
0
  6
CONTINUOUS2
 62
     9
100
AcDbLine
 10
4.779569
 20
2.766396
 30
0.0
 11
4.924569
 21
2.621396
 31
0.0
  0
LINE
  5
10E
100
AcDbEntity
  8
0
390
0
  6
CONTINUOUS2
 62
     9
100
AcDbLine
 10
4.584569
 20
2.571396
 30
0.0
 11
4.729569
 21
2.426396
 31
0.0
  0
LINE
  5
10F
100
AcDbEntity
  8
0
390
0
  6
CONTINUOUS2
 62
     9
100
AcDbLine
 10
4.139569
 20
2.766396
 30
0.0
 11
4.434569
 21
3.061396
 31
0.0
  0
LINE
  5
110
100
AcDbEntity
  8
0
390
0
  6
CONTINUOUS2
 62
     9
100
AcDbLine
 10
4.139569
 20
2.766396
 30
0.0
 11
4.284569
 21
2.621396
 31
0.0
  0
LINE
  5
111
100
AcDbEntity
  8
0
390
0
  6
CONTINUOUS2
 62
     9
100
AcDbLine
 10
4.284569
 20
2.621396
 30
0.0
 11
4.579569
 21
2.916396
 31
0.0
  0
LINE
  5
112
100
AcDbEntity
  8
0
390
0
  6
CONTINUOUS2
 62
     9
100
AcDbLine
 10
3.819569
 20
2.746396
 30
0.0
 11
4.114569
 21
2.451396
 31
0.0
  0
LINE
  5
113
100
AcDbEntity
  8
0
390
0
  6
CONTINUOUS2
 62
     9
100
AcDbLine
 10
3.819569
 20
2.746396
 30
0.0
 11
3.964569
 21
2.891396
 31
0.0
  0
LINE
  5
114
100
AcDbEntity
  8
0
390
0
  6
CONTINUOUS2
 62
     9
100
AcDbLine
 10
3.964569
 20
2.891396
 30
0.0
 11
4.259569
 21
2.596396
 31
0.0
  0
LINE
  5
115
100
AcDbEntity
  8
0
390
0
  6
CONTINUOUS2
 62
     9
100
AcDbLine
 10
3.944569
 20
2.571396
 30
0.0
 11
4.089569
 21
2.426396
 31
0.0
  0
LINE
  5
116
100
AcDbEntity
  8
0
390
0
  6
CONTINUOUS2
 62
     9
100
AcDbLine
 10
3.649569
 20
2.916396
 30
0.0
 11
3.944569
 21
3.211396
 31
0.0
  0
LINE
  5
117
100
AcDbEntity
  8
0
390
0
  6
CONTINUOUS2
 62
     9
100
AcDbLine
 10
3.944569
 20
3.211396
 30
0.0
 11
4.089569
 21
3.066396
 31
0.0
  0
LINE
  5
118
100
AcDbEntity
  8
0
390
0
  6
CONTINUOUS2
 62
     9
100
AcDbLine
 10
3.794569
 20
2.771396
 30
0.0
 11
4.089569
 21
3.066396
 31
0.0
  0
LINE
  5
119
100
AcDbEntity
  8
0
390
0
  6
CONTINUOUS2
 62
     9
100
AcDbLine
 10
3.304569
 20
3.211396
 30
0.0
 11
3.449569
 21
3.066396
 31
0.0
  0
LINE
  5
11A
100
AcDbEntity
  8
0
390
0
  6
CONTINUOUS2
 62
     9
100
AcDbLine
 10
3.179569
 20
3.386396
 30
0.0
 11
3.624569
 21
2.941396
 31
0.0
  0
LINE
  5
11B
100
AcDbEntity
  8
0
390
0
  6
CONTINUOUS2
 62
     9
100
AcDbLine
 10
3.179569
 20
3.386396
 30
0.0
 11
3.324569
 21
3.531396
 31
0.0
  0
LINE
  5
11C
100
AcDbEntity
  8
0
390
0
  6
CONTINUOUS2
 62
     9
100
AcDbLine
 10
3.624569
 20
2.941396
 30
0.0
 11
3.769569
 21
3.086396
 31
0.0
  0
LINE
  5
11D
100
AcDbEntity
  8
0
390
0
  6
CONTINUOUS2
 62
     9
100
AcDbLine
 10
3.324569
 20
3.531396
 30
0.0
 11
3.769569
 21
3.086396
 31
0.0
  0
LINE
  5
11E
100
AcDbEntity
  8
0
390
0
  6
CONTINUOUS2
 62
     9
100
AcDbLine
 10
3.009569
 20
3.556396
 30
0.0
 11
3.304569
 21
3.851396
 31
0.0
  0
LINE
  5
11F
100
AcDbEntity
  8
0
390
0
  6
CONTINUOUS2
 62
     9
100
AcDbLine
 10
3.304569
 20
3.851396
 30
0.0
 11
3.449569
 21
3.706396
 31
0.0
  0
LINE
  5
120
100
AcDbEntity
  8
0
390
0
  6
CONTINUOUS2
 62
     9
100
AcDbLine
 10
3.154569
 20
3.411396
 30
0.0
 11
3.449569
 21
3.706396
 31
0.0
  0
LINE
  5
121
100
AcDbEntity
  8
0
390
0
  6
CONTINUOUS2
 62
     9
100
AcDbLine
 10
3.129569
 20
3.726396
 30
0.0
 11
2.984569
 21
3.581396
 31
0.0
  0
LINE
  5
122
100
AcDbEntity
  8
0
390
0
  6
CONTINUOUS2
 62
     9
100
AcDbLine
 10
3.154569
 20
4.341396
 30
0.0
 11
3.009569
 21
4.196396
 31
0.0
  0
LINE
  5
123
100
AcDbEntity
  8
0
390
0
  6
CONTINUOUS2
 62
     9
100
AcDbLine
 10
3.299569
 20
4.196396
 30
0.0
 11
3.154569
 21
4.051396
 31
0.0
  0
LINE
  5
124
100
AcDbEntity
  8
0
390
0
  6
CONTINUOUS2
 62
     9
100
AcDbLine
 10
3.324569
 20
4.171396
 30
0.0
 11
3.769569
 21
3.726396
 31
0.0
  0
LINE
  5
125
100
AcDbEntity
  8
0
390
0
  6
CONTINUOUS2
 62
     9
100
AcDbLine
 10
3.324569
 20
4.171396
 30
0.0
 11
3.179569
 21
4.026396
 31
0.0
  0
LINE
  5
126
100
AcDbEntity
  8
0
390
0
  6
CONTINUOUS2
 62
     9
100
AcDbLine
 10
3.769569
 20
3.726396
 30
0.0
 11
3.624569
 21
3.581396
 31
0.0
  0
LINE
  5
127
100
AcDbEntity
  8
0
390
0
  6
CONTINUOUS2
 62
     9
100
AcDbLine
 10
3.179569
 20
4.026396
 30
0.0
 11
3.624569
 21
3.581396
 31
0.0
  0
LINE
  5
128
100
AcDbEntity
  8
0
390
0
  6
CONTINUOUS2
 62
     9
100
AcDbLine
 10
3.499569
 20
4.046396
 30
0.0
 11
3.644569
 21
3.901396
 31
0.0
  0
LINE
  5
129
100
AcDbEntity
  8
0
390
0
  6
CONTINUOUS2
 62
     9
100
AcDbLine
 10
3.944569
 20
3.851396
 30
0.0
 11
3.499569
 21
3.406396
 31
0.0
  0
LINE
  5
12A
100
AcDbEntity
  8
0
390
0
  6
CONTINUOUS2
 62
     9
100
AcDbLine
 10
3.944569
 20
3.851396
 30
0.0
 11
4.089569
 21
3.706396
 31
0.0
  0
LINE
  5
12B
100
AcDbEntity
  8
0
390
0
  6
CONTINUOUS2
 62
     9
100
AcDbLine
 10
3.499569
 20
3.406396
 30
0.0
 11
3.644569
 21
3.261396
 31
0.0
  0
LINE
  5
12C
100
AcDbEntity
  8
0
390
0
  6
CONTINUOUS2
 62
     9
100
AcDbLine
 10
4.089569
 20
3.706396
 30
0.0
 11
3.644569
 21
3.261396
 31
0.0
  0
LINE
  5
12D
100
AcDbEntity
  8
0
390
0
  6
CONTINUOUS2
 62
     9
100
AcDbLine
 10
3.964569
 20
3.531396
 30
0.0
 11
4.409569
 21
3.086396
 31
0.0
  0
LINE
  5
12E
100
AcDbEntity
  8
0
390
0
  6
CONTINUOUS2
 62
     9
100
AcDbLine
 10
3.964569
 20
3.531396
 30
0.0
 11
3.819569
 21
3.386396
 31
0.0
  0
LINE
  5
12F
100
AcDbEntity
  8
0
390
0
  6
CONTINUOUS2
 62
     9
100
AcDbLine
 10
4.409569
 20
3.086396
 30
0.0
 11
4.264569
 21
2.941396
 31
0.0
  0
LINE
  5
130
100
AcDbEntity
  8
0
390
0
  6
CONTINUOUS2
 62
     9
100
AcDbLine
 10
3.819569
 20
3.386396
 30
0.0
 11
4.264569
 21
2.941396
 31
0.0
  0
LINE
  5
131
100
AcDbEntity
  8
0
390
0
  6
CONTINUOUS2
 62
     9
100
AcDbLine
 10
4.584569
 20
3.851396
 30
0.0
 11
4.139569
 21
3.406396
 31
0.0
  0
LINE
  5
132
100
AcDbEntity
  8
0
390
0
  6
CONTINUOUS2
 62
     9
100
AcDbLine
 10
4.584569
 20
3.851396
 30
0.0
 11
4.729569
 21
3.706396
 31
0.0
  0
LINE
  5
133
100
AcDbEntity
  8
0
390
0
  6
CONTINUOUS2
 62
     9
100
AcDbLine
 10
4.139569
 20
3.406396
 30
0.0
 11
4.284569
 21
3.261396
 31
0.0
  0
LINE
  5
134
100
AcDbEntity
  8
0
390
0
  6
CONTINUOUS2
 62
     9
100
AcDbLine
 10
4.729569
 20
3.706396
 30
0.0
 11
4.284569
 21
3.261396
 31
0.0
  0
LINE
  5
135
100
AcDbEntity
  8
0
390
0
  6
CONTINUOUS2
 62
     9
100
AcDbLine
 10
4.604569
 20
3.531396
 30
0.0
 11
4.459569
 21
3.386396
 31
0.0
  0
LINE
  5
136
100
AcDbEntity
  8
0
390
0
  6
CONTINUOUS2
 62
     9
100
AcDbLine
 10
5.074569
 20
3.411396
 30
0.0
 11
5.369569
 21
3.706396
 31
0.0
  0
LINE
  5
137
100
AcDbEntity
  8
0
390
0
  6
CONTINUOUS2
 62
     9
100
AcDbLine
 10
5.369569
 20
3.706396
 30
0.0
 11
5.224569
 21
3.851396
 31
0.0
  0
LINE
  5
138
100
AcDbEntity
  8
0
390
0
  6
CONTINUOUS2
 62
     9
100
AcDbLine
 10
4.929569
 20
3.556396
 30
0.0
 11
5.224569
 21
3.851396
 31
0.0
  0
LINE
  5
139
100
AcDbEntity
  8
0
390
0
  6
CONTINUOUS2
 62
     9
100
AcDbLine
 10
5.244569
 20
3.531396
 30
0.0
 11
5.099569
 21
3.386396
 31
0.0
  0
LINE
  5
13A
100
AcDbEntity
  8
0
390
0
  6
CONTINUOUS2
 62
     9
100
AcDbLine
 10
4.459569
 20
4.026396
 30
0.0
 11
4.904569
 21
3.581396
 31
0.0
  0
LINE
  5
13B
100
AcDbEntity
  8
0
390
0
  6
CONTINUOUS2
 62
     9
100
AcDbLine
 10
4.459569
 20
4.026396
 30
0.0
 11
4.604569
 21
4.171396
 31
0.0
  0
LINE
  5
13C
100
AcDbEntity
  8
0
390
0
  6
CONTINUOUS2
 62
     9
100
AcDbLine
 10
4.904569
 20
3.581396
 30
0.0
 11
5.049569
 21
3.726396
 31
0.0
  0
LINE
  5
13D
100
AcDbEntity
  8
0
390
0
  6
CONTINUOUS2
 62
     9
100
AcDbLine
 10
4.604569
 20
4.171396
 30
0.0
 11
5.049569
 21
3.726396
 31
0.0
  0
LINE
  5
13E
100
AcDbEntity
  8
0
390
0
  6
CONTINUOUS2
 62
     9
100
AcDbLine
 10
3.969569
 20
3.876396
 30
0.0
 11
4.264569
 21
3.581396
 31
0.0
  0
LINE
  5
13F
100
AcDbEntity
  8
0
390
0
  6
CONTINUOUS2
 62
     9
100
AcDbLine
 10
4.264569
 20
3.581396
 30
0.0
 11
4.409569
 21
3.726396
 31
0.0
  0
LINE
  5
140
100
AcDbEntity
  8
0
390
0
  6
CONTINUOUS2
 62
     9
100
AcDbLine
 10
4.114569
 20
4.021396
 30
0.0
 11
4.409569
 21
3.726396
 31
0.0
  0
LINE
  5
141
100
AcDbEntity
  8
0
390
0
  6
CONTINUOUS2
 62
     9
100
AcDbLine
 10
2.984569
 20
4.221396
 30
0.0
 11
3.129569
 21
4.366396
 31
0.0
  0
LINE
  5
142
100
AcDbEntity
  8
0
390
0
  6
CONTINUOUS2
 62
     9
100
AcDbLine
 10
3.324569
 20
4.811396
 30
0.0
 11
3.179569
 21
4.666396
 31
0.0
  0
LINE
  5
143
100
AcDbEntity
  8
0
390
0
  6
CONTINUOUS2
 62
     9
100
AcDbLine
 10
3.009569
 20
4.836396
 30
0.0
 11
3.304569
 21
5.131396
 31
0.0
  0
LINE
  5
144
100
AcDbEntity
  8
0
390
0
  6
CONTINUOUS2
 62
     9
100
AcDbLine
 10
3.304569
 20
5.131396
 30
0.0
 11
3.449569
 21
4.986396
 31
0.0
  0
LINE
  5
145
100
AcDbEntity
  8
0
390
0
  6
CONTINUOUS2
 62
     9
100
AcDbLine
 10
3.154569
 20
4.691396
 30
0.0
 11
3.449569
 21
4.986396
 31
0.0
  0
LINE
  5
146
100
AcDbEntity
  8
0
390
0
  6
CONTINUOUS2
 62
     9
100
AcDbLine
 10
2.984569
 20
4.861396
 30
0.0
 11
3.129569
 21
5.006396
 31
0.0
  0
LINE
  5
147
100
AcDbEntity
  8
0
390
0
  6
CONTINUOUS2
 62
     9
100
AcDbLine
 10
3.179569
 20
5.306396
 30
0.0
 11
3.474569
 21
5.011396
 31
0.0
  0
LINE
  5
148
100
AcDbEntity
  8
0
390
0
  6
CONTINUOUS2
 62
     9
100
AcDbLine
 10
3.179569
 20
5.306396
 30
0.0
 11
3.324569
 21
5.451396
 31
0.0
  0
LINE
  5
149
100
AcDbEntity
  8
0
390
0
  6
CONTINUOUS2
 62
     9
100
AcDbLine
 10
3.324569
 20
5.451396
 30
0.0
 11
3.619569
 21
5.156396
 31
0.0
  0
LINE
  5
14A
100
AcDbEntity
  8
0
390
0
  6
CONTINUOUS2
 62
     9
100
AcDbLine
 10
3.944569
 20
4.491396
 30
0.0
 11
4.089569
 21
4.346396
 31
0.0
  0
LINE
  5
14B
100
AcDbEntity
  8
0
390
0
  6
CONTINUOUS2
 62
     9
100
AcDbLine
 10
3.969569
 20
4.516396
 30
0.0
 11
4.264569
 21
4.221396
 31
0.0
  0
LINE
  5
14C
100
AcDbEntity
  8
0
390
0
  6
CONTINUOUS2
 62
     9
100
AcDbLine
 10
4.264569
 20
4.221396
 30
0.0
 11
4.409569
 21
4.366396
 31
0.0
  0
LINE
  5
14D
100
AcDbEntity
  8
0
390
0
  6
CONTINUOUS2
 62
     9
100
AcDbLine
 10
4.114569
 20
4.661396
 30
0.0
 11
4.409569
 21
4.366396
 31
0.0
  0
LINE
  5
14E
100
AcDbEntity
  8
0
390
0
  6
CONTINUOUS2
 62
     9
100
AcDbLine
 10
4.139569
 20
4.046396
 30
0.0
 11
4.584569
 21
4.491396
 31
0.0
  0
LINE
  5
14F
100
AcDbEntity
  8
0
390
0
  6
CONTINUOUS2
 62
     9
100
AcDbLine
 10
4.139569
 20
4.046396
 30
0.0
 11
4.284569
 21
3.901396
 31
0.0
  0
LINE
  5
150
100
AcDbEntity
  8
0
390
0
  6
CONTINUOUS2
 62
     9
100
AcDbLine
 10
4.584569
 20
4.491396
 30
0.0
 11
4.729569
 21
4.346396
 31
0.0
  0
LINE
  5
151
100
AcDbEntity
  8
0
390
0
  6
CONTINUOUS2
 62
     9
100
AcDbLine
 10
4.284569
 20
3.901396
 30
0.0
 11
4.729569
 21
4.346396
 31
0.0
  0
LINE
  5
152
100
AcDbEntity
  8
0
390
0
  6
CONTINUOUS2
 62
     9
100
AcDbLine
 10
5.864569
 20
3.851396
 30
0.0
 11
5.569569
 21
3.556396
 31
0.0
  0
LINE
  5
153
100
AcDbEntity
  8
0
390
0
  6
CONTINUOUS2
 62
     9
100
AcDbLine
 10
5.864569
 20
3.851396
 30
0.0
 11
6.009569
 21
3.706396
 31
0.0
  0
LINE
  5
154
100
AcDbEntity
  8
0
390
0
  6
CONTINUOUS2
 62
     9
100
AcDbLine
 10
6.009569
 20
3.706396
 30
0.0
 11
5.714569
 21
3.411396
 31
0.0
  0
LINE
  5
155
100
AcDbEntity
  8
0
390
0
  6
CONTINUOUS2
 62
     9
100
AcDbLine
 10
3.499569
 20
5.326396
 30
0.0
 11
3.944569
 21
5.771396
 31
0.0
  0
LINE
  5
156
100
AcDbEntity
  8
0
390
0
  6
CONTINUOUS2
 62
     9
100
AcDbLine
 10
3.499569
 20
5.326396
 30
0.0
 11
3.644569
 21
5.181396
 31
0.0
  0
LINE
  5
157
100
AcDbEntity
  8
0
390
0
  6
CONTINUOUS2
 62
     9
100
AcDbLine
 10
3.944569
 20
5.771396
 30
0.0
 11
4.089569
 21
5.626396
 31
0.0
  0
LINE
  5
158
100
AcDbEntity
  8
0
390
0
  6
CONTINUOUS2
 62
     9
100
AcDbLine
 10
3.644569
 20
5.181396
 30
0.0
 11
4.089569
 21
5.626396
 31
0.0
  0
LINE
  5
159
100
AcDbEntity
  8
0
390
0
  6
CONTINUOUS2
 62
     9
100
AcDbLine
 10
3.964569
 20
6.091396
 30
0.0
 11
4.409569
 21
5.646396
 31
0.0
  0
LINE
  5
15A
100
AcDbEntity
  8
0
390
0
  6
CONTINUOUS2
 62
     9
100
AcDbLine
 10
3.964569
 20
6.091396
 30
0.0
 11
3.819569
 21
5.946396
 31
0.0
  0
LINE
  5
15B
100
AcDbEntity
  8
0
390
0
  6
CONTINUOUS2
 62
     9
100
AcDbLine
 10
4.409569
 20
5.646396
 30
0.0
 11
4.264569
 21
5.501396
 31
0.0
  0
LINE
  5
15C
100
AcDbEntity
  8
0
390
0
  6
CONTINUOUS2
 62
     9
100
AcDbLine
 10
3.819569
 20
5.946396
 30
0.0
 11
4.264569
 21
5.501396
 31
0.0
  0
LINE
  5
15D
100
AcDbEntity
  8
0
390
0
  6
CONTINUOUS2
 62
     9
100
AcDbLine
 10
3.964569
 20
5.451396
 30
0.0
 11
4.409569
 21
5.006396
 31
0.0
  0
LINE
  5
15E
100
AcDbEntity
  8
0
390
0
  6
CONTINUOUS2
 62
     9
100
AcDbLine
 10
3.964569
 20
5.451396
 30
0.0
 11
3.819569
 21
5.306396
 31
0.0
  0
LINE
  5
15F
100
AcDbEntity
  8
0
390
0
  6
CONTINUOUS2
 62
     9
100
AcDbLine
 10
4.409569
 20
5.006396
 30
0.0
 11
4.264569
 21
4.861396
 31
0.0
  0
LINE
  5
160
100
AcDbEntity
  8
0
390
0
  6
CONTINUOUS2
 62
     9
100
AcDbLine
 10
3.819569
 20
5.306396
 30
0.0
 11
4.264569
 21
4.861396
 31
0.0
  0
LINE
  5
161
100
AcDbEntity
  8
0
390
0
  6
CONTINUOUS2
 62
     9
100
AcDbLine
 10
4.139569
 20
5.326396
 30
0.0
 11
4.434569
 21
5.621396
 31
0.0
  0
LINE
  5
162
100
AcDbEntity
  8
0
390
0
  6
CONTINUOUS2
 62
     9
100
AcDbLine
 10
4.139569
 20
5.326396
 30
0.0
 11
4.284569
 21
5.181396
 31
0.0
  0
LINE
  5
163
100
AcDbEntity
  8
0
390
0
  6
CONTINUOUS2
 62
     9
100
AcDbLine
 10
4.284569
 20
5.181396
 30
0.0
 11
4.579569
 21
5.476396
 31
0.0
  0
LINE
  5
164
100
AcDbEntity
  8
0
390
0
  6
CONTINUOUS2
 62
     9
100
AcDbLine
 10
3.944569
 20
5.131396
 30
0.0
 11
4.089569
 21
4.986396
 31
0.0
  0
LINE
  5
165
100
AcDbEntity
  8
0
390
0
  6
CONTINUOUS2
 62
     9
100
AcDbLine
 10
5.049569
 20
5.646396
 30
0.0
 11
4.904569
 21
5.501396
 31
0.0
  0
LINE
  5
166
100
AcDbEntity
  8
0
390
0
  6
CONTINUOUS2
 62
     9
100
AcDbLine
 10
4.779569
 20
5.326396
 30
0.0
 11
5.074569
 21
5.621396
 31
0.0
  0
LINE
  5
167
100
AcDbEntity
  8
0
390
0
  6
CONTINUOUS2
 62
     9
100
AcDbLine
 10
4.779569
 20
5.326396
 30
0.0
 11
4.924569
 21
5.181396
 31
0.0
  0
LINE
  5
168
100
AcDbEntity
  8
0
390
0
  6
CONTINUOUS2
 62
     9
100
AcDbLine
 10
4.924569
 20
5.181396
 30
0.0
 11
5.219569
 21
5.476396
 31
0.0
  0
LINE
  5
169
100
AcDbEntity
  8
0
390
0
  6
CONTINUOUS2
 62
     9
100
AcDbLine
 10
4.139569
 20
4.686396
 30
0.0
 11
4.584569
 21
5.131396
 31
0.0
  0
LINE
  5
16A
100
AcDbEntity
  8
0
390
0
  6
CONTINUOUS2
 62
     9
100
AcDbLine
 10
4.139569
 20
4.686396
 30
0.0
 11
4.284569
 21
4.541396
 31
0.0
  0
LINE
  5
16B
100
AcDbEntity
  8
0
390
0
  6
CONTINUOUS2
 62
     9
100
AcDbLine
 10
4.584569
 20
5.131396
 30
0.0
 11
4.729569
 21
4.986396
 31
0.0
  0
LINE
  5
16C
100
AcDbEntity
  8
0
390
0
  6
CONTINUOUS2
 62
     9
100
AcDbLine
 10
4.284569
 20
4.541396
 30
0.0
 11
4.729569
 21
4.986396
 31
0.0
  0
LINE
  5
16D
100
AcDbEntity
  8
0
390
0
  6
CONTINUOUS2
 62
     9
100
AcDbLine
 10
4.604569
 20
5.451396
 30
0.0
 11
5.049569
 21
5.006396
 31
0.0
  0
LINE
  5
16E
100
AcDbEntity
  8
0
390
0
  6
CONTINUOUS2
 62
     9
100
AcDbLine
 10
4.604569
 20
5.451396
 30
0.0
 11
4.459569
 21
5.306396
 31
0.0
  0
LINE
  5
16F
100
AcDbEntity
  8
0
390
0
  6
CONTINUOUS2
 62
     9
100
AcDbLine
 10
5.049569
 20
5.006396
 30
0.0
 11
4.904569
 21
4.861396
 31
0.0
  0
LINE
  5
170
100
AcDbEntity
  8
0
390
0
  6
CONTINUOUS2
 62
     9
100
AcDbLine
 10
4.459569
 20
5.306396
 30
0.0
 11
4.904569
 21
4.861396
 31
0.0
  0
LINE
  5
171
100
AcDbEntity
  8
0
390
0
  6
CONTINUOUS2
 62
     9
100
AcDbLine
 10
5.244569
 20
5.451396
 30
0.0
 11
5.689569
 21
5.006396
 31
0.0
  0
LINE
  5
172
100
AcDbEntity
  8
0
390
0
  6
CONTINUOUS2
 62
     9
100
AcDbLine
 10
5.244569
 20
5.451396
 30
0.0
 11
5.099569
 21
5.306396
 31
0.0
  0
LINE
  5
173
100
AcDbEntity
  8
0
390
0
  6
CONTINUOUS2
 62
     9
100
AcDbLine
 10
5.689569
 20
5.006396
 30
0.0
 11
5.544569
 21
4.861396
 31
0.0
  0
LINE
  5
174
100
AcDbEntity
  8
0
390
0
  6
CONTINUOUS2
 62
     9
100
AcDbLine
 10
5.099569
 20
5.306396
 30
0.0
 11
5.544569
 21
4.861396
 31
0.0
  0
LINE
  5
175
100
AcDbEntity
  8
0
390
0
  6
CONTINUOUS2
 62
     9
100
AcDbLine
 10
4.779569
 20
4.686396
 30
0.0
 11
5.224569
 21
5.131396
 31
0.0
  0
LINE
  5
176
100
AcDbEntity
  8
0
390
0
  6
CONTINUOUS2
 62
     9
100
AcDbLine
 10
4.779569
 20
4.686396
 30
0.0
 11
4.924569
 21
4.541396
 31
0.0
  0
LINE
  5
177
100
AcDbEntity
  8
0
390
0
  6
CONTINUOUS2
 62
     9
100
AcDbLine
 10
5.224569
 20
5.131396
 30
0.0
 11
5.369569
 21
4.986396
 31
0.0
  0
LINE
  5
178
100
AcDbEntity
  8
0
390
0
  6
CONTINUOUS2
 62
     9
100
AcDbLine
 10
4.924569
 20
4.541396
 30
0.0
 11
5.369569
 21
4.986396
 31
0.0
  0
LINE
  5
179
100
AcDbEntity
  8
0
390
0
  6
CONTINUOUS2
 62
     9
100
AcDbLine
 10
4.604569
 20
4.811396
 30
0.0
 11
5.049569
 21
4.366396
 31
0.0
  0
LINE
  5
17A
100
AcDbEntity
  8
0
390
0
  6
CONTINUOUS2
 62
     9
100
AcDbLine
 10
4.604569
 20
4.811396
 30
0.0
 11
4.459569
 21
4.666396
 31
0.0
  0
LINE
  5
17B
100
AcDbEntity
  8
0
390
0
  6
CONTINUOUS2
 62
     9
100
AcDbLine
 10
5.049569
 20
4.366396
 30
0.0
 11
4.904569
 21
4.221396
 31
0.0
  0
LINE
  5
17C
100
AcDbEntity
  8
0
390
0
  6
CONTINUOUS2
 62
     9
100
AcDbLine
 10
4.459569
 20
4.666396
 30
0.0
 11
4.904569
 21
4.221396
 31
0.0
  0
LINE
  5
17D
100
AcDbEntity
  8
0
390
0
  6
CONTINUOUS2
 62
     9
100
AcDbLine
 10
5.244569
 20
4.811396
 30
0.0
 11
5.689569
 21
4.366396
 31
0.0
  0
LINE
  5
17E
100
AcDbEntity
  8
0
390
0
  6
CONTINUOUS2
 62
     9
100
AcDbLine
 10
5.244569
 20
4.811396
 30
0.0
 11
5.099569
 21
4.666396
 31
0.0
  0
LINE
  5
17F
100
AcDbEntity
  8
0
390
0
  6
CONTINUOUS2
 62
     9
100
AcDbLine
 10
5.689569
 20
4.366396
 30
0.0
 11
5.544569
 21
4.221396
 31
0.0
  0
LINE
  5
180
100
AcDbEntity
  8
0
390
0
  6
CONTINUOUS2
 62
     9
100
AcDbLine
 10
5.099569
 20
4.666396
 30
0.0
 11
5.544569
 21
4.221396
 31
0.0
  0
LINE
  5
181
100
AcDbEntity
  8
0
390
0
  6
CONTINUOUS2
 62
     9
100
AcDbLine
 10
5.864569
 20
5.131396
 30
0.0
 11
5.419569
 21
4.686396
 31
0.0
  0
LINE
  5
182
100
AcDbEntity
  8
0
390
0
  6
CONTINUOUS2
 62
     9
100
AcDbLine
 10
5.864569
 20
5.131396
 30
0.0
 11
6.009569
 21
4.986396
 31
0.0
  0
LINE
  5
183
100
AcDbEntity
  8
0
390
0
  6
CONTINUOUS2
 62
     9
100
AcDbLine
 10
5.419569
 20
4.686396
 30
0.0
 11
5.564569
 21
4.541396
 31
0.0
  0
LINE
  5
184
100
AcDbEntity
  8
0
390
0
  6
CONTINUOUS2
 62
     9
100
AcDbLine
 10
6.009569
 20
4.986396
 30
0.0
 11
5.564569
 21
4.541396
 31
0.0
  0
LINE
  5
185
100
AcDbEntity
  8
0
390
0
  6
CONTINUOUS2
 62
     9
100
AcDbLine
 10
4.779569
 20
4.046396
 30
0.0
 11
5.224569
 21
4.491396
 31
0.0
  0
LINE
  5
186
100
AcDbEntity
  8
0
390
0
  6
CONTINUOUS2
 62
     9
100
AcDbLine
 10
4.779569
 20
4.046396
 30
0.0
 11
4.924569
 21
3.901396
 31
0.0
  0
LINE
  5
187
100
AcDbEntity
  8
0
390
0
  6
CONTINUOUS2
 62
     9
100
AcDbLine
 10
5.224569
 20
4.491396
 30
0.0
 11
5.369569
 21
4.346396
 31
0.0
  0
LINE
  5
188
100
AcDbEntity
  8
0
390
0
  6
CONTINUOUS2
 62
     9
100
AcDbLine
 10
4.924569
 20
3.901396
 30
0.0
 11
5.369569
 21
4.346396
 31
0.0
  0
LINE
  5
189
100
AcDbEntity
  8
0
390
0
  6
CONTINUOUS2
 62
     9
100
AcDbLine
 10
5.419569
 20
4.046396
 30
0.0
 11
5.864569
 21
4.491396
 31
0.0
  0
LINE
  5
18A
100
AcDbEntity
  8
0
390
0
  6
CONTINUOUS2
 62
     9
100
AcDbLine
 10
5.419569
 20
4.046396
 30
0.0
 11
5.564569
 21
3.901396
 31
0.0
  0
LINE
  5
18B
100
AcDbEntity
  8
0
390
0
  6
CONTINUOUS2
 62
     9
100
AcDbLine
 10
5.864569
 20
4.491396
 30
0.0
 11
6.009569
 21
4.346396
 31
0.0
  0
LINE
  5
18C
100
AcDbEntity
  8
0
390
0
  6
CONTINUOUS2
 62
     9
100
AcDbLine
 10
5.564569
 20
3.901396
 30
0.0
 11
6.009569
 21
4.346396
 31
0.0
  0
LINE
  5
18D
100
AcDbEntity
  8
0
390
0
  6
CONTINUOUS2
 62
     9
100
AcDbLine
 10
5.244569
 20
4.171396
 30
0.0
 11
5.689569
 21
3.726396
 31
0.0
  0
LINE
  5
18E
100
AcDbEntity
  8
0
390
0
  6
CONTINUOUS2
 62
     9
100
AcDbLine
 10
5.244569
 20
4.171396
 30
0.0
 11
5.099569
 21
4.026396
 31
0.0
  0
LINE
  5
18F
100
AcDbEntity
  8
0
390
0
  6
CONTINUOUS2
 62
     9
100
AcDbLine
 10
5.689569
 20
3.726396
 30
0.0
 11
5.544569
 21
3.581396
 31
0.0
  0
LINE
  5
190
100
AcDbEntity
  8
0
390
0
  6
CONTINUOUS2
 62
     9
100
AcDbLine
 10
5.099569
 20
4.026396
 30
0.0
 11
5.544569
 21
3.581396
 31
0.0
  0
ARC
  5
191
100
AcDbEntity
  8
0
390
0
  6
CONTINUOUS2
 62
     9
100
AcDbCircle
 10
3.812886
 20
6.279713
 30
0.0
 40
0.221582
210
0.0
220
0.0
230
1.0
100
AcDbArc
 50
45.0
 51
90.0
  0
ARC
  5
192
100
AcDbEntity
  8
0
390
0
  6
CONTINUOUS2
 62
     9
100
AcDbCircle
 10
3.812792
 20
6.279619
 30
0.0
 40
0.426777
210
0.0
220
0.0
230
1.0
100
AcDbArc
 50
45.0
 51
90.0
  0
ARC
  5
193
100
AcDbEntity
  8
0
390
0
  6
CONTINUOUS2
 62
     9
100
AcDbCircle
 10
4.38099
 20
6.364975
 30
0.0
 40
0.341421
210
0.0
220
0.0
230
1.0
100
AcDbArc
 50
90.0
 51
135.0
  0
ARC
  5
194
100
AcDbEntity
  8
0
390
0
  6
CONTINUOUS2
 62
     9
100
AcDbCircle
 10
4.380896
 20
6.365069
 30
0.0
 40
0.136227
210
0.0
220
0.0
230
1.0
100
AcDbArc
 50
90.0
 51
135.0
  0
ARC
  5
195
100
AcDbEntity
  8
0
390
0
  6
CONTINUOUS2
 62
     9
100
AcDbCircle
 10
3.528147
 20
6.044975
 30
0.0
 40
0.341421
210
0.0
220
0.0
230
1.0
100
AcDbArc
 50
45.0
 51
90.0
  0
ARC
  5
196
100
AcDbEntity
  8
0
390
0
  6
CONTINUOUS2
 62
     9
100
AcDbCircle
 10
3.528241
 20
6.045069
 30
0.0
 40
0.136227
210
0.0
220
0.0
230
1.0
100
AcDbArc
 50
45.0
 51
90.0
  0
ARC
  5
197
100
AcDbEntity
  8
0
390
0
  6
CONTINUOUS2
 62
     9
100
AcDbCircle
 10
3.61918
 20
6.086007
 30
0.0
 40
0.204511
210
0.0
220
0.0
230
1.0
100
AcDbArc
 50
180.0
 51
225.0
  0
ARC
  5
198
100
AcDbEntity
  8
0
390
0
  6
CONTINUOUS2
 62
     9
100
AcDbCircle
 10
3.619274
 20
6.086102
 30
0.0
 40
0.409706
210
0.0
220
0.0
230
1.0
100
AcDbArc
 50
180.0
 51
225.0
  0
ARC
  5
199
100
AcDbEntity
  8
0
390
0
  6
CONTINUOUS2
 62
     9
100
AcDbCircle
 10
3.213825
 20
5.730652
 30
0.0
 40
0.119156
210
0.0
220
0.0
230
1.0
100
AcDbArc
 50
180.0
 51
225.0
  0
ARC
  5
19A
100
AcDbEntity
  8
0
390
0
  6
CONTINUOUS2
 62
     9
100
AcDbCircle
 10
3.213919
 20
5.730746
 30
0.0
 40
0.32435
210
0.0
220
0.0
230
1.0
100
AcDbArc
 50
180.0
 51
225.0
  0
ARC
  5
19B
100
AcDbEntity
  8
0
390
0
  6
CONTINUOUS2
 62
     9
100
AcDbCircle
 10
4.452792
 20
6.279619
 30
0.0
 40
0.426777
210
0.0
220
0.0
230
1.0
100
AcDbArc
 50
45.0
 51
90.0
  0
ARC
  5
19C
100
AcDbEntity
  8
0
390
0
  6
CONTINUOUS2
 62
     9
100
AcDbCircle
 10
4.452886
 20
6.279713
 30
0.0
 40
0.221582
210
0.0
220
0.0
230
1.0
100
AcDbArc
 50
45.0
 51
90.0
  0
ARC
  5
19D
100
AcDbEntity
  8
0
390
0
  6
CONTINUOUS2
 62
     9
100
AcDbCircle
 10
5.02099
 20
6.364975
 30
0.0
 40
0.341421
210
0.0
220
0.0
230
1.0
100
AcDbArc
 50
90.0
 51
135.0
  0
ARC
  5
19E
100
AcDbEntity
  8
0
390
0
  6
CONTINUOUS2
 62
     9
100
AcDbCircle
 10
5.020896
 20
6.365069
 30
0.0
 40
0.136227
210
0.0
220
0.0
230
1.0
100
AcDbArc
 50
90.0
 51
135.0
  0
ARC
  5
19F
100
AcDbEntity
  8
0
390
0
  6
CONTINUOUS2
 62
     9
100
AcDbCircle
 10
4.609863
 20
6.14669
 30
0.0
 40
0.409706
210
0.0
220
0.0
230
1.0
100
AcDbArc
 50
0.0
 51
45.0
  0
ARC
  5
1A0
100
AcDbEntity
  8
0
390
0
  6
CONTINUOUS2
 62
     9
100
AcDbCircle
 10
4.609957
 20
6.146785
 30
0.0
 40
0.204511
210
0.0
220
0.0
230
1.0
100
AcDbArc
 50
0.0
 51
45.0
  0
ARC
  5
1A1
100
AcDbEntity
  8
0
390
0
  6
CONTINUOUS2
 62
     9
100
AcDbCircle
 10
4.676754
 20
6.163581
 30
0.0
 40
0.102085
210
0.0
220
0.0
230
1.0
100
AcDbArc
 50
225.0
 51
270.0
  0
ARC
  5
1A2
100
AcDbEntity
  8
0
390
0
  6
CONTINUOUS2
 62
     9
100
AcDbCircle
 10
4.676848
 20
6.163675
 30
0.0
 40
0.307279
210
0.0
220
0.0
230
1.0
100
AcDbArc
 50
225.0
 51
270.0
  0
ARC
  5
1A3
100
AcDbEntity
  8
0
390
0
  6
CONTINUOUS2
 62
     9
100
AcDbCircle
 10
5.092792
 20
6.279619
 30
0.0
 40
0.426777
210
0.0
220
0.0
230
1.0
100
AcDbArc
 50
45.0
 51
90.0
  0
ARC
  5
1A4
100
AcDbEntity
  8
0
390
0
  6
CONTINUOUS2
 62
     9
100
AcDbCircle
 10
5.092886
 20
6.279713
 30
0.0
 40
0.221582
210
0.0
220
0.0
230
1.0
100
AcDbArc
 50
45.0
 51
90.0
  0
ARC
  5
1A5
100
AcDbEntity
  8
0
390
0
  6
CONTINUOUS2
 62
     9
100
AcDbCircle
 10
5.66099
 20
6.364975
 30
0.0
 40
0.341421
210
0.0
220
0.0
230
1.0
100
AcDbArc
 50
90.0
 51
135.0
  0
ARC
  5
1A6
100
AcDbEntity
  8
0
390
0
  6
CONTINUOUS2
 62
     9
100
AcDbCircle
 10
5.660896
 20
6.365069
 30
0.0
 40
0.136227
210
0.0
220
0.0
230
1.0
100
AcDbArc
 50
90.0
 51
135.0
  0
ARC
  5
1A7
100
AcDbEntity
  8
0
390
0
  6
CONTINUOUS2
 62
     9
100
AcDbCircle
 10
5.453919
 20
6.182046
 30
0.0
 40
0.32435
210
0.0
220
0.0
230
1.0
100
AcDbArc
 50
135.0
 51
180.0
  0
ARC
  5
1A8
100
AcDbEntity
  8
0
390
0
  6
CONTINUOUS2
 62
     9
100
AcDbCircle
 10
5.453825
 20
6.18214
 30
0.0
 40
0.119156
210
0.0
220
0.0
230
1.0
100
AcDbArc
 50
135.0
 51
180.0
  0
ARC
  5
1A9
100
AcDbEntity
  8
0
390
0
  6
CONTINUOUS2
 62
     9
100
AcDbCircle
 10
5.437028
 20
6.248936
 30
0.0
 40
0.18744
210
0.0
220
0.0
230
1.0
100
AcDbArc
 50
270.0
 51
315.0
  0
ARC
  5
1AA
100
AcDbEntity
  8
0
390
0
  6
CONTINUOUS2
 62
     9
100
AcDbCircle
 10
5.436934
 20
6.24903
 30
0.0
 40
0.392635
210
0.0
220
0.0
230
1.0
100
AcDbArc
 50
270.0
 51
315.0
  0
ARC
  5
1AB
100
AcDbEntity
  8
0
390
0
  6
CONTINUOUS2
 62
     9
100
AcDbCircle
 10
5.732792
 20
6.279619
 30
0.0
 40
0.426777
210
0.0
220
0.0
230
1.0
100
AcDbArc
 50
45.0
 51
90.0
  0
ARC
  5
1AC
100
AcDbEntity
  8
0
390
0
  6
CONTINUOUS2
 62
     9
100
AcDbCircle
 10
5.732886
 20
6.279713
 30
0.0
 40
0.221582
210
0.0
220
0.0
230
1.0
100
AcDbArc
 50
45.0
 51
90.0
  0
ARC
  5
1AD
100
AcDbEntity
  8
0
390
0
  6
CONTINUOUS2
 62
     9
100
AcDbCircle
 10
6.30099
 20
6.364975
 30
0.0
 40
0.341421
210
0.0
220
0.0
230
1.0
100
AcDbArc
 50
90.0
 51
135.0
  0
ARC
  5
1AE
100
AcDbEntity
  8
0
390
0
  6
CONTINUOUS2
 62
     9
100
AcDbCircle
 10
6.300896
 20
6.365069
 30
0.0
 40
0.136227
210
0.0
220
0.0
230
1.0
100
AcDbArc
 50
90.0
 51
135.0
  0
ARC
  5
1AF
100
AcDbEntity
  8
0
390
0
  6
CONTINUOUS2
 62
     9
100
AcDbCircle
 10
6.656345
 20
5.959619
 30
0.0
 40
0.426777
210
0.0
220
0.0
230
1.0
100
AcDbArc
 50
90.0
 51
135.0
  0
ARC
  5
1B0
100
AcDbEntity
  8
0
390
0
  6
CONTINUOUS2
 62
     9
100
AcDbCircle
 10
6.656251
 20
5.959713
 30
0.0
 40
0.221582
210
0.0
220
0.0
230
1.0
100
AcDbArc
 50
90.0
 51
135.0
  0
ARC
  5
1B1
100
AcDbEntity
  8
0
390
0
  6
CONTINUOUS2
 62
     9
100
AcDbCircle
 10
6.615312
 20
6.050652
 30
0.0
 40
0.119156
210
0.0
220
0.0
230
1.0
100
AcDbArc
 50
315.0
 51
360.0
  0
ARC
  5
1B2
100
AcDbEntity
  8
0
390
0
  6
CONTINUOUS2
 62
     9
100
AcDbCircle
 10
6.615218
 20
6.050746
 30
0.0
 40
0.32435
210
0.0
220
0.0
230
1.0
100
AcDbArc
 50
315.0
 51
360.0
  0
ARC
  5
1B3
100
AcDbEntity
  8
0
390
0
  6
CONTINUOUS2
 62
     9
100
AcDbCircle
 10
6.849957
 20
5.766007
 30
0.0
 40
0.204511
210
0.0
220
0.0
230
1.0
100
AcDbArc
 50
315.0
 51
360.0
  0
ARC
  5
1B4
100
AcDbEntity
  8
0
390
0
  6
CONTINUOUS2
 62
     9
100
AcDbCircle
 10
6.849863
 20
5.766102
 30
0.0
 40
0.409706
210
0.0
220
0.0
230
1.0
100
AcDbArc
 50
315.0
 51
360.0
  0
ARC
  5
1B5
100
AcDbEntity
  8
0
390
0
  6
CONTINUOUS2
 62
     9
100
AcDbCircle
 10
6.935312
 20
5.22214
 30
0.0
 40
0.119156
210
0.0
220
0.0
230
1.0
100
AcDbArc
 50
0.0
 51
45.0
  0
ARC
  5
1B6
100
AcDbEntity
  8
0
390
0
  6
CONTINUOUS2
 62
     9
100
AcDbCircle
 10
6.935218
 20
5.222046
 30
0.0
 40
0.32435
210
0.0
220
0.0
230
1.0
100
AcDbArc
 50
0.0
 51
45.0
  0
ARC
  5
1B7
100
AcDbEntity
  8
0
390
0
  6
CONTINUOUS2
 62
     9
100
AcDbCircle
 10
6.849957
 20
5.126007
 30
0.0
 40
0.204511
210
0.0
220
0.0
230
1.0
100
AcDbArc
 50
315.0
 51
360.0
  0
ARC
  5
1B8
100
AcDbEntity
  8
0
390
0
  6
CONTINUOUS2
 62
     9
100
AcDbCircle
 10
6.849863
 20
5.126102
 30
0.0
 40
0.409706
210
0.0
220
0.0
230
1.0
100
AcDbArc
 50
315.0
 51
360.0
  0
ARC
  5
1B9
100
AcDbEntity
  8
0
390
0
  6
CONTINUOUS2
 62
     9
100
AcDbCircle
 10
6.717028
 20
4.968936
 30
0.0
 40
0.18744
210
0.0
220
0.0
230
1.0
100
AcDbArc
 50
270.0
 51
315.0
  0
ARC
  5
1BA
100
AcDbEntity
  8
0
390
0
  6
CONTINUOUS2
 62
     9
100
AcDbCircle
 10
6.716934
 20
4.96903
 30
0.0
 40
0.392635
210
0.0
220
0.0
230
1.0
100
AcDbArc
 50
270.0
 51
315.0
  0
ARC
  5
1BB
100
AcDbEntity
  8
0
390
0
  6
CONTINUOUS2
 62
     9
100
AcDbCircle
 10
6.935312
 20
4.58214
 30
0.0
 40
0.119156
210
0.0
220
0.0
230
1.0
100
AcDbArc
 50
0.0
 51
45.0
  0
ARC
  5
1BC
100
AcDbEntity
  8
0
390
0
  6
CONTINUOUS2
 62
     9
100
AcDbCircle
 10
6.935218
 20
4.582046
 30
0.0
 40
0.32435
210
0.0
220
0.0
230
1.0
100
AcDbArc
 50
0.0
 51
45.0
  0
ARC
  5
1BD
100
AcDbEntity
  8
0
390
0
  6
CONTINUOUS2
 62
     9
100
AcDbCircle
 10
6.733919
 20
4.902046
 30
0.0
 40
0.32435
210
0.0
220
0.0
230
1.0
100
AcDbArc
 50
135.0
 51
180.0
  0
ARC
  5
1BE
100
AcDbEntity
  8
0
390
0
  6
CONTINUOUS2
 62
     9
100
AcDbCircle
 10
6.733825
 20
4.90214
 30
0.0
 40
0.119156
210
0.0
220
0.0
230
1.0
100
AcDbArc
 50
135.0
 51
180.0
  0
ARC
  5
1BF
100
AcDbEntity
  8
0
390
0
  6
CONTINUOUS2
 62
     9
100
AcDbCircle
 10
6.849957
 20
4.486007
 30
0.0
 40
0.204511
210
0.0
220
0.0
230
1.0
100
AcDbArc
 50
315.0
 51
360.0
  0
ARC
  5
1C0
100
AcDbEntity
  8
0
390
0
  6
CONTINUOUS2
 62
     9
100
AcDbCircle
 10
6.849863
 20
4.486102
 30
0.0
 40
0.409706
210
0.0
220
0.0
230
1.0
100
AcDbArc
 50
315.0
 51
360.0
  0
ARC
  5
1C1
100
AcDbEntity
  8
0
390
0
  6
CONTINUOUS2
 62
     9
100
AcDbCircle
 10
6.728147
 20
4.124975
 30
0.0
 40
0.341421
210
0.0
220
0.0
230
1.0
100
AcDbArc
 50
45.0
 51
90.0
  0
ARC
  5
1C2
100
AcDbEntity
  8
0
390
0
  6
CONTINUOUS2
 62
     9
100
AcDbCircle
 10
6.728241
 20
4.125069
 30
0.0
 40
0.136227
210
0.0
220
0.0
230
1.0
100
AcDbArc
 50
45.0
 51
90.0
  0
ARC
  5
1C3
100
AcDbEntity
  8
0
390
0
  6
CONTINUOUS2
 62
     9
100
AcDbCircle
 10
6.81918
 20
4.166007
 30
0.0
 40
0.204511
210
0.0
220
0.0
230
1.0
100
AcDbArc
 50
180.0
 51
225.0
  0
ARC
  5
1C4
100
AcDbEntity
  8
0
390
0
  6
CONTINUOUS2
 62
     9
100
AcDbCircle
 10
6.819274
 20
4.166102
 30
0.0
 40
0.409706
210
0.0
220
0.0
230
1.0
100
AcDbArc
 50
180.0
 51
225.0
  0
ARC
  5
1C5
100
AcDbEntity
  8
0
390
0
  6
CONTINUOUS2
 62
     9
100
AcDbCircle
 10
6.935312
 20
3.94214
 30
0.0
 40
0.119156
210
0.0
220
0.0
230
1.0
100
AcDbArc
 50
0.0
 51
45.0
  0
ARC
  5
1C6
100
AcDbEntity
  8
0
390
0
  6
CONTINUOUS2
 62
     9
100
AcDbCircle
 10
6.935218
 20
3.942046
 30
0.0
 40
0.32435
210
0.0
220
0.0
230
1.0
100
AcDbArc
 50
0.0
 51
45.0
  0
ARC
  5
1C7
100
AcDbEntity
  8
0
390
0
  6
CONTINUOUS2
 62
     9
100
AcDbCircle
 10
3.299274
 20
5.18669
 30
0.0
 40
0.409706
210
0.0
220
0.0
230
1.0
100
AcDbArc
 50
135.0
 51
180.0
  0
ARC
  5
1C8
100
AcDbEntity
  8
0
390
0
  6
CONTINUOUS2
 62
     9
100
AcDbCircle
 10
3.29918
 20
5.186785
 30
0.0
 40
0.204511
210
0.0
220
0.0
230
1.0
100
AcDbArc
 50
135.0
 51
180.0
  0
ARC
  5
1C9
100
AcDbEntity
  8
0
390
0
  6
CONTINUOUS2
 62
     9
100
AcDbCircle
 10
3.329863
 20
4.86669
 30
0.0
 40
0.409706
210
0.0
220
0.0
230
1.0
100
AcDbArc
 50
0.0
 51
45.0
  0
ARC
  5
1CA
100
AcDbEntity
  8
0
390
0
  6
CONTINUOUS2
 62
     9
100
AcDbCircle
 10
3.329957
 20
4.866785
 30
0.0
 40
0.204511
210
0.0
220
0.0
230
1.0
100
AcDbArc
 50
0.0
 51
45.0
  0
ARC
  5
1CB
100
AcDbEntity
  8
0
390
0
  6
CONTINUOUS2
 62
     9
100
AcDbCircle
 10
3.396754
 20
4.883581
 30
0.0
 40
0.102085
210
0.0
220
0.0
230
1.0
100
AcDbArc
 50
225.0
 51
270.0
  0
ARC
  5
1CC
100
AcDbEntity
  8
0
390
0
  6
CONTINUOUS2
 62
     9
100
AcDbCircle
 10
3.396848
 20
4.883675
 30
0.0
 40
0.307279
210
0.0
220
0.0
230
1.0
100
AcDbArc
 50
225.0
 51
270.0
  0
ARC
  5
1CD
100
AcDbEntity
  8
0
390
0
  6
CONTINUOUS2
 62
     9
100
AcDbCircle
 10
3.299274
 20
4.54669
 30
0.0
 40
0.409706
210
0.0
220
0.0
230
1.0
100
AcDbArc
 50
135.0
 51
180.0
  0
ARC
  5
1CE
100
AcDbEntity
  8
0
390
0
  6
CONTINUOUS2
 62
     9
100
AcDbCircle
 10
3.29918
 20
4.546785
 30
0.0
 40
0.204511
210
0.0
220
0.0
230
1.0
100
AcDbArc
 50
135.0
 51
180.0
  0
ARC
  5
1CF
100
AcDbEntity
  8
0
390
0
  6
CONTINUOUS2
 62
     9
100
AcDbCircle
 10
3.213825
 20
4.450652
 30
0.0
 40
0.119156
210
0.0
220
0.0
230
1.0
100
AcDbArc
 50
180.0
 51
225.0
  0
ARC
  5
1D0
100
AcDbEntity
  8
0
390
0
  6
CONTINUOUS2
 62
     9
100
AcDbCircle
 10
3.213919
 20
4.450746
 30
0.0
 40
0.32435
210
0.0
220
0.0
230
1.0
100
AcDbArc
 50
180.0
 51
225.0
  0
ARC
  5
1D1
100
AcDbEntity
  8
0
390
0
  6
CONTINUOUS2
 62
     9
100
AcDbCircle
 10
3.456345
 20
4.039619
 30
0.0
 40
0.426777
210
0.0
220
0.0
230
1.0
100
AcDbArc
 50
90.0
 51
135.0
  0
ARC
  5
1D2
100
AcDbEntity
  8
0
390
0
  6
CONTINUOUS2
 62
     9
100
AcDbCircle
 10
3.456251
 20
4.039713
 30
0.0
 40
0.221582
210
0.0
220
0.0
230
1.0
100
AcDbArc
 50
90.0
 51
135.0
  0
ARC
  5
1D3
100
AcDbEntity
  8
0
390
0
  6
CONTINUOUS2
 62
     9
100
AcDbCircle
 10
3.299274
 20
3.90669
 30
0.0
 40
0.409706
210
0.0
220
0.0
230
1.0
100
AcDbArc
 50
135.0
 51
180.0
  0
ARC
  5
1D4
100
AcDbEntity
  8
0
390
0
  6
CONTINUOUS2
 62
     9
100
AcDbCircle
 10
3.29918
 20
3.906785
 30
0.0
 40
0.204511
210
0.0
220
0.0
230
1.0
100
AcDbArc
 50
135.0
 51
180.0
  0
ARC
  5
1D5
100
AcDbEntity
  8
0
390
0
  6
CONTINUOUS2
 62
     9
100
AcDbCircle
 10
3.415312
 20
4.130652
 30
0.0
 40
0.119156
210
0.0
220
0.0
230
1.0
100
AcDbArc
 50
315.0
 51
360.0
  0
ARC
  5
1D6
100
AcDbEntity
  8
0
390
0
  6
CONTINUOUS2
 62
     9
100
AcDbCircle
 10
3.415218
 20
4.130746
 30
0.0
 40
0.32435
210
0.0
220
0.0
230
1.0
100
AcDbArc
 50
315.0
 51
360.0
  0
ARC
  5
1D7
100
AcDbEntity
  8
0
390
0
  6
CONTINUOUS2
 62
     9
100
AcDbCircle
 10
3.213825
 20
5.090652
 30
0.0
 40
0.119156
210
0.0
220
0.0
230
1.0
100
AcDbArc
 50
180.0
 51
225.0
  0
ARC
  5
1D8
100
AcDbEntity
  8
0
390
0
  6
CONTINUOUS2
 62
     9
100
AcDbCircle
 10
3.213919
 20
5.090746
 30
0.0
 40
0.32435
210
0.0
220
0.0
230
1.0
100
AcDbArc
 50
180.0
 51
225.0
  0
ARC
  5
1D9
100
AcDbEntity
  8
0
390
0
  6
CONTINUOUS2
 62
     9
100
AcDbCircle
 10
3.213825
 20
3.810652
 30
0.0
 40
0.119156
210
0.0
220
0.0
230
1.0
100
AcDbArc
 50
180.0
 51
225.0
  0
ARC
  5
1DA
100
AcDbEntity
  8
0
390
0
  6
CONTINUOUS2
 62
     9
100
AcDbCircle
 10
3.213919
 20
3.810746
 30
0.0
 40
0.32435
210
0.0
220
0.0
230
1.0
100
AcDbArc
 50
180.0
 51
225.0
  0
ARC
  5
1DB
100
AcDbEntity
  8
0
390
0
  6
CONTINUOUS2
 62
     9
100
AcDbCircle
 10
3.299274
 20
3.26669
 30
0.0
 40
0.409706
210
0.0
220
0.0
230
1.0
100
AcDbArc
 50
135.0
 51
180.0
  0
ARC
  5
1DC
100
AcDbEntity
  8
0
390
0
  6
CONTINUOUS2
 62
     9
100
AcDbCircle
 10
3.29918
 20
3.266785
 30
0.0
 40
0.204511
210
0.0
220
0.0
230
1.0
100
AcDbArc
 50
135.0
 51
180.0
  0
ARC
  5
1DD
100
AcDbEntity
  8
0
390
0
  6
CONTINUOUS2
 62
     9
100
AcDbCircle
 10
3.533919
 20
2.982046
 30
0.0
 40
0.32435
210
0.0
220
0.0
230
1.0
100
AcDbArc
 50
135.0
 51
180.0
  0
ARC
  5
1DE
100
AcDbEntity
  8
0
390
0
  6
CONTINUOUS2
 62
     9
100
AcDbCircle
 10
3.533825
 20
2.98214
 30
0.0
 40
0.119156
210
0.0
220
0.0
230
1.0
100
AcDbArc
 50
135.0
 51
180.0
  0
ARC
  5
1DF
100
AcDbEntity
  8
0
390
0
  6
CONTINUOUS2
 62
     9
100
AcDbCircle
 10
3.517028
 20
3.048936
 30
0.0
 40
0.18744
210
0.0
220
0.0
230
1.0
100
AcDbArc
 50
270.0
 51
315.0
  0
ARC
  5
1E0
100
AcDbEntity
  8
0
390
0
  6
CONTINUOUS2
 62
     9
100
AcDbCircle
 10
3.516934
 20
3.04903
 30
0.0
 40
0.392635
210
0.0
220
0.0
230
1.0
100
AcDbArc
 50
270.0
 51
315.0
  0
ARC
  5
1E1
100
AcDbEntity
  8
0
390
0
  6
CONTINUOUS2
 62
     9
100
AcDbCircle
 10
3.872384
 20
2.643581
 30
0.0
 40
0.102085
210
0.0
220
0.0
230
1.0
100
AcDbArc
 50
270.0
 51
315.0
  0
ARC
  5
1E2
100
AcDbEntity
  8
0
390
0
  6
CONTINUOUS2
 62
     9
100
AcDbCircle
 10
3.872289
 20
2.643675
 30
0.0
 40
0.307279
210
0.0
220
0.0
230
1.0
100
AcDbArc
 50
270.0
 51
315.0
  0
ARC
  5
1E3
100
AcDbEntity
  8
0
390
0
  6
CONTINUOUS2
 62
     9
100
AcDbCircle
 10
4.392109
 20
2.728936
 30
0.0
 40
0.18744
210
0.0
220
0.0
230
1.0
100
AcDbArc
 50
225.0
 51
270.0
  0
ARC
  5
1E4
100
AcDbEntity
  8
0
390
0
  6
CONTINUOUS2
 62
     9
100
AcDbCircle
 10
4.392203
 20
2.72903
 30
0.0
 40
0.392635
210
0.0
220
0.0
230
1.0
100
AcDbArc
 50
225.0
 51
270.0
  0
ARC
  5
1E5
100
AcDbEntity
  8
0
390
0
  6
CONTINUOUS2
 62
     9
100
AcDbCircle
 10
4.512384
 20
2.643581
 30
0.0
 40
0.102085
210
0.0
220
0.0
230
1.0
100
AcDbArc
 50
270.0
 51
315.0
  0
ARC
  5
1E6
100
AcDbEntity
  8
0
390
0
  6
CONTINUOUS2
 62
     9
100
AcDbCircle
 10
4.512289
 20
2.643675
 30
0.0
 40
0.307279
210
0.0
220
0.0
230
1.0
100
AcDbArc
 50
270.0
 51
315.0
  0
ARC
  5
1E7
100
AcDbEntity
  8
0
390
0
  6
CONTINUOUS2
 62
     9
100
AcDbCircle
 10
5.032109
 20
2.728936
 30
0.0
 40
0.18744
210
0.0
220
0.0
230
1.0
100
AcDbArc
 50
225.0
 51
270.0
  0
ARC
  5
1E8
100
AcDbEntity
  8
0
390
0
  6
CONTINUOUS2
 62
     9
100
AcDbCircle
 10
5.032203
 20
2.72903
 30
0.0
 40
0.392635
210
0.0
220
0.0
230
1.0
100
AcDbArc
 50
225.0
 51
270.0
  0
ARC
  5
1E9
100
AcDbEntity
  8
0
390
0
  6
CONTINUOUS2
 62
     9
100
AcDbCircle
 10
4.736345
 20
2.759619
 30
0.0
 40
0.426777
210
0.0
220
0.0
230
1.0
100
AcDbArc
 50
90.0
 51
135.0
  0
ARC
  5
1EA
100
AcDbEntity
  8
0
390
0
  6
CONTINUOUS2
 62
     9
100
AcDbCircle
 10
4.736251
 20
2.759713
 30
0.0
 40
0.221582
210
0.0
220
0.0
230
1.0
100
AcDbArc
 50
90.0
 51
135.0
  0
ARC
  5
1EB
100
AcDbEntity
  8
0
390
0
  6
CONTINUOUS2
 62
     9
100
AcDbCircle
 10
4.695312
 20
2.850652
 30
0.0
 40
0.119156
210
0.0
220
0.0
230
1.0
100
AcDbArc
 50
315.0
 51
360.0
  0
ARC
  5
1EC
100
AcDbEntity
  8
0
390
0
  6
CONTINUOUS2
 62
     9
100
AcDbCircle
 10
4.695218
 20
2.850746
 30
0.0
 40
0.32435
210
0.0
220
0.0
230
1.0
100
AcDbArc
 50
315.0
 51
360.0
  0
ARC
  5
1ED
100
AcDbEntity
  8
0
390
0
  6
CONTINUOUS2
 62
     9
100
AcDbCircle
 10
5.152384
 20
2.643581
 30
0.0
 40
0.102085
210
0.0
220
0.0
230
1.0
100
AcDbArc
 50
270.0
 51
315.0
  0
ARC
  5
1EE
100
AcDbEntity
  8
0
390
0
  6
CONTINUOUS2
 62
     9
100
AcDbCircle
 10
5.152289
 20
2.643675
 30
0.0
 40
0.307279
210
0.0
220
0.0
230
1.0
100
AcDbArc
 50
270.0
 51
315.0
  0
ARC
  5
1EF
100
AcDbEntity
  8
0
390
0
  6
CONTINUOUS2
 62
     9
100
AcDbCircle
 10
5.539274
 20
2.886102
 30
0.0
 40
0.409706
210
0.0
220
0.0
230
1.0
100
AcDbArc
 50
180.0
 51
225.0
  0
ARC
  5
1F0
100
AcDbEntity
  8
0
390
0
  6
CONTINUOUS2
 62
     9
100
AcDbCircle
 10
5.53918
 20
2.886007
 30
0.0
 40
0.204511
210
0.0
220
0.0
230
1.0
100
AcDbArc
 50
180.0
 51
225.0
  0
ARC
  5
1F1
100
AcDbEntity
  8
0
390
0
  6
CONTINUOUS2
 62
     9
100
AcDbCircle
 10
5.672109
 20
2.728936
 30
0.0
 40
0.18744
210
0.0
220
0.0
230
1.0
100
AcDbArc
 50
225.0
 51
270.0
  0
ARC
  5
1F2
100
AcDbEntity
  8
0
390
0
  6
CONTINUOUS2
 62
     9
100
AcDbCircle
 10
5.672203
 20
2.72903
 30
0.0
 40
0.392635
210
0.0
220
0.0
230
1.0
100
AcDbArc
 50
225.0
 51
270.0
  0
ARC
  5
1F3
100
AcDbEntity
  8
0
390
0
  6
CONTINUOUS2
 62
     9
100
AcDbCircle
 10
5.792384
 20
2.643581
 30
0.0
 40
0.102085
210
0.0
220
0.0
230
1.0
100
AcDbArc
 50
270.0
 51
315.0
  0
ARC
  5
1F4
100
AcDbEntity
  8
0
390
0
  6
CONTINUOUS2
 62
     9
100
AcDbCircle
 10
5.792289
 20
2.643675
 30
0.0
 40
0.307279
210
0.0
220
0.0
230
1.0
100
AcDbArc
 50
270.0
 51
315.0
  0
ARC
  5
1F5
100
AcDbEntity
  8
0
390
0
  6
CONTINUOUS2
 62
     9
100
AcDbCircle
 10
5.448147
 20
2.844975
 30
0.0
 40
0.341421
210
0.0
220
0.0
230
1.0
100
AcDbArc
 50
45.0
 51
90.0
  0
ARC
  5
1F6
100
AcDbEntity
  8
0
390
0
  6
CONTINUOUS2
 62
     9
100
AcDbCircle
 10
5.448241
 20
2.845069
 30
0.0
 40
0.136227
210
0.0
220
0.0
230
1.0
100
AcDbArc
 50
45.0
 51
90.0
  0
ARC
  5
1F7
100
AcDbEntity
  8
0
390
0
  6
CONTINUOUS2
 62
     9
100
AcDbCircle
 10
6.312109
 20
2.728936
 30
0.0
 40
0.18744
210
0.0
220
0.0
230
1.0
100
AcDbArc
 50
225.0
 51
270.0
  0
ARC
  5
1F8
100
AcDbEntity
  8
0
390
0
  6
CONTINUOUS2
 62
     9
100
AcDbCircle
 10
6.312203
 20
2.72903
 30
0.0
 40
0.392635
210
0.0
220
0.0
230
1.0
100
AcDbArc
 50
225.0
 51
270.0
  0
ARC
  5
1F9
100
AcDbEntity
  8
0
390
0
  6
CONTINUOUS2
 62
     9
100
AcDbCircle
 10
6.596754
 20
2.963581
 30
0.0
 40
0.102085
210
0.0
220
0.0
230
1.0
100
AcDbArc
 50
225.0
 51
270.0
  0
ARC
  5
1FA
100
AcDbEntity
  8
0
390
0
  6
CONTINUOUS2
 62
     9
100
AcDbCircle
 10
6.596848
 20
2.963675
 30
0.0
 40
0.307279
210
0.0
220
0.0
230
1.0
100
AcDbArc
 50
225.0
 51
270.0
  0
ARC
  5
1FB
100
AcDbEntity
  8
0
390
0
  6
CONTINUOUS2
 62
     9
100
AcDbCircle
 10
6.529863
 20
2.94669
 30
0.0
 40
0.409706
210
0.0
220
0.0
230
1.0
100
AcDbArc
 50
0.0
 51
45.0
  0
ARC
  5
1FC
100
AcDbEntity
  8
0
390
0
  6
CONTINUOUS2
 62
     9
100
AcDbCircle
 10
6.529957
 20
2.946785
 30
0.0
 40
0.204511
210
0.0
220
0.0
230
1.0
100
AcDbArc
 50
0.0
 51
45.0
  0
ARC
  5
1FD
100
AcDbEntity
  8
0
390
0
  6
CONTINUOUS2
 62
     9
100
AcDbCircle
 10
6.935218
 20
3.302046
 30
0.0
 40
0.32435
210
0.0
220
0.0
230
1.0
100
AcDbArc
 50
0.0
 51
45.0
  0
ARC
  5
1FE
100
AcDbEntity
  8
0
390
0
  6
CONTINUOUS2
 62
     9
100
AcDbCircle
 10
6.935312
 20
3.30214
 30
0.0
 40
0.119156
210
0.0
220
0.0
230
1.0
100
AcDbArc
 50
0.0
 51
45.0
  0
ARC
  5
1FF
100
AcDbEntity
  8
0
390
0
  6
CONTINUOUS2
 62
     9
100
AcDbCircle
 10
6.849957
 20
3.846007
 30
0.0
 40
0.204511
210
0.0
220
0.0
230
1.0
100
AcDbArc
 50
315.0
 51
360.0
  0
ARC
  5
200
100
AcDbEntity
  8
0
390
0
  6
CONTINUOUS2
 62
     9
100
AcDbCircle
 10
6.849863
 20
3.846102
 30
0.0
 40
0.409706
210
0.0
220
0.0
230
1.0
100
AcDbArc
 50
315.0
 51
360.0
  0
ARC
  5
201
100
AcDbEntity
  8
0
390
0
  6
CONTINUOUS2
 62
     9
100
AcDbCircle
 10
4.736345
 20
5.319619
 30
0.0
 40
0.426777
210
0.0
220
0.0
230
1.0
100
AcDbArc
 50
90.0
 51
135.0
  0
ARC
  5
202
100
AcDbEntity
  8
0
390
0
  6
CONTINUOUS2
 62
     9
100
AcDbCircle
 10
4.736251
 20
5.319713
 30
0.0
 40
0.221582
210
0.0
220
0.0
230
1.0
100
AcDbArc
 50
90.0
 51
135.0
  0
ARC
  5
203
100
AcDbEntity
  8
0
390
0
  6
CONTINUOUS2
 62
     9
100
AcDbCircle
 10
4.808147
 20
5.404975
 30
0.0
 40
0.341421
210
0.0
220
0.0
230
1.0
100
AcDbArc
 50
45.0
 51
90.0
  0
ARC
  5
204
100
AcDbEntity
  8
0
390
0
  6
CONTINUOUS2
 62
     9
100
AcDbCircle
 10
4.808241
 20
5.405069
 30
0.0
 40
0.136227
210
0.0
220
0.0
230
1.0
100
AcDbArc
 50
45.0
 51
90.0
  0
ARC
  5
205
100
AcDbEntity
  8
0
390
0
  6
CONTINUOUS2
 62
     9
100
AcDbCircle
 10
5.376345
 20
5.319619
 30
0.0
 40
0.426777
210
0.0
220
0.0
230
1.0
100
AcDbArc
 50
90.0
 51
135.0
  0
ARC
  5
206
100
AcDbEntity
  8
0
390
0
  6
CONTINUOUS2
 62
     9
100
AcDbCircle
 10
5.376251
 20
5.319713
 30
0.0
 40
0.221582
210
0.0
220
0.0
230
1.0
100
AcDbArc
 50
90.0
 51
135.0
  0
ARC
  5
207
100
AcDbEntity
  8
0
390
0
  6
CONTINUOUS2
 62
     9
100
AcDbCircle
 10
5.448241
 20
5.405069
 30
0.0
 40
0.136227
210
0.0
220
0.0
230
1.0
100
AcDbArc
 50
45.0
 51
90.0
  0
ARC
  5
208
100
AcDbEntity
  8
0
390
0
  6
CONTINUOUS2
 62
     9
100
AcDbCircle
 10
5.448147
 20
5.404975
 30
0.0
 40
0.341421
210
0.0
220
0.0
230
1.0
100
AcDbArc
 50
45.0
 51
90.0
  0
ARC
  5
209
100
AcDbEntity
  8
0
390
0
  6
CONTINUOUS2
 62
     9
100
AcDbCircle
 10
5.889863
 20
4.86669
 30
0.0
 40
0.409706
210
0.0
220
0.0
230
1.0
100
AcDbArc
 50
0.0
 51
45.0
  0
ARC
  5
20A
100
AcDbEntity
  8
0
390
0
  6
CONTINUOUS2
 62
     9
100
AcDbCircle
 10
5.889957
 20
4.866785
 30
0.0
 40
0.204511
210
0.0
220
0.0
230
1.0
100
AcDbArc
 50
0.0
 51
45.0
  0
ARC
  5
20B
100
AcDbEntity
  8
0
390
0
  6
CONTINUOUS2
 62
     9
100
AcDbCircle
 10
5.975312
 20
4.770652
 30
0.0
 40
0.119156
210
0.0
220
0.0
230
1.0
100
AcDbArc
 50
315.0
 51
360.0
  0
ARC
  5
20C
100
AcDbEntity
  8
0
390
0
  6
CONTINUOUS2
 62
     9
100
AcDbCircle
 10
5.975218
 20
4.770746
 30
0.0
 40
0.32435
210
0.0
220
0.0
230
1.0
100
AcDbArc
 50
315.0
 51
360.0
  0
ARC
  5
20D
100
AcDbEntity
  8
0
390
0
  6
CONTINUOUS2
 62
     9
100
AcDbCircle
 10
5.889863
 20
4.22669
 30
0.0
 40
0.409706
210
0.0
220
0.0
230
1.0
100
AcDbArc
 50
0.0
 51
45.0
  0
ARC
  5
20E
100
AcDbEntity
  8
0
390
0
  6
CONTINUOUS2
 62
     9
100
AcDbCircle
 10
5.889957
 20
4.226785
 30
0.0
 40
0.204511
210
0.0
220
0.0
230
1.0
100
AcDbArc
 50
0.0
 51
45.0
  0
ARC
  5
20F
100
AcDbEntity
  8
0
390
0
  6
CONTINUOUS2
 62
     9
100
AcDbCircle
 10
5.975312
 20
4.130652
 30
0.0
 40
0.119156
210
0.0
220
0.0
230
1.0
100
AcDbArc
 50
315.0
 51
360.0
  0
ARC
  5
210
100
AcDbEntity
  8
0
390
0
  6
CONTINUOUS2
 62
     9
100
AcDbCircle
 10
5.975218
 20
4.130746
 30
0.0
 40
0.32435
210
0.0
220
0.0
230
1.0
100
AcDbArc
 50
315.0
 51
360.0
  0
ARC
  5
211
100
AcDbEntity
  8
0
390
0
  6
CONTINUOUS2
 62
     9
100
AcDbCircle
 10
5.437028
 20
3.688936
 30
0.0
 40
0.18744
210
0.0
220
0.0
230
1.0
100
AcDbArc
 50
270.0
 51
315.0
  0
ARC
  5
212
100
AcDbEntity
  8
0
390
0
  6
CONTINUOUS2
 62
     9
100
AcDbCircle
 10
5.436934
 20
3.68903
 30
0.0
 40
0.392635
210
0.0
220
0.0
230
1.0
100
AcDbArc
 50
270.0
 51
315.0
  0
ARC
  5
213
100
AcDbEntity
  8
0
390
0
  6
CONTINUOUS2
 62
     9
100
AcDbCircle
 10
5.316754
 20
3.603581
 30
0.0
 40
0.102085
210
0.0
220
0.0
230
1.0
100
AcDbArc
 50
225.0
 51
270.0
  0
ARC
  5
214
100
AcDbEntity
  8
0
390
0
  6
CONTINUOUS2
 62
     9
100
AcDbCircle
 10
5.316848
 20
3.603675
 30
0.0
 40
0.307279
210
0.0
220
0.0
230
1.0
100
AcDbArc
 50
225.0
 51
270.0
  0
ARC
  5
215
100
AcDbEntity
  8
0
390
0
  6
CONTINUOUS2
 62
     9
100
AcDbCircle
 10
4.797028
 20
3.688936
 30
0.0
 40
0.18744
210
0.0
220
0.0
230
1.0
100
AcDbArc
 50
270.0
 51
315.0
  0
ARC
  5
216
100
AcDbEntity
  8
0
390
0
  6
CONTINUOUS2
 62
     9
100
AcDbCircle
 10
4.796934
 20
3.68903
 30
0.0
 40
0.392635
210
0.0
220
0.0
230
1.0
100
AcDbArc
 50
270.0
 51
315.0
  0
ARC
  5
217
100
AcDbEntity
  8
0
390
0
  6
CONTINUOUS2
 62
     9
100
AcDbCircle
 10
4.676754
 20
3.603581
 30
0.0
 40
0.102085
210
0.0
220
0.0
230
1.0
100
AcDbArc
 50
225.0
 51
270.0
  0
ARC
  5
218
100
AcDbEntity
  8
0
390
0
  6
CONTINUOUS2
 62
     9
100
AcDbCircle
 10
4.676848
 20
3.603675
 30
0.0
 40
0.307279
210
0.0
220
0.0
230
1.0
100
AcDbArc
 50
225.0
 51
270.0
  0
ARC
  5
219
100
AcDbEntity
  8
0
390
0
  6
CONTINUOUS2
 62
     9
100
AcDbCircle
 10
4.173919
 20
4.262046
 30
0.0
 40
0.32435
210
0.0
220
0.0
230
1.0
100
AcDbArc
 50
135.0
 51
180.0
  0
ARC
  5
21A
100
AcDbEntity
  8
0
390
0
  6
CONTINUOUS2
 62
     9
100
AcDbCircle
 10
4.173825
 20
4.26214
 30
0.0
 40
0.119156
210
0.0
220
0.0
230
1.0
100
AcDbArc
 50
135.0
 51
180.0
  0
ARC
  5
21B
100
AcDbEntity
  8
0
390
0
  6
CONTINUOUS2
 62
     9
100
AcDbCircle
 10
4.25918
 20
4.166007
 30
0.0
 40
0.204511
210
0.0
220
0.0
230
1.0
100
AcDbArc
 50
180.0
 51
225.0
  0
ARC
  5
21C
100
AcDbEntity
  8
0
390
0
  6
CONTINUOUS2
 62
     9
100
AcDbCircle
 10
4.259274
 20
4.166102
 30
0.0
 40
0.409706
210
0.0
220
0.0
230
1.0
100
AcDbArc
 50
180.0
 51
225.0
  0
ARC
  5
21D
100
AcDbEntity
  8
0
390
0
  6
CONTINUOUS2
 62
     9
100
AcDbCircle
 10
4.173919
 20
4.902046
 30
0.0
 40
0.32435
210
0.0
220
0.0
230
1.0
100
AcDbArc
 50
135.0
 51
180.0
  0
ARC
  5
21E
100
AcDbEntity
  8
0
390
0
  6
CONTINUOUS2
 62
     9
100
AcDbCircle
 10
4.173825
 20
4.90214
 30
0.0
 40
0.119156
210
0.0
220
0.0
230
1.0
100
AcDbArc
 50
135.0
 51
180.0
  0
ARC
  5
21F
100
AcDbEntity
  8
0
390
0
  6
CONTINUOUS2
 62
     9
100
AcDbCircle
 10
4.25918
 20
4.806007
 30
0.0
 40
0.204511
210
0.0
220
0.0
230
1.0
100
AcDbArc
 50
180.0
 51
225.0
  0
ARC
  5
220
100
AcDbEntity
  8
0
390
0
  6
CONTINUOUS2
 62
     9
100
AcDbCircle
 10
4.259274
 20
4.806102
 30
0.0
 40
0.409706
210
0.0
220
0.0
230
1.0
100
AcDbArc
 50
180.0
 51
225.0
  0
ENDSEC
  0
SECTION
  2
OBJECTS
  0
DICTIONARY
  5
19
100
AcDbDictionary
280
     0
281
     1
  3
ACAD_GROUP
350
1A
  3
ACAD_MLINESTYLE
350
1B
  3
ACAD_LAYOUT
350
1E
  3
ACAD_PLOTSETTINGS
350
22
  3
ACAD_PLOTSTYLENAME
350
1F
  3
ACAD_WIPEOUT_VARS
350
23
  0
DICTIONARY
  5
1A
102
{ACAD_REACTORS
330
19
102
}
100
AcDbDictionary
280
     0
281
     1
  0
DICTIONARY
  5
1B
102
{ACAD_REACTORS
330
19
102
}
100
AcDbDictionary
280
     0
281
     1
  3
Standard
350
1C
  0
MLINESTYLE
  5
1C
102
{ACAD_REACTORS
330
1B
102
}
100
AcDbMlineStyle
  2
Standard
 70
     0
  3

 62
     0
 51
90.0
 52
90.0
 71
     2
 49
0.5
 62
   256
  6
ByLayer
 49
-0.5
 62
   256
  6
ByLayer
  0
ACDBDICTIONARYWDFLT
  5
1F
102
{ACAD_REACTORS
330
19
102
}
100
AcDbDictionary
281
     1
  3
Normal
350
1D
100
AcDbDictionaryWithDefault
340
1D
  0
ACDBPLACEHOLDER
  5
1D
102
{ACAD_REACTORS
330
1F
102
}
  0
LAYOUT
  5
20
102
{ACAD_REACTORS
330
1E
102
}
100
AcDbPlotSettings
  1

  2

  4

  6

 40
0.0
 41
0.0
 42
0.0
 43
0.0
 44
0.0
 45
0.0
 46
0.0
 47
0.0
 48
0.0
 49
0.0
140
0.0
141
0.0
142
1.0
143
1.0
 70
  1024
 72
     0
 73
     0
 74
     0
  7

 75
     0
147
1.0
148
0.0
149
0.0
100
AcDbLayout
  1
Model
 70
     0
 71
     1
 10
0.0
 20
0.0
 11
0.0
 21
0.0
 12
0.0
 22
0.0
 32
0.0
 14
0.0
 24
0.0
 34
0.0
 15
0.0
 25
0.0
 35
0.0
146
0.0
 13
0.0
 23
0.0
 33
0.0
 16
0.0
 26
0.0
 36
0.0
 17
0.0
 27
0.0
 37
0.0
 76
     0
330
A
331
0
345
0
346
0
  0
LAYOUT
  5
21
102
{ACAD_REACTORS
330
1E
102
}
100
AcDbPlotSettings
  1

  2

  4

  6

 40
0.0
 41
0.0
 42
0.0
 43
0.0
 44
0.0
 45
0.0
 46
0.0
 47
0.0
 48
0.0
 49
0.0
140
0.0
141
0.0
142
1.0
143
1.0
 70
     0
 72
     0
 73
     0
 74
     0
  7

 75
     0
147
1.0
148
0.0
149
0.0
100
AcDbLayout
  1
Layout1
 70
     0
 71
     2
 10
0.0
 20
0.0
 11
0.0
 21
0.0
 12
0.0
 22
0.0
 32
0.0
 14
0.0
 24
0.0
 34
0.0
 15
0.0
 25
0.0
 35
0.0
146
0.0
 13
0.0
 23
0.0
 33
0.0
 16
0.0
 26
0.0
 36
0.0
 17
0.0
 27
0.0
 37
0.0
 76
     0
330
B
331
0
345
0
346
0
  0
DICTIONARY
  5
1E
102
{ACAD_REACTORS
330
19
102
}
100
AcDbDictionary
280
     0
281
     1
  3
Layout1
350
21
  3
Model
350
20
  0
DICTIONARY
  5
22
102
{ACAD_REACTORS
330
19
102
}
100
AcDbDictionary
280
     0
281
     1
  0
WIPEOUTVARIABLES
  5
23
100
AcDbWipeoutVariables
 70
     1
  0
ENDSEC
  0
EOF
