  0
SECTION
  2
HEADER
  9
$ACADVER
  1
AC1015
  9
$ACADMAINTVER
 70
     6
  9
$DWGCODEPAGE
  3
ANSI_1252
  9
$INSBASE
 10
0.0
 20
0.0
 30
0.0
  9
$EXTMIN
 10
-0.939693
 20
-0.984808
 30
0.0
  9
$EXTMAX
 10
13.0
 20
12.984808
 30
0.0
  9
$LIMMIN
 10
0.0
 20
0.0
  9
$LIMMAX
 10
0.0
 20
0.0
  9
$ORTHOMODE
 70
     0
  9
$REGENMODE
 70
     1
  9
$FILLMODE
 70
     1
  9
$QTEXTMODE
 70
     0
  9
$MIRRTEXT
 70
     1
  9
$LTSCALE
 40
1.0
  9
$ATTMODE
 70
     1
  9
$TEXTSIZE
 40
0.2
  9
$TRACEWID
 40
0.05
  9
$TEXTSTYLE
  7
Standard
  9
$CLAYER
  8
0
  9
$CELTYPE
  6
Continuous
  9
$CECOLOR
 62
   256
  9
$CELTSCALE
 40
1.0
  9
$DISPSILH
 70
     0
  9
$DIMSCALE
 40
1.0
  9
$DIMASZ
 40
0.18
  9
$DIMEXO
 40
0.0625
  9
$DIMDLI
 40
0.38
  9
$DIMRND
 40
0.0
  9
$DIMDLE
 40
0.0
  9
$DIMEXE
 40
0.18
  9
$DIMTP
 40
0.0
  9
$DIMTM
 40
0.0
  9
$DIMTXT
 40
0.18
  9
$DIMCEN
 40
0.09
  9
$DIMTSZ
 40
0.0
  9
$DIMTOL
 70
     0
  9
$DIMLIM
 70
     0
  9
$DIMTIH
 70
     1
  9
$DIMTOH
 70
     1
  9
$DIMSE1
 70
     0
  9
$DIMSE2
 70
     0
  9
$DIMTAD
 70
     0
  9
$DIMZIN
 70
     0
  9
$DIMBLK
  1

  9
$DIMASO
 70
     1
  9
$DIMSHO
 70
     1
  9
$DIMPOST
  1

  9
$DIMAPOST
  1

  9
$DIMALT
 70
     0
  9
$DIMALTD
 70
     2
  9
$DIMALTF
 40
25.4
  9
$DIMLFAC
 40
1.0
  9
$DIMTOFL
 70
     0
  9
$DIMTVP
 40
0.0
  9
$DIMTIX
 70
     0
  9
$DIMSOXD
 70
     0
  9
$DIMSAH
 70
     0
  9
$DIMBLK1
  1

  9
$DIMBLK2
  1

  9
$DIMSTYLE
  2
Standard
  9
$DIMCLRD
 70
     0
  9
$DIMCLRE
 70
     0
  9
$DIMCLRT
 70
     0
  9
$DIMTFAC
 40
1.0
  9
$DIMGAP
 40
0.09
  9
$DIMJUST
 70
     0
  9
$DIMSD1
 70
     0
  9
$DIMSD2
 70
     0
  9
$DIMTOLJ
 70
     1
  9
$DIMTZIN
 70
     0
  9
$DIMALTZ
 70
     0
  9
$DIMALTTZ
 70
     0
  9
$DIMUPT
 70
     0
  9
$DIMDEC
 70
     4
  9
$DIMTDEC
 70
     4
  9
$DIMALTU
 70
     2
  9
$DIMALTTD
 70
     2
  9
$DIMTXSTY
  7
Standard
  9
$DIMAUNIT
 70
     0
  9
$DIMADEC
 70
     0
  9
$DIMALTRND
 40
0.0
  9
$DIMAZIN
 70
     0
  9
$DIMDSEP
 70
    46
  9
$DIMATFIT
 70
     3
  9
$DIMFRAC
 70
     0
  9
$DIMLDRBLK
  1

  9
$DIMLUNIT
 70
     2
  9
$DIMLWD
 70
    -2
  9
$DIMLWE
 70
    -2
  9
$DIMTMOVE
 70
     0
  9
$LUNITS
 70
     2
  9
$LUPREC
 70
     4
  9
$SKETCHINC
 40
0.1
  9
$FILLETRAD
 40
0.0
  9
$AUNITS
 70
     0
  9
$AUPREC
 70
     0
  9
$MENU
  1
acad
  9
$ELEVATION
 40
0.0
  9
$PELEVATION
 40
0.0
  9
$THICKNESS
 40
0.0
  9
$LIMCHECK
 70
     0
  9
$CHAMFERA
 40
0.0
  9
$CHAMFERB
 40
0.0
  9
$CHAMFERC
 40
0.0
  9
$CHAMFERD
 40
0.0
  9
$SKPOLY
 70
     0
  9
$TDCREATE
 40
2458121.513148148
  9
$TDUCREATE
 40
0.000000000
  9
$TDUPDATE
 40
2458121.513148148
  9
$TDUUPDATE
 40
0.000000000
  9
$TDINDWG
 40
0.0000000000
  9
$TDUSRTIMER
 40
0.0000000000
  9
$USRTIMER
 70
     1
  9
$ANGBASE
 50
0.0
  9
$ANGDIR
 70
     0
  9
$PDMODE
 70
     0
  9
$PDSIZE
 40
0.0
  9
$PLINEWID
 40
0.0
  9
$SPLFRAME
 70
     0
  9
$SPLINETYPE
 70
     6
  9
$SPLINESEGS
 70
     8
  9
$HANDSEED
  5
171
  9
$SURFTAB1
 70
     6
  9
$SURFTAB2
 70
     6
  9
$SURFTYPE
 70
     6
  9
$SURFU
 70
     6
  9
$SURFV
 70
     6
  9
$UCSBASE
  2

  9
$UCSNAME
  2

  9
$UCSORG
 10
0.0
 20
0.0
 30
0.0
  9
$UCSXDIR
 10
1.0
 20
0.0
 30
0.0
  9
$UCSYDIR
 10
0.0
 20
1.0
 30
0.0
  9
$UCSORTHOREF
  2

  9
$UCSORTHOVIEW
 70
     0
  9
$UCSORGTOP
 10
0.0
 20
0.0
 30
0.0
  9
$UCSORGBOTTOM
 10
0.0
 20
0.0
 30
0.0
  9
$UCSORGLEFT
 10
0.0
 20
0.0
 30
0.0
  9
$UCSORGRIGHT
 10
0.0
 20
0.0
 30
0.0
  9
$UCSORGFRONT
 10
0.0
 20
0.0
 30
0.0
  9
$UCSORGBACK
 10
0.0
 20
0.0
 30
0.0
  9
$PUCSBASE
  2

  9
$PUCSNAME
  2

  9
$PUCSORG
 10
0.0
 20
0.0
 30
0.0
  9
$PUCSXDIR
 10
1.0
 20
0.0
 30
0.0
  9
$PUCSYDIR
 10
0.0
 20
1.0
 30
0.0
  9
$PUCSORTHOREF
  2

  9
$PUCSORTHOVIEW
 70
     0
  9
$PUCSORGTOP
 10
0.0
 20
0.0
 30
0.0
  9
$PUCSORGBOTTOM
 10
0.0
 20
0.0
 30
0.0
  9
$PUCSORGLEFT
 10
0.0
 20
0.0
 30
0.0
  9
$PUCSORGRIGHT
 10
0.0
 20
0.0
 30
0.0
  9
$PUCSORGFRONT
 10
0.0
 20
0.0
 30
0.0
  9
$PUCSORGBACK
 10
0.0
 20
0.0
 30
0.0
  9
$USERI1
 70
     0
  9
$USERI2
 70
     0
  9
$USERI3
 70
     0
  9
$USERI4
 70
     0
  9
$USERI5
 70
     0
  9
$USERR1
 40
0.0
  9
$USERR2
 40
0.0
  9
$USERR3
 40
0.0
  9
$USERR4
 40
0.0
  9
$USERR5
 40
0.0
  9
$WORLDVIEW
 70
     1
  9
$SHADEDGE
 70
     3
  9
$SHADEDIF
 70
    70
  9
$TILEMODE
 70
     1
  9
$MAXACTVP
 70
    16
  9
$PINSBASE
 10
0.0
 20
0.0
 30
0.0
  9
$PLIMCHECK
 70
     0
  9
$PEXTMIN
 10
1.000000E+20
 20
1.000000E+20
 30
1.000000E+20
  9
$PEXTMAX
 10
-1.000000E+20
 20
-1.000000E+20
 30
-1.000000E+20
  9
$PLIMMIN
 10
0.0
 20
0.0
  9
$PLIMMAX
 10
12.0
 20
9.0
  9
$UNITMODE
 70
     0
  9
$VISRETAIN
 70
     0
  9
$PLINEGEN
 70
     1
  9
$PSLTSCALE
 70
     0
  9
$TREEDEPTH
 70
  3020
  9
$CMLSTYLE
  2
Standard
  9
$CMLJUST
 70
     0
  9
$CMLSCALE
 40
1.0
  9
$PROXYGRAPHICS
 70
     0
  9
$MEASUREMENT
 70
     0
  9
$CELWEIGHT
370
     0
  9
$ENDCAPS
280
     0
  9
$JOINSTYLE
280
     0
  9
$LWDISPLAY
290
     0
  9
$INSUNITS
 70
     1
  9
$HYPERLINKBASE
  1

  9
$STYLESHEET
  1

  9
$XEDIT
290
     1
  9
$CEPSNTYPE
380
     0
  9
$PSTYLEMODE
290
     1
  9
$FINGERPRINTGUID
  2

  9
$VERSIONGUID
  2

  9
$EXTNAMES
290
     1
  9
$PSVPSCALE
 40
0.0
  0
ENDSEC
  0
SECTION
  2
CLASSES
  0
CLASS
  1
LWPOLYLINE
  2
AcDbPolyline
  3
AutoCAD 2000
 90
        0
280
     0
281
     1
  0
CLASS
  1
IMAGE
  2
AcDbRasterImage
  3
ISM
 90
      127
280
     0
281
     1
  0
CLASS
  1
OLE2FRAME
  2
AcDbOle2Frame
  3
AutoCAD 2000
 90
        0
280
     0
281
     1
  0
CLASS
  1
HATCH
  2
AcDbHatch
  3
AutoCAD 2000
 90
        0
280
     0
281
     1
  0
CLASS
  1
DICTIONARYVAR
  2
AcDbDictionaryVar
  3
AutoCAD 2000
 90
        0
280
     0
281
     0
  0
CLASS
  1
RASTERVARIABLES
  2
AcDbRasterVariables
  3
ISM
 90
        0
280
     0
281
     0
  0
CLASS
  1
IMAGEDEF
  2
AcDbRasterImageDef
  3
ISM
 90
        0
280
     0
281
     0
  0
CLASS
  1
IMAGEDEF_REACTOR
  2
AcDbRasterImageDefReactor
  3
ISM
 90
        1
280
     0
281
     0
  0
CLASS
  1
IDBUFFER
  2
AcDbIdBuffer
  3
AutoCAD 2000
 90
        0
280
     0
281
     0
  0
CLASS
  1
SPATIAL_FILTER
  2
AcDbSpatialFilter
  3
AutoCAD 2000
 90
        0
280
     0
281
     0
  0
CLASS
  1
XRECORD
  2
AcDbXrecord
  3
AutoCAD 2000
 90
        0
280
     0
281
     0
  0
CLASS
  1
SORTENTSTABLE
  2
AcDbSortentsTable
  3
AutoCAD 2000
 90
        0
280
     0
281
     0
  0
CLASS
  1
LAYER_INDEX
  2
AcDbLayerIndex
  3
AutoCAD 2000
 90
        0
280
     0
281
     0
  0
CLASS
  1
SPATIAL_INDEX
  2
AcDbSpatialIndex
  3
AutoCAD 2000
 90
        0
280
     0
281
     0
  0
CLASS
  1
OBJECT_PTR
  2
CAseDLPNTableRecord
  3
"ASE-LPNTableRecord"
 90
        1
280
     0
281
     0
  0
CLASS
  1
LAYOUT
  2
AcDbLayout
  3
AutoCAD 2000
 90
        0
280
     0
281
     0
  0
CLASS
  1
PLOTSETTINGS
  2
AcDbPlotSettings
  3
AutoCAD 2000
 90
        0
280
     0
281
     0
  0
CLASS
  1
ACDBDICTIONARYWDFLT
  2
AcDbDictionaryWithDefault
  3
AutoCAD 2000
 90
        0
280
     0
281
     0
  0
CLASS
  1
ACDBPLACEHOLDER
  2
AcDbPlaceHolder
  3
AutoCAD 2000
 90
        0
280
     0
281
     0
  0
CLASS
  1
VBA_PROJECT
  2
AcDbVbaProject
  3
acadvba
 90
        0
280
     0
281
     0
  0
CLASS
  1
WIPEOUT
  2
AcDbWipeout
  3
WipeOut|AutoCAD Express Tool|expresstools@autodesk.com
 90
      127
280
     0
281
     1
  0
CLASS
  1
WIPEOUTVARIABLES
  2
AcDbWipeoutVariables
  3
WipeOut|AutoCAD Express Tool|expresstools@autodesk.com
 90
        0
280
     0
281
     0
  0
CLASS
  1
RTEXT
  2
RText
  3
RText|AutoCAD Express Tool|expresstools@autodesk.com
 90
        0
280
     0
281
     1
  0
CLASS
  1
ARCALIGNEDTEXT
  2
AcDbArcAlignedText
  3
ATEXT|AutoCAD Express Tool|expresstools@autodesk.com
 90
        0
280
     0
281
     1
  0
ENDSEC
  0
SECTION
  2
TABLES
  0
TABLE
  2
VPORT
  5
7
100
AcDbSymbolTable
 70
     1
  0
VPORT
  5
15
100
AcDbSymbolTableRecord
100
AcDbViewportTableRecord
  2
*ACTIVE
 70
     0
 10
0.0
 20
0.0
 11
1.0
 21
1.0
 12
6.591288
 22
4.579184
 13
0.0
 23
0.0
 14
1.0
 24
1.0
 15
0.0
 25
0.0
 16
0.0
 26
0.0
 36
1.0
 17
0.0
 27
0.0
 37
0.0
 40
9.158369
 41
0.688564
 42
50.0
 43
0.0
 44
0.0
 50
0.0
 51
0.0
 71
     0
 72
   100
 73
     1
 74
     1
 75
     0
 76
     0
 77
     0
 78
     0
281
     0
 65
     0
110
0.0
120
0.0
130
0.0
111
1.0
121
0.0
131
0.0
112
0.0
122
1.0
132
0.0
345
0
346
0
 79
     0
146
0.0
  0
ENDTAB
  0
TABLE
  2
LTYPE
  5
4
100
AcDbSymbolTable
 70
     7
  0
LTYPE
  5
11
100
AcDbSymbolTableRecord
100
AcDbLinetypeTableRecord
  2
ByBlock
 70
    64
  3

 72
    65
 73
     0
 40
0.0
  0
LTYPE
  5
12
100
AcDbSymbolTableRecord
100
AcDbLinetypeTableRecord
  2
ByLayer
 70
    64
  3

 72
    65
 73
     0
 40
0.0
  0
LTYPE
  5
13
100
AcDbSymbolTableRecord
100
AcDbLinetypeTableRecord
  2
Continuous
 70
    64
  3
Solid line
 72
    65
 73
     0
 40
0.0
  0
LTYPE
  5
24
100
AcDbSymbolTableRecord
100
AcDbLinetypeTableRecord
  2
CONTINUOUS2
 70
     0
  3
Solid line
 72
    65
 73
     0
 40
0.0
  0
LTYPE
  5
25
100
AcDbSymbolTableRecord
100
AcDbLinetypeTableRecord
  2
DASHED
 70
    64
  3
__ __ __ __ __ __ __ __ __ __ __ __ __ __ __ __
 72
    65
 73
     2
 40
0.5
 49
0.375
 74
     0
 49
-0.125
 74
     0
  0
LTYPE
  5
26
100
AcDbSymbolTableRecord
100
AcDbLinetypeTableRecord
  2
CENTER
 70
    64
  3
____ _ ____ _ ____ _ ____ _ ____ _ ____ _ ____ _
 72
    65
 73
     4
 40
1.0
 49
0.625
 74
     0
 49
-0.125
 74
     0
 49
0.125
 74
     0
 49
-0.125
 74
     0
  0
LTYPE
  5
27
100
AcDbSymbolTableRecord
100
AcDbLinetypeTableRecord
  2
PHANTOM
 70
    64
  3
___ _ _ ___ _ _ ___ _ _ ___ _ _ ___ _ _ ___ _ _ 
 72
    65
 73
     6
 40
1.0
 49
0.5
 74
     0
 49
-0.1
 74
     0
 49
0.1
 74
     0
 49
-0.1
 74
     0
 49
0.1
 74
     0
 49
-0.1
 74
     0
  0
ENDTAB
  0
TABLE
  2
LAYER
  5
2
100
AcDbSymbolTable
 70
     2
  0
LAYER
  5
14
100
AcDbSymbolTableRecord
100
AcDbLayerTableRecord
  2
0
 70
     0
 62
     7
  6
Continuous
290
     1
370
    -3
390
1D
  0
LAYER
  5
28
100
AcDbSymbolTableRecord
100
AcDbLayerTableRecord
  2
0
 70
     0
 62
     1
  6
Continuous
290
     1
370
    -3
390
1D
  0
ENDTAB
  0
TABLE
  2
STYLE
  5
3
100
AcDbSymbolTable
 70
     1
  0
STYLE
  5
17
100
AcDbSymbolTableRecord
100
AcDbTextStyleTableRecord
  2
Standard
 70
     0
 40
0.0
 41
1.0
 50
0.0
 71
     0
 42
0.0
  3
txt
  4

  0
ENDTAB
  0
TABLE
  2
VIEW
  5
5
100
AcDbSymbolTable
 70
     0
  0
ENDTAB
  0
TABLE
  2
UCS
  5
6
100
AcDbSymbolTable
 70
     0
  0
ENDTAB
  0
TABLE
  2
APPID
  5
8
100
AcDbSymbolTable
 70
     1
  0
APPID
  5
16
100
AcDbSymbolTableRecord
100
AcDbRegAppTableRecord
  2
ACAD
 70
     0
  0
ENDTAB
  0
TABLE
  2
DIMSTYLE
  5
9
100
AcDbSymbolTable
 70
     1
100
AcDbDimStyleTable
 71
     0
  0
DIMSTYLE
105
18
100
AcDbSymbolTableRecord
100
AcDbDimStyleTableRecord
  2
Standard
 70
     0
  3

  4

 40
1.0
 41
0.18
 42
0.0625
 43
0.38
 44
0.18
 45
0.0
 46
0.0
 47
0.0
 48
0.0
 71
     0
 72
     0
 73
     1
 74
     1
 75
     0
 76
     0
 77
     0
 78
     0
 79
     0
140
0.18
141
0.09
142
0.0
143
25.4
144
1.0
145
0.0
146
1.0
147
0.09
148
0.0
170
     0
171
     2
172
     0
173
     0
174
     0
175
     0
176
     0
177
     0
178
     0
179
     0
271
     4
272
     4
273
     2
274
     2
275
     0
276
     0
277
     2
278
    46
279
     0
280
     0
281
     0
282
     0
283
     1
284
     0
285
     0
286
     0
288
     0
289
     3
340
17
341
0
342
0
343
0
344
0
371
    -2
372
    -2
  0
ENDTAB
  0
TABLE
  2
BLOCK_RECORD
  5
1
100
AcDbSymbolTable
 70
     0
  0
BLOCK_RECORD
  5
A
100
AcDbSymbolTableRecord
100
AcDbBlockTableRecord
  2
*MODEL_SPACE
340
20
  0
BLOCK_RECORD
  5
B
100
AcDbSymbolTableRecord
100
AcDbBlockTableRecord
  2
*PAPER_SPACE
340
21
  0
ENDTAB
  0
ENDSEC
  0
SECTION
  2
BLOCKS
  0
BLOCK
  5
D
100
AcDbEntity
  8
0
390
0
100
AcDbBlockBegin
  2
*MODEL_SPACE
 70
     0
 10
0.0
 20
0.0
 30
0.0
  3
*MODEL_SPACE
  1

  0
ENDBLK
  5
E
100
AcDbEntity
  8
0
390
0
100
AcDbBlockEnd
  0
BLOCK
  5
F
100
AcDbEntity
 67
     1
  8
0
390
0
100
AcDbBlockBegin
  2
*PAPER_SPACE
 70
     0
 10
0.0
 20
0.0
 30
0.0
  3
*PAPER_SPACE
  1

  0
ENDBLK
  5
10
100
AcDbEntity
 67
     1
  8
0
390
0
100
AcDbBlockEnd
  0
ENDSEC
  0
SECTION
  2
ENTITIES
  0
LINE
  5
29
100
AcDbEntity
  8
0
390
0
  6
CONTINUOUS2
 62
     9
100
AcDbLine
 10
3.111685
 20
7.114685
 30
0.0
 11
3.583685
 21
6.642685
 31
0.0
  0
LINE
  5
2A
100
AcDbEntity
  8
0
390
0
  6
CONTINUOUS2
 62
     9
100
AcDbLine
 10
1.151685
 20
6.290685
 30
0.0
 11
1.151685
 21
5.753646
 31
0.0
  0
LINE
  5
2B
100
AcDbEntity
  8
0
390
0
  6
CONTINUOUS2
 62
     9
100
AcDbLine
 10
1.479783
 20
5.962588
 30
0.0
 11
1.479783
 21
5.753646
 31
0.0
  0
LINE
  5
2C
100
AcDbEntity
  8
0
390
0
  6
CONTINUOUS2
 62
     9
100
AcDbLine
 10
1.151685
 20
6.290685
 30
0.0
 11
2.175685
 21
6.290685
 31
0.0
  0
LINE
  5
2D
100
AcDbEntity
  8
0
390
0
  6
CONTINUOUS2
 62
     9
100
AcDbLine
 10
1.479783
 20
5.962588
 30
0.0
 11
2.503783
 21
5.962588
 31
0.0
  0
LINE
  5
2E
100
AcDbEntity
  8
0
390
0
  6
CONTINUOUS2
 62
     9
100
AcDbLine
 10
2.175685
 20
7.314685
 30
0.0
 11
2.175685
 21
6.290685
 31
0.0
  0
LINE
  5
2F
100
AcDbEntity
  8
0
390
0
  6
CONTINUOUS2
 62
     9
100
AcDbLine
 10
2.503783
 20
6.986588
 30
0.0
 11
2.503783
 21
5.962588
 31
0.0
  0
LINE
  5
30
100
AcDbEntity
  8
0
390
0
  6
CONTINUOUS2
 62
     9
100
AcDbLine
 10
2.175685
 20
7.314685
 30
0.0
 11
2.628843
 21
7.314685
 31
0.0
  0
LINE
  5
31
100
AcDbEntity
  8
0
390
0
  6
CONTINUOUS2
 62
     9
100
AcDbLine
 10
2.503783
 20
6.986588
 30
0.0
 11
2.628843
 21
6.986588
 31
0.0
  0
LINE
  5
32
100
AcDbEntity
  8
0
390
0
  6
CONTINUOUS2
 62
     9
100
AcDbLine
 10
2.687685
 20
6.475725
 30
0.0
 11
2.687685
 21
6.322214
 31
0.0
  0
LINE
  5
33
100
AcDbEntity
  8
0
390
0
  6
CONTINUOUS2
 62
     9
100
AcDbLine
 10
3.015783
 20
6.475725
 30
0.0
 11
3.015783
 21
6.322214
 31
0.0
  0
LINE
  5
34
100
AcDbEntity
  8
0
390
0
  6
CONTINUOUS2
 62
     9
100
AcDbLine
 10
3.537959
 20
7.314685
 30
0.0
 11
3.652843
 21
7.314685
 31
0.0
  0
LINE
  5
35
100
AcDbEntity
  8
0
390
0
  6
CONTINUOUS2
 62
     9
100
AcDbLine
 10
3.537959
 20
6.986588
 30
0.0
 11
3.652843
 21
6.986588
 31
0.0
  0
LINE
  5
36
100
AcDbEntity
  8
0
390
0
  6
CONTINUOUS2
 62
     9
100
AcDbLine
 10
2.058528
 20
5.778685
 30
0.0
 11
2.173411
 21
5.778685
 31
0.0
  0
LINE
  5
37
100
AcDbEntity
  8
0
390
0
  6
CONTINUOUS2
 62
     9
100
AcDbLine
 10
2.058528
 20
5.450588
 30
0.0
 11
2.173411
 21
5.450588
 31
0.0
  0
LINE
  5
38
100
AcDbEntity
  8
0
390
0
  6
CONTINUOUS2
 62
     9
100
AcDbLine
 10
2.559685
 20
5.618685
 30
0.0
 11
2.327685
 21
5.386685
 31
0.0
  0
LINE
  5
39
100
AcDbEntity
  8
0
390
0
  6
CONTINUOUS2
 62
     9
100
AcDbLine
 10
4.561959
 20
7.314685
 30
0.0
 11
4.676843
 21
7.314685
 31
0.0
  0
LINE
  5
3A
100
AcDbEntity
  8
0
390
0
  6
CONTINUOUS2
 62
     9
100
AcDbLine
 10
4.561959
 20
6.986588
 30
0.0
 11
4.676843
 21
6.986588
 31
0.0
  0
LINE
  5
3B
100
AcDbEntity
  8
0
390
0
  6
CONTINUOUS2
 62
     9
100
AcDbLine
 10
5.585959
 20
7.314685
 30
0.0
 11
6.095685
 21
7.314685
 31
0.0
  0
LINE
  5
3C
100
AcDbEntity
  8
0
390
0
  6
CONTINUOUS2
 62
     9
100
AcDbLine
 10
5.585959
 20
6.986588
 30
0.0
 11
5.767588
 21
6.986588
 31
0.0
  0
LINE
  5
3D
100
AcDbEntity
  8
0
390
0
  6
CONTINUOUS2
 62
     9
100
AcDbLine
 10
5.767588
 20
6.986588
 30
0.0
 11
5.767588
 21
5.962588
 31
0.0
  0
LINE
  5
3E
100
AcDbEntity
  8
0
390
0
  6
CONTINUOUS2
 62
     9
100
AcDbLine
 10
6.095685
 20
7.314685
 30
0.0
 11
6.095685
 21
6.290685
 31
0.0
  0
LINE
  5
3F
100
AcDbEntity
  8
0
390
0
  6
CONTINUOUS2
 62
     9
100
AcDbLine
 10
5.255588
 20
6.419156
 30
0.0
 11
5.255588
 21
6.265646
 31
0.0
  0
LINE
  5
40
100
AcDbEntity
  8
0
390
0
  6
CONTINUOUS2
 62
     9
100
AcDbLine
 10
5.583685
 20
6.419156
 30
0.0
 11
5.583685
 21
6.265646
 31
0.0
  0
LINE
  5
41
100
AcDbEntity
  8
0
390
0
  6
CONTINUOUS2
 62
     9
100
AcDbLine
 10
6.095685
 20
6.290685
 30
0.0
 11
7.119685
 21
6.290685
 31
0.0
  0
LINE
  5
42
100
AcDbEntity
  8
0
390
0
  6
CONTINUOUS2
 62
     9
100
AcDbLine
 10
5.767588
 20
5.962588
 30
0.0
 11
6.791588
 21
5.962588
 31
0.0
  0
LINE
  5
43
100
AcDbEntity
  8
0
390
0
  6
CONTINUOUS2
 62
     9
100
AcDbLine
 10
6.791588
 20
5.962588
 30
0.0
 11
6.791588
 21
5.810214
 31
0.0
  0
LINE
  5
44
100
AcDbEntity
  8
0
390
0
  6
CONTINUOUS2
 62
     9
100
AcDbLine
 10
7.119685
 20
6.290685
 30
0.0
 11
7.119685
 21
5.810214
 31
0.0
  0
LINE
  5
45
100
AcDbEntity
  8
0
390
0
  6
CONTINUOUS2
 62
     9
100
AcDbLine
 10
6.154528
 20
5.778685
 30
0.0
 11
6.269411
 21
5.778685
 31
0.0
  0
LINE
  5
46
100
AcDbEntity
  8
0
390
0
  6
CONTINUOUS2
 62
     9
100
AcDbLine
 10
6.154528
 20
5.450588
 30
0.0
 11
6.269411
 21
5.450588
 31
0.0
  0
LINE
  5
47
100
AcDbEntity
  8
0
390
0
  6
CONTINUOUS2
 62
     9
100
AcDbLine
 10
6.791588
 20
4.939725
 30
0.0
 11
6.791588
 21
4.786214
 31
0.0
  0
LINE
  5
48
100
AcDbEntity
  8
0
390
0
  6
CONTINUOUS2
 62
     9
100
AcDbLine
 10
7.119685
 20
4.939725
 30
0.0
 11
7.119685
 21
4.786214
 31
0.0
  0
LINE
  5
49
100
AcDbEntity
  8
0
390
0
  6
CONTINUOUS2
 62
     9
100
AcDbLine
 10
4.735685
 20
4.427725
 30
0.0
 11
4.735685
 21
4.274214
 31
0.0
  0
LINE
  5
4A
100
AcDbEntity
  8
0
390
0
  6
CONTINUOUS2
 62
     9
100
AcDbLine
 10
5.063783
 20
4.427725
 30
0.0
 11
5.063783
 21
4.274214
 31
0.0
  0
LINE
  5
4B
100
AcDbEntity
  8
0
390
0
  6
CONTINUOUS2
 62
     9
100
AcDbLine
 10
4.011332
 20
5.258783
 30
0.0
 11
4.20347
 21
5.258783
 31
0.0
  0
LINE
  5
4C
100
AcDbEntity
  8
0
390
0
  6
CONTINUOUS2
 62
     9
100
AcDbLine
 10
4.011332
 20
4.930685
 30
0.0
 11
4.20347
 21
4.930685
 31
0.0
  0
LINE
  5
4D
100
AcDbEntity
  8
0
390
0
  6
CONTINUOUS2
 62
     9
100
AcDbLine
 10
3.207588
 20
4.371156
 30
0.0
 11
3.207588
 21
4.217646
 31
0.0
  0
LINE
  5
4E
100
AcDbEntity
  8
0
390
0
  6
CONTINUOUS2
 62
     9
100
AcDbLine
 10
3.535685
 20
4.371156
 30
0.0
 11
3.535685
 21
4.217646
 31
0.0
  0
LINE
  5
4F
100
AcDbEntity
  8
0
390
0
  6
CONTINUOUS2
 62
     9
100
AcDbLine
 10
4.106528
 20
3.730685
 30
0.0
 11
4.221411
 21
3.730685
 31
0.0
  0
LINE
  5
50
100
AcDbEntity
  8
0
390
0
  6
CONTINUOUS2
 62
     9
100
AcDbLine
 10
4.106528
 20
3.402588
 30
0.0
 11
4.221411
 21
3.402588
 31
0.0
  0
LINE
  5
51
100
AcDbEntity
  8
0
390
0
  6
CONTINUOUS2
 62
     9
100
AcDbLine
 10
1.151685
 20
4.883156
 30
0.0
 11
1.151685
 21
4.729646
 31
0.0
  0
LINE
  5
52
100
AcDbEntity
  8
0
390
0
  6
CONTINUOUS2
 62
     9
100
AcDbLine
 10
1.479783
 20
4.883156
 30
0.0
 11
1.479783
 21
4.729646
 31
0.0
  0
LINE
  5
53
100
AcDbEntity
  8
0
390
0
  6
CONTINUOUS2
 62
     9
100
AcDbLine
 10
1.151685
 20
3.859156
 30
0.0
 11
1.151685
 21
3.705646
 31
0.0
  0
LINE
  5
54
100
AcDbEntity
  8
0
390
0
  6
CONTINUOUS2
 62
     9
100
AcDbLine
 10
1.479783
 20
3.859156
 30
0.0
 11
1.479783
 21
3.705646
 31
0.0
  0
LINE
  5
55
100
AcDbEntity
  8
0
390
0
  6
CONTINUOUS2
 62
     9
100
AcDbLine
 10
1.151685
 20
2.835156
 30
0.0
 11
1.151685
 21
2.370685
 31
0.0
  0
LINE
  5
56
100
AcDbEntity
  8
0
390
0
  6
CONTINUOUS2
 62
     9
100
AcDbLine
 10
1.479783
 20
2.835156
 30
0.0
 11
1.479783
 21
2.698783
 31
0.0
  0
LINE
  5
57
100
AcDbEntity
  8
0
390
0
  6
CONTINUOUS2
 62
     9
100
AcDbLine
 10
1.479783
 20
2.698783
 30
0.0
 11
2.503783
 21
2.698783
 31
0.0
  0
LINE
  5
58
100
AcDbEntity
  8
0
390
0
  6
CONTINUOUS2
 62
     9
100
AcDbLine
 10
1.151685
 20
2.370685
 30
0.0
 11
2.175685
 21
2.370685
 31
0.0
  0
LINE
  5
59
100
AcDbEntity
  8
0
390
0
  6
CONTINUOUS2
 62
     9
100
AcDbLine
 10
2.175685
 20
2.370685
 30
0.0
 11
2.175685
 21
1.346685
 31
0.0
  0
LINE
  5
5A
100
AcDbEntity
  8
0
390
0
  6
CONTINUOUS2
 62
     9
100
AcDbLine
 10
2.503783
 20
2.698783
 30
0.0
 11
2.503783
 21
1.674783
 31
0.0
  0
LINE
  5
5B
100
AcDbEntity
  8
0
390
0
  6
CONTINUOUS2
 62
     9
100
AcDbLine
 10
2.503783
 20
1.674783
 30
0.0
 11
2.724039
 21
1.674783
 31
0.0
  0
LINE
  5
5C
100
AcDbEntity
  8
0
390
0
  6
CONTINUOUS2
 62
     9
100
AcDbLine
 10
2.175685
 20
1.346685
 30
0.0
 11
2.724039
 21
1.346685
 31
0.0
  0
LINE
  5
5D
100
AcDbEntity
  8
0
390
0
  6
CONTINUOUS2
 62
     9
100
AcDbLine
 10
2.687685
 20
2.379725
 30
0.0
 11
2.687685
 21
2.226214
 31
0.0
  0
LINE
  5
5E
100
AcDbEntity
  8
0
390
0
  6
CONTINUOUS2
 62
     9
100
AcDbLine
 10
3.015783
 20
2.379725
 30
0.0
 11
3.015783
 21
2.226214
 31
0.0
  0
LINE
  5
5F
100
AcDbEntity
  8
0
390
0
  6
CONTINUOUS2
 62
     9
100
AcDbLine
 10
3.555901
 20
1.674783
 30
0.0
 11
3.748039
 21
1.674783
 31
0.0
  0
LINE
  5
60
100
AcDbEntity
  8
0
390
0
  6
CONTINUOUS2
 62
     9
100
AcDbLine
 10
3.555901
 20
1.346685
 30
0.0
 11
3.748039
 21
1.346685
 31
0.0
  0
LINE
  5
61
100
AcDbEntity
  8
0
390
0
  6
CONTINUOUS2
 62
     9
100
AcDbLine
 10
1.963332
 20
3.210783
 30
0.0
 11
2.15547
 21
3.210783
 31
0.0
  0
LINE
  5
62
100
AcDbEntity
  8
0
390
0
  6
CONTINUOUS2
 62
     9
100
AcDbLine
 10
1.963332
 20
2.882685
 30
0.0
 11
2.15547
 21
2.882685
 31
0.0
  0
LINE
  5
63
100
AcDbEntity
  8
0
390
0
  6
CONTINUOUS2
 62
     9
100
AcDbLine
 10
4.579901
 20
1.674783
 30
0.0
 11
4.772039
 21
1.674783
 31
0.0
  0
LINE
  5
64
100
AcDbEntity
  8
0
390
0
  6
CONTINUOUS2
 62
     9
100
AcDbLine
 10
4.579901
 20
1.346685
 30
0.0
 11
4.772039
 21
1.346685
 31
0.0
  0
LINE
  5
65
100
AcDbEntity
  8
0
390
0
  6
CONTINUOUS2
 62
     9
100
AcDbLine
 10
5.255588
 20
2.323156
 30
0.0
 11
5.255588
 21
2.169646
 31
0.0
  0
LINE
  5
66
100
AcDbEntity
  8
0
390
0
  6
CONTINUOUS2
 62
     9
100
AcDbLine
 10
5.583685
 20
2.323156
 30
0.0
 11
5.583685
 21
2.169646
 31
0.0
  0
LINE
  5
67
100
AcDbEntity
  8
0
390
0
  6
CONTINUOUS2
 62
     9
100
AcDbLine
 10
5.603901
 20
1.674783
 30
0.0
 11
5.767588
 21
1.674783
 31
0.0
  0
LINE
  5
68
100
AcDbEntity
  8
0
390
0
  6
CONTINUOUS2
 62
     9
100
AcDbLine
 10
5.603901
 20
1.346685
 30
0.0
 11
6.095685
 21
1.346685
 31
0.0
  0
LINE
  5
69
100
AcDbEntity
  8
0
390
0
  6
CONTINUOUS2
 62
     9
100
AcDbLine
 10
5.767588
 20
2.698783
 30
0.0
 11
5.767588
 21
1.674783
 31
0.0
  0
LINE
  5
6A
100
AcDbEntity
  8
0
390
0
  6
CONTINUOUS2
 62
     9
100
AcDbLine
 10
6.095685
 20
2.370685
 30
0.0
 11
6.095685
 21
1.346685
 31
0.0
  0
LINE
  5
6B
100
AcDbEntity
  8
0
390
0
  6
CONTINUOUS2
 62
     9
100
AcDbLine
 10
5.767588
 20
2.698783
 30
0.0
 11
6.791588
 21
2.698783
 31
0.0
  0
LINE
  5
6C
100
AcDbEntity
  8
0
390
0
  6
CONTINUOUS2
 62
     9
100
AcDbLine
 10
6.095685
 20
2.370685
 30
0.0
 11
7.119685
 21
2.370685
 31
0.0
  0
LINE
  5
6D
100
AcDbEntity
  8
0
390
0
  6
CONTINUOUS2
 62
     9
100
AcDbLine
 10
6.791588
 20
2.891725
 30
0.0
 11
6.791588
 21
2.698783
 31
0.0
  0
LINE
  5
6E
100
AcDbEntity
  8
0
390
0
  6
CONTINUOUS2
 62
     9
100
AcDbLine
 10
7.119685
 20
2.891725
 30
0.0
 11
7.119685
 21
2.370685
 31
0.0
  0
LINE
  5
6F
100
AcDbEntity
  8
0
390
0
  6
CONTINUOUS2
 62
     9
100
AcDbLine
 10
6.059332
 20
3.210783
 30
0.0
 11
6.25147
 21
3.210783
 31
0.0
  0
LINE
  5
70
100
AcDbEntity
  8
0
390
0
  6
CONTINUOUS2
 62
     9
100
AcDbLine
 10
6.059332
 20
2.882685
 30
0.0
 11
6.25147
 21
2.882685
 31
0.0
  0
LINE
  5
71
100
AcDbEntity
  8
0
390
0
  6
CONTINUOUS2
 62
     9
100
AcDbLine
 10
6.791588
 20
3.915725
 30
0.0
 11
6.791588
 21
3.762214
 31
0.0
  0
LINE
  5
72
100
AcDbEntity
  8
0
390
0
  6
CONTINUOUS2
 62
     9
100
AcDbLine
 10
7.119685
 20
3.915725
 30
0.0
 11
7.119685
 21
3.762214
 31
0.0
  0
LINE
  5
73
100
AcDbEntity
  8
0
390
0
  6
CONTINUOUS2
 62
     9
100
AcDbLine
 10
3.583685
 20
6.642685
 30
0.0
 11
3.351685
 21
6.410685
 31
0.0
  0
LINE
  5
74
100
AcDbEntity
  8
0
390
0
  6
CONTINUOUS2
 62
     9
100
AcDbLine
 10
2.879685
 20
6.882685
 30
0.0
 11
3.351685
 21
6.410685
 31
0.0
  0
LINE
  5
75
100
AcDbEntity
  8
0
390
0
  6
CONTINUOUS2
 62
     9
100
AcDbLine
 10
2.839685
 20
6.842685
 30
0.0
 11
3.071685
 21
6.610685
 31
0.0
  0
LINE
  5
76
100
AcDbEntity
  8
0
390
0
  6
CONTINUOUS2
 62
     9
100
AcDbLine
 10
3.151685
 20
7.154685
 30
0.0
 11
3.383685
 21
6.922685
 31
0.0
  0
LINE
  5
77
100
AcDbEntity
  8
0
390
0
  6
CONTINUOUS2
 62
     9
100
AcDbLine
 10
4.135685
 20
7.114685
 30
0.0
 11
4.607685
 21
6.642685
 31
0.0
  0
LINE
  5
78
100
AcDbEntity
  8
0
390
0
  6
CONTINUOUS2
 62
     9
100
AcDbLine
 10
4.607685
 20
6.642685
 30
0.0
 11
4.375685
 21
6.410685
 31
0.0
  0
LINE
  5
79
100
AcDbEntity
  8
0
390
0
  6
CONTINUOUS2
 62
     9
100
AcDbLine
 10
3.903685
 20
6.882685
 30
0.0
 11
4.375685
 21
6.410685
 31
0.0
  0
LINE
  5
7A
100
AcDbEntity
  8
0
390
0
  6
CONTINUOUS2
 62
     9
100
AcDbLine
 10
3.151685
 20
6.130685
 30
0.0
 11
3.863685
 21
6.842685
 31
0.0
  0
LINE
  5
7B
100
AcDbEntity
  8
0
390
0
  6
CONTINUOUS2
 62
     9
100
AcDbLine
 10
3.151685
 20
6.130685
 30
0.0
 11
3.383685
 21
5.898685
 31
0.0
  0
LINE
  5
7C
100
AcDbEntity
  8
0
390
0
  6
CONTINUOUS2
 62
     9
100
AcDbLine
 10
3.863685
 20
6.842685
 30
0.0
 11
4.095685
 21
6.610685
 31
0.0
  0
LINE
  5
7D
100
AcDbEntity
  8
0
390
0
  6
CONTINUOUS2
 62
     9
100
AcDbLine
 10
3.383685
 20
5.898685
 30
0.0
 11
4.095685
 21
6.610685
 31
0.0
  0
LINE
  5
7E
100
AcDbEntity
  8
0
390
0
  6
CONTINUOUS2
 62
     9
100
AcDbLine
 10
4.175685
 20
7.154685
 30
0.0
 11
4.407685
 21
6.922685
 31
0.0
  0
LINE
  5
7F
100
AcDbEntity
  8
0
390
0
  6
CONTINUOUS2
 62
     9
100
AcDbLine
 10
5.159685
 20
7.114685
 30
0.0
 11
5.391685
 21
6.882685
 31
0.0
  0
LINE
  5
80
100
AcDbEntity
  8
0
390
0
  6
CONTINUOUS2
 62
     9
100
AcDbLine
 10
4.927685
 20
6.882685
 30
0.0
 11
5.159685
 21
6.650685
 31
0.0
  0
LINE
  5
81
100
AcDbEntity
  8
0
390
0
  6
CONTINUOUS2
 62
     9
100
AcDbLine
 10
4.175685
 20
6.130685
 30
0.0
 11
4.887685
 21
6.842685
 31
0.0
  0
LINE
  5
82
100
AcDbEntity
  8
0
390
0
  6
CONTINUOUS2
 62
     9
100
AcDbLine
 10
4.175685
 20
6.130685
 30
0.0
 11
4.407685
 21
5.898685
 31
0.0
  0
LINE
  5
83
100
AcDbEntity
  8
0
390
0
  6
CONTINUOUS2
 62
     9
100
AcDbLine
 10
4.887685
 20
6.842685
 30
0.0
 11
5.119685
 21
6.610685
 31
0.0
  0
LINE
  5
84
100
AcDbEntity
  8
0
390
0
  6
CONTINUOUS2
 62
     9
100
AcDbLine
 10
4.407685
 20
5.898685
 30
0.0
 11
5.119685
 21
6.610685
 31
0.0
  0
LINE
  5
85
100
AcDbEntity
  8
0
390
0
  6
CONTINUOUS2
 62
     9
100
AcDbLine
 10
5.199685
 20
6.130685
 30
0.0
 11
5.431685
 21
5.898685
 31
0.0
  0
LINE
  5
86
100
AcDbEntity
  8
0
390
0
  6
CONTINUOUS2
 62
     9
100
AcDbLine
 10
5.199685
 20
7.154685
 30
0.0
 11
5.431685
 21
6.922685
 31
0.0
  0
LINE
  5
87
100
AcDbEntity
  8
0
390
0
  6
CONTINUOUS2
 62
     9
100
AcDbLine
 10
3.111685
 20
6.090685
 30
0.0
 11
3.583685
 21
5.618685
 31
0.0
  0
LINE
  5
88
100
AcDbEntity
  8
0
390
0
  6
CONTINUOUS2
 62
     9
100
AcDbLine
 10
3.583685
 20
5.618685
 30
0.0
 11
3.351685
 21
5.386685
 31
0.0
  0
LINE
  5
89
100
AcDbEntity
  8
0
390
0
  6
CONTINUOUS2
 62
     9
100
AcDbLine
 10
2.879685
 20
5.858685
 30
0.0
 11
3.351685
 21
5.386685
 31
0.0
  0
LINE
  5
8A
100
AcDbEntity
  8
0
390
0
  6
CONTINUOUS2
 62
     9
100
AcDbLine
 10
3.895685
 20
6.330685
 30
0.0
 11
4.607685
 21
5.618685
 31
0.0
  0
LINE
  5
8B
100
AcDbEntity
  8
0
390
0
  6
CONTINUOUS2
 62
     9
100
AcDbLine
 10
3.895685
 20
6.330685
 30
0.0
 11
3.663685
 21
6.098685
 31
0.0
  0
LINE
  5
8C
100
AcDbEntity
  8
0
390
0
  6
CONTINUOUS2
 62
     9
100
AcDbLine
 10
4.607685
 20
5.618685
 30
0.0
 11
4.375685
 21
5.386685
 31
0.0
  0
LINE
  5
8D
100
AcDbEntity
  8
0
390
0
  6
CONTINUOUS2
 62
     9
100
AcDbLine
 10
3.663685
 20
6.098685
 30
0.0
 11
4.375685
 21
5.386685
 31
0.0
  0
LINE
  5
8E
100
AcDbEntity
  8
0
390
0
  6
CONTINUOUS2
 62
     9
100
AcDbLine
 10
3.151685
 20
5.106685
 30
0.0
 11
3.863685
 21
5.818685
 31
0.0
  0
LINE
  5
8F
100
AcDbEntity
  8
0
390
0
  6
CONTINUOUS2
 62
     9
100
AcDbLine
 10
3.151685
 20
5.106685
 30
0.0
 11
3.383685
 21
4.874685
 31
0.0
  0
LINE
  5
90
100
AcDbEntity
  8
0
390
0
  6
CONTINUOUS2
 62
     9
100
AcDbLine
 10
3.863685
 20
5.818685
 30
0.0
 11
4.095685
 21
5.586685
 31
0.0
  0
LINE
  5
91
100
AcDbEntity
  8
0
390
0
  6
CONTINUOUS2
 62
     9
100
AcDbLine
 10
3.383685
 20
4.874685
 30
0.0
 11
4.095685
 21
5.586685
 31
0.0
  0
LINE
  5
92
100
AcDbEntity
  8
0
390
0
  6
CONTINUOUS2
 62
     9
100
AcDbLine
 10
3.895685
 20
5.306685
 30
0.0
 11
3.663685
 21
5.074685
 31
0.0
  0
LINE
  5
93
100
AcDbEntity
  8
0
390
0
  6
CONTINUOUS2
 62
     9
100
AcDbLine
 10
5.119685
 20
5.586685
 30
0.0
 11
4.647685
 21
5.114685
 31
0.0
  0
LINE
  5
94
100
AcDbEntity
  8
0
390
0
  6
CONTINUOUS2
 62
     9
100
AcDbLine
 10
5.119685
 20
5.586685
 30
0.0
 11
4.887685
 21
5.818685
 31
0.0
  0
LINE
  5
95
100
AcDbEntity
  8
0
390
0
  6
CONTINUOUS2
 62
     9
100
AcDbLine
 10
4.887685
 20
5.818685
 30
0.0
 11
4.415685
 21
5.346685
 31
0.0
  0
LINE
  5
96
100
AcDbEntity
  8
0
390
0
  6
CONTINUOUS2
 62
     9
100
AcDbLine
 10
4.919685
 20
6.330685
 30
0.0
 11
5.631685
 21
5.618685
 31
0.0
  0
LINE
  5
97
100
AcDbEntity
  8
0
390
0
  6
CONTINUOUS2
 62
     9
100
AcDbLine
 10
4.919685
 20
6.330685
 30
0.0
 11
4.687685
 21
6.098685
 31
0.0
  0
LINE
  5
98
100
AcDbEntity
  8
0
390
0
  6
CONTINUOUS2
 62
     9
100
AcDbLine
 10
5.631685
 20
5.618685
 30
0.0
 11
5.399685
 21
5.386685
 31
0.0
  0
LINE
  5
99
100
AcDbEntity
  8
0
390
0
  6
CONTINUOUS2
 62
     9
100
AcDbLine
 10
4.687685
 20
6.098685
 30
0.0
 11
5.399685
 21
5.386685
 31
0.0
  0
LINE
  5
9A
100
AcDbEntity
  8
0
390
0
  6
CONTINUOUS2
 62
     9
100
AcDbLine
 10
5.199685
 20
5.106685
 30
0.0
 11
5.671685
 21
5.578685
 31
0.0
  0
LINE
  5
9B
100
AcDbEntity
  8
0
390
0
  6
CONTINUOUS2
 62
     9
100
AcDbLine
 10
5.199685
 20
5.106685
 30
0.0
 11
5.431685
 21
4.874685
 31
0.0
  0
LINE
  5
9C
100
AcDbEntity
  8
0
390
0
  6
CONTINUOUS2
 62
     9
100
AcDbLine
 10
5.431685
 20
4.874685
 30
0.0
 11
5.903685
 21
5.346685
 31
0.0
  0
LINE
  5
9D
100
AcDbEntity
  8
0
390
0
  6
CONTINUOUS2
 62
     9
100
AcDbLine
 10
6.655685
 20
5.618685
 30
0.0
 11
6.423685
 21
5.386685
 31
0.0
  0
LINE
  5
9E
100
AcDbEntity
  8
0
390
0
  6
CONTINUOUS2
 62
     9
100
AcDbLine
 10
6.223685
 20
5.106685
 30
0.0
 11
6.695685
 21
5.578685
 31
0.0
  0
LINE
  5
9F
100
AcDbEntity
  8
0
390
0
  6
CONTINUOUS2
 62
     9
100
AcDbLine
 10
6.223685
 20
5.106685
 30
0.0
 11
6.455685
 21
4.874685
 31
0.0
  0
LINE
  5
A0
100
AcDbEntity
  8
0
390
0
  6
CONTINUOUS2
 62
     9
100
AcDbLine
 10
6.455685
 20
4.874685
 30
0.0
 11
6.927685
 21
5.346685
 31
0.0
  0
LINE
  5
A1
100
AcDbEntity
  8
0
390
0
  6
CONTINUOUS2
 62
     9
100
AcDbLine
 10
6.967685
 20
5.306685
 30
0.0
 11
6.735685
 21
5.074685
 31
0.0
  0
LINE
  5
A2
100
AcDbEntity
  8
0
390
0
  6
CONTINUOUS2
 62
     9
100
AcDbLine
 10
5.943685
 20
5.306685
 30
0.0
 11
6.655685
 21
4.594685
 31
0.0
  0
LINE
  5
A3
100
AcDbEntity
  8
0
390
0
  6
CONTINUOUS2
 62
     9
100
AcDbLine
 10
5.943685
 20
5.306685
 30
0.0
 11
5.711685
 21
5.074685
 31
0.0
  0
LINE
  5
A4
100
AcDbEntity
  8
0
390
0
  6
CONTINUOUS2
 62
     9
100
AcDbLine
 10
6.655685
 20
4.594685
 30
0.0
 11
6.423685
 21
4.362685
 31
0.0
  0
LINE
  5
A5
100
AcDbEntity
  8
0
390
0
  6
CONTINUOUS2
 62
     9
100
AcDbLine
 10
5.711685
 20
5.074685
 30
0.0
 11
6.423685
 21
4.362685
 31
0.0
  0
LINE
  5
A6
100
AcDbEntity
  8
0
390
0
  6
CONTINUOUS2
 62
     9
100
AcDbLine
 10
4.919685
 20
5.306685
 30
0.0
 11
5.631685
 21
4.594685
 31
0.0
  0
LINE
  5
A7
100
AcDbEntity
  8
0
390
0
  6
CONTINUOUS2
 62
     9
100
AcDbLine
 10
4.919685
 20
5.306685
 30
0.0
 11
4.687685
 21
5.074685
 31
0.0
  0
LINE
  5
A8
100
AcDbEntity
  8
0
390
0
  6
CONTINUOUS2
 62
     9
100
AcDbLine
 10
5.631685
 20
4.594685
 30
0.0
 11
5.399685
 21
4.362685
 31
0.0
  0
LINE
  5
A9
100
AcDbEntity
  8
0
390
0
  6
CONTINUOUS2
 62
     9
100
AcDbLine
 10
4.687685
 20
5.074685
 30
0.0
 11
5.399685
 21
4.362685
 31
0.0
  0
LINE
  5
AA
100
AcDbEntity
  8
0
390
0
  6
CONTINUOUS2
 62
     9
100
AcDbLine
 10
4.887685
 20
4.794685
 30
0.0
 11
5.119685
 21
4.562685
 31
0.0
  0
LINE
  5
AB
100
AcDbEntity
  8
0
390
0
  6
CONTINUOUS2
 62
     9
100
AcDbLine
 10
5.911685
 20
4.794685
 30
0.0
 11
5.199685
 21
4.082685
 31
0.0
  0
LINE
  5
AC
100
AcDbEntity
  8
0
390
0
  6
CONTINUOUS2
 62
     9
100
AcDbLine
 10
5.911685
 20
4.794685
 30
0.0
 11
6.143685
 21
4.562685
 31
0.0
  0
LINE
  5
AD
100
AcDbEntity
  8
0
390
0
  6
CONTINUOUS2
 62
     9
100
AcDbLine
 10
5.199685
 20
4.082685
 30
0.0
 11
5.431685
 21
3.850685
 31
0.0
  0
LINE
  5
AE
100
AcDbEntity
  8
0
390
0
  6
CONTINUOUS2
 62
     9
100
AcDbLine
 10
6.143685
 20
4.562685
 30
0.0
 11
5.431685
 21
3.850685
 31
0.0
  0
LINE
  5
AF
100
AcDbEntity
  8
0
390
0
  6
CONTINUOUS2
 62
     9
100
AcDbLine
 10
6.455685
 20
3.850685
 30
0.0
 11
6.927685
 21
4.322685
 31
0.0
  0
LINE
  5
B0
100
AcDbEntity
  8
0
390
0
  6
CONTINUOUS2
 62
     9
100
AcDbLine
 10
6.455685
 20
3.850685
 30
0.0
 11
6.223685
 21
4.082685
 31
0.0
  0
LINE
  5
B1
100
AcDbEntity
  8
0
390
0
  6
CONTINUOUS2
 62
     9
100
AcDbLine
 10
6.223685
 20
4.082685
 30
0.0
 11
6.695685
 21
4.554685
 31
0.0
  0
LINE
  5
B2
100
AcDbEntity
  8
0
390
0
  6
CONTINUOUS2
 62
     9
100
AcDbLine
 10
5.943685
 20
4.282685
 30
0.0
 11
6.655685
 21
3.570685
 31
0.0
  0
LINE
  5
B3
100
AcDbEntity
  8
0
390
0
  6
CONTINUOUS2
 62
     9
100
AcDbLine
 10
5.943685
 20
4.282685
 30
0.0
 11
5.711685
 21
4.050685
 31
0.0
  0
LINE
  5
B4
100
AcDbEntity
  8
0
390
0
  6
CONTINUOUS2
 62
     9
100
AcDbLine
 10
6.655685
 20
3.570685
 30
0.0
 11
6.423685
 21
3.338685
 31
0.0
  0
LINE
  5
B5
100
AcDbEntity
  8
0
390
0
  6
CONTINUOUS2
 62
     9
100
AcDbLine
 10
5.711685
 20
4.050685
 30
0.0
 11
6.423685
 21
3.338685
 31
0.0
  0
LINE
  5
B6
100
AcDbEntity
  8
0
390
0
  6
CONTINUOUS2
 62
     9
100
AcDbLine
 10
4.927685
 20
3.810685
 30
0.0
 11
5.399685
 21
3.338685
 31
0.0
  0
LINE
  5
B7
100
AcDbEntity
  8
0
390
0
  6
CONTINUOUS2
 62
     9
100
AcDbLine
 10
5.399685
 20
3.338685
 30
0.0
 11
5.631685
 21
3.570685
 31
0.0
  0
LINE
  5
B8
100
AcDbEntity
  8
0
390
0
  6
CONTINUOUS2
 62
     9
100
AcDbLine
 10
5.159685
 20
4.042685
 30
0.0
 11
5.631685
 21
3.570685
 31
0.0
  0
LINE
  5
B9
100
AcDbEntity
  8
0
390
0
  6
CONTINUOUS2
 62
     9
100
AcDbLine
 10
5.199685
 20
3.058685
 30
0.0
 11
5.911685
 21
3.770685
 31
0.0
  0
LINE
  5
BA
100
AcDbEntity
  8
0
390
0
  6
CONTINUOUS2
 62
     9
100
AcDbLine
 10
5.199685
 20
3.058685
 30
0.0
 11
5.431685
 21
2.826685
 31
0.0
  0
LINE
  5
BB
100
AcDbEntity
  8
0
390
0
  6
CONTINUOUS2
 62
     9
100
AcDbLine
 10
5.911685
 20
3.770685
 30
0.0
 11
6.143685
 21
3.538685
 31
0.0
  0
LINE
  5
BC
100
AcDbEntity
  8
0
390
0
  6
CONTINUOUS2
 62
     9
100
AcDbLine
 10
5.431685
 20
2.826685
 30
0.0
 11
6.143685
 21
3.538685
 31
0.0
  0
LINE
  5
BD
100
AcDbEntity
  8
0
390
0
  6
CONTINUOUS2
 62
     9
100
AcDbLine
 10
6.695685
 20
3.066685
 30
0.0
 11
6.927685
 21
3.298685
 31
0.0
  0
LINE
  5
BE
100
AcDbEntity
  8
0
390
0
  6
CONTINUOUS2
 62
     9
100
AcDbLine
 10
6.463685
 20
3.298685
 30
0.0
 11
6.695685
 21
3.530685
 31
0.0
  0
LINE
  5
BF
100
AcDbEntity
  8
0
390
0
  6
CONTINUOUS2
 62
     9
100
AcDbLine
 10
6.967685
 20
4.282685
 30
0.0
 11
6.735685
 21
4.050685
 31
0.0
  0
LINE
  5
C0
100
AcDbEntity
  8
0
390
0
  6
CONTINUOUS2
 62
     9
100
AcDbLine
 10
5.943685
 20
3.258685
 30
0.0
 11
5.711685
 21
3.026685
 31
0.0
  0
LINE
  5
C1
100
AcDbEntity
  8
0
390
0
  6
CONTINUOUS2
 62
     9
100
AcDbLine
 10
6.967685
 20
3.258685
 30
0.0
 11
6.735685
 21
3.026685
 31
0.0
  0
LINE
  5
C2
100
AcDbEntity
  8
0
390
0
  6
CONTINUOUS2
 62
     9
100
AcDbLine
 10
4.607685
 20
3.570685
 30
0.0
 11
4.375685
 21
3.338685
 31
0.0
  0
LINE
  5
C3
100
AcDbEntity
  8
0
390
0
  6
CONTINUOUS2
 62
     9
100
AcDbLine
 10
4.887685
 20
3.770685
 30
0.0
 11
4.175685
 21
3.058685
 31
0.0
  0
LINE
  5
C4
100
AcDbEntity
  8
0
390
0
  6
CONTINUOUS2
 62
     9
100
AcDbLine
 10
4.887685
 20
3.770685
 30
0.0
 11
5.119685
 21
3.538685
 31
0.0
  0
LINE
  5
C5
100
AcDbEntity
  8
0
390
0
  6
CONTINUOUS2
 62
     9
100
AcDbLine
 10
4.175685
 20
3.058685
 30
0.0
 11
4.407685
 21
2.826685
 31
0.0
  0
LINE
  5
C6
100
AcDbEntity
  8
0
390
0
  6
CONTINUOUS2
 62
     9
100
AcDbLine
 10
5.119685
 20
3.538685
 30
0.0
 11
4.407685
 21
2.826685
 31
0.0
  0
LINE
  5
C7
100
AcDbEntity
  8
0
390
0
  6
CONTINUOUS2
 62
     9
100
AcDbLine
 10
4.919685
 20
3.258685
 30
0.0
 11
5.391685
 21
2.786685
 31
0.0
  0
LINE
  5
C8
100
AcDbEntity
  8
0
390
0
  6
CONTINUOUS2
 62
     9
100
AcDbLine
 10
4.919685
 20
3.258685
 30
0.0
 11
4.687685
 21
3.026685
 31
0.0
  0
LINE
  5
C9
100
AcDbEntity
  8
0
390
0
  6
CONTINUOUS2
 62
     9
100
AcDbLine
 10
4.687685
 20
3.026685
 30
0.0
 11
5.159685
 21
2.554685
 31
0.0
  0
LINE
  5
CA
100
AcDbEntity
  8
0
390
0
  6
CONTINUOUS2
 62
     9
100
AcDbLine
 10
5.199685
 20
2.034685
 30
0.0
 11
5.431685
 21
1.802685
 31
0.0
  0
LINE
  5
CB
100
AcDbEntity
  8
0
390
0
  6
CONTINUOUS2
 62
     9
100
AcDbLine
 10
4.687685
 20
2.002685
 30
0.0
 11
5.159685
 21
1.530685
 31
0.0
  0
LINE
  5
CC
100
AcDbEntity
  8
0
390
0
  6
CONTINUOUS2
 62
     9
100
AcDbLine
 10
4.687685
 20
2.002685
 30
0.0
 11
4.919685
 21
2.234685
 31
0.0
  0
LINE
  5
CD
100
AcDbEntity
  8
0
390
0
  6
CONTINUOUS2
 62
     9
100
AcDbLine
 10
4.919685
 20
2.234685
 30
0.0
 11
5.391685
 21
1.762685
 31
0.0
  0
LINE
  5
CE
100
AcDbEntity
  8
0
390
0
  6
CONTINUOUS2
 62
     9
100
AcDbLine
 10
4.887685
 20
1.722685
 30
0.0
 11
5.119685
 21
1.490685
 31
0.0
  0
LINE
  5
CF
100
AcDbEntity
  8
0
390
0
  6
CONTINUOUS2
 62
     9
100
AcDbLine
 10
3.663685
 20
2.002685
 30
0.0
 11
4.135685
 21
1.530685
 31
0.0
  0
LINE
  5
D0
100
AcDbEntity
  8
0
390
0
  6
CONTINUOUS2
 62
     9
100
AcDbLine
 10
3.663685
 20
2.002685
 30
0.0
 11
3.895685
 21
2.234685
 31
0.0
  0
LINE
  5
D1
100
AcDbEntity
  8
0
390
0
  6
CONTINUOUS2
 62
     9
100
AcDbLine
 10
3.895685
 20
2.234685
 30
0.0
 11
4.367685
 21
1.762685
 31
0.0
  0
LINE
  5
D2
100
AcDbEntity
  8
0
390
0
  6
CONTINUOUS2
 62
     9
100
AcDbLine
 10
3.863685
 20
1.722685
 30
0.0
 11
4.095685
 21
1.490685
 31
0.0
  0
LINE
  5
D3
100
AcDbEntity
  8
0
390
0
  6
CONTINUOUS2
 62
     9
100
AcDbLine
 10
4.887685
 20
2.746685
 30
0.0
 11
4.175685
 21
2.034685
 31
0.0
  0
LINE
  5
D4
100
AcDbEntity
  8
0
390
0
  6
CONTINUOUS2
 62
     9
100
AcDbLine
 10
4.887685
 20
2.746685
 30
0.0
 11
5.119685
 21
2.514685
 31
0.0
  0
LINE
  5
D5
100
AcDbEntity
  8
0
390
0
  6
CONTINUOUS2
 62
     9
100
AcDbLine
 10
4.175685
 20
2.034685
 30
0.0
 11
4.407685
 21
1.802685
 31
0.0
  0
LINE
  5
D6
100
AcDbEntity
  8
0
390
0
  6
CONTINUOUS2
 62
     9
100
AcDbLine
 10
5.119685
 20
2.514685
 30
0.0
 11
4.407685
 21
1.802685
 31
0.0
  0
LINE
  5
D7
100
AcDbEntity
  8
0
390
0
  6
CONTINUOUS2
 62
     9
100
AcDbLine
 10
2.879685
 20
1.762685
 30
0.0
 11
3.111685
 21
1.530685
 31
0.0
  0
LINE
  5
D8
100
AcDbEntity
  8
0
390
0
  6
CONTINUOUS2
 62
     9
100
AcDbLine
 10
3.111685
 20
1.994685
 30
0.0
 11
3.343685
 21
1.762685
 31
0.0
  0
LINE
  5
D9
100
AcDbEntity
  8
0
390
0
  6
CONTINUOUS2
 62
     9
100
AcDbLine
 10
2.839685
 20
1.722685
 30
0.0
 11
3.071685
 21
1.490685
 31
0.0
  0
LINE
  5
DA
100
AcDbEntity
  8
0
390
0
  6
CONTINUOUS2
 62
     9
100
AcDbLine
 10
2.839685
 20
2.746685
 30
0.0
 11
3.071685
 21
2.514685
 31
0.0
  0
LINE
  5
DB
100
AcDbEntity
  8
0
390
0
  6
CONTINUOUS2
 62
     9
100
AcDbLine
 10
2.871685
 20
3.258685
 30
0.0
 11
3.583685
 21
2.546685
 31
0.0
  0
LINE
  5
DC
100
AcDbEntity
  8
0
390
0
  6
CONTINUOUS2
 62
     9
100
AcDbLine
 10
2.871685
 20
3.258685
 30
0.0
 11
2.639685
 21
3.026685
 31
0.0
  0
LINE
  5
DD
100
AcDbEntity
  8
0
390
0
  6
CONTINUOUS2
 62
     9
100
AcDbLine
 10
3.583685
 20
2.546685
 30
0.0
 11
3.351685
 21
2.314685
 31
0.0
  0
LINE
  5
DE
100
AcDbEntity
  8
0
390
0
  6
CONTINUOUS2
 62
     9
100
AcDbLine
 10
2.639685
 20
3.026685
 30
0.0
 11
3.351685
 21
2.314685
 31
0.0
  0
LINE
  5
DF
100
AcDbEntity
  8
0
390
0
  6
CONTINUOUS2
 62
     9
100
AcDbLine
 10
3.863685
 20
2.746685
 30
0.0
 11
3.151685
 21
2.034685
 31
0.0
  0
LINE
  5
E0
100
AcDbEntity
  8
0
390
0
  6
CONTINUOUS2
 62
     9
100
AcDbLine
 10
3.863685
 20
2.746685
 30
0.0
 11
4.095685
 21
2.514685
 31
0.0
  0
LINE
  5
E1
100
AcDbEntity
  8
0
390
0
  6
CONTINUOUS2
 62
     9
100
AcDbLine
 10
3.151685
 20
2.034685
 30
0.0
 11
3.383685
 21
1.802685
 31
0.0
  0
LINE
  5
E2
100
AcDbEntity
  8
0
390
0
  6
CONTINUOUS2
 62
     9
100
AcDbLine
 10
4.095685
 20
2.514685
 30
0.0
 11
3.383685
 21
1.802685
 31
0.0
  0
LINE
  5
E3
100
AcDbEntity
  8
0
390
0
  6
CONTINUOUS2
 62
     9
100
AcDbLine
 10
3.895685
 20
3.258685
 30
0.0
 11
4.607685
 21
2.546685
 31
0.0
  0
LINE
  5
E4
100
AcDbEntity
  8
0
390
0
  6
CONTINUOUS2
 62
     9
100
AcDbLine
 10
3.895685
 20
3.258685
 30
0.0
 11
3.663685
 21
3.026685
 31
0.0
  0
LINE
  5
E5
100
AcDbEntity
  8
0
390
0
  6
CONTINUOUS2
 62
     9
100
AcDbLine
 10
4.607685
 20
2.546685
 30
0.0
 11
4.375685
 21
2.314685
 31
0.0
  0
LINE
  5
E6
100
AcDbEntity
  8
0
390
0
  6
CONTINUOUS2
 62
     9
100
AcDbLine
 10
3.663685
 20
3.026685
 30
0.0
 11
4.375685
 21
2.314685
 31
0.0
  0
LINE
  5
E7
100
AcDbEntity
  8
0
390
0
  6
CONTINUOUS2
 62
     9
100
AcDbLine
 10
3.151685
 20
3.058685
 30
0.0
 11
3.623685
 21
3.530685
 31
0.0
  0
LINE
  5
E8
100
AcDbEntity
  8
0
390
0
  6
CONTINUOUS2
 62
     9
100
AcDbLine
 10
3.151685
 20
3.058685
 30
0.0
 11
3.383685
 21
2.826685
 31
0.0
  0
LINE
  5
E9
100
AcDbEntity
  8
0
390
0
  6
CONTINUOUS2
 62
     9
100
AcDbLine
 10
3.383685
 20
2.826685
 30
0.0
 11
3.855685
 21
3.298685
 31
0.0
  0
LINE
  5
EA
100
AcDbEntity
  8
0
390
0
  6
CONTINUOUS2
 62
     9
100
AcDbLine
 10
1.343685
 20
3.298685
 30
0.0
 11
1.815685
 21
3.770685
 31
0.0
  0
LINE
  5
EB
100
AcDbEntity
  8
0
390
0
  6
CONTINUOUS2
 62
     9
100
AcDbLine
 10
1.815685
 20
3.770685
 30
0.0
 11
2.047685
 21
3.538685
 31
0.0
  0
LINE
  5
EC
100
AcDbEntity
  8
0
390
0
  6
CONTINUOUS2
 62
     9
100
AcDbLine
 10
1.575685
 20
3.066685
 30
0.0
 11
2.047685
 21
3.538685
 31
0.0
  0
LINE
  5
ED
100
AcDbEntity
  8
0
390
0
  6
CONTINUOUS2
 62
     9
100
AcDbLine
 10
1.535685
 20
3.570685
 30
0.0
 11
1.303685
 21
3.338685
 31
0.0
  0
LINE
  5
EE
100
AcDbEntity
  8
0
390
0
  6
CONTINUOUS2
 62
     9
100
AcDbLine
 10
1.847685
 20
3.258685
 30
0.0
 11
1.615685
 21
3.026685
 31
0.0
  0
LINE
  5
EF
100
AcDbEntity
  8
0
390
0
  6
CONTINUOUS2
 62
     9
100
AcDbLine
 10
3.071685
 20
3.538685
 30
0.0
 11
2.599685
 21
3.066685
 31
0.0
  0
LINE
  5
F0
100
AcDbEntity
  8
0
390
0
  6
CONTINUOUS2
 62
     9
100
AcDbLine
 10
3.071685
 20
3.538685
 30
0.0
 11
2.839685
 21
3.770685
 31
0.0
  0
LINE
  5
F1
100
AcDbEntity
  8
0
390
0
  6
CONTINUOUS2
 62
     9
100
AcDbLine
 10
2.839685
 20
3.770685
 30
0.0
 11
2.367685
 21
3.298685
 31
0.0
  0
LINE
  5
F2
100
AcDbEntity
  8
0
390
0
  6
CONTINUOUS2
 62
     9
100
AcDbLine
 10
1.615685
 20
4.050685
 30
0.0
 11
2.327685
 21
3.338685
 31
0.0
  0
LINE
  5
F3
100
AcDbEntity
  8
0
390
0
  6
CONTINUOUS2
 62
     9
100
AcDbLine
 10
1.615685
 20
4.050685
 30
0.0
 11
1.847685
 21
4.282685
 31
0.0
  0
LINE
  5
F4
100
AcDbEntity
  8
0
390
0
  6
CONTINUOUS2
 62
     9
100
AcDbLine
 10
2.327685
 20
3.338685
 30
0.0
 11
2.559685
 21
3.570685
 31
0.0
  0
LINE
  5
F5
100
AcDbEntity
  8
0
390
0
  6
CONTINUOUS2
 62
     9
100
AcDbLine
 10
1.847685
 20
4.282685
 30
0.0
 11
2.559685
 21
3.570685
 31
0.0
  0
LINE
  5
F6
100
AcDbEntity
  8
0
390
0
  6
CONTINUOUS2
 62
     9
100
AcDbLine
 10
2.871685
 20
4.282685
 30
0.0
 11
3.583685
 21
3.570685
 31
0.0
  0
LINE
  5
F7
100
AcDbEntity
  8
0
390
0
  6
CONTINUOUS2
 62
     9
100
AcDbLine
 10
2.871685
 20
4.282685
 30
0.0
 11
2.639685
 21
4.050685
 31
0.0
  0
LINE
  5
F8
100
AcDbEntity
  8
0
390
0
  6
CONTINUOUS2
 62
     9
100
AcDbLine
 10
3.583685
 20
3.570685
 30
0.0
 11
3.351685
 21
3.338685
 31
0.0
  0
LINE
  5
F9
100
AcDbEntity
  8
0
390
0
  6
CONTINUOUS2
 62
     9
100
AcDbLine
 10
2.639685
 20
4.050685
 30
0.0
 11
3.351685
 21
3.338685
 31
0.0
  0
LINE
  5
FA
100
AcDbEntity
  8
0
390
0
  6
CONTINUOUS2
 62
     9
100
AcDbLine
 10
3.151685
 20
4.082685
 30
0.0
 11
3.383685
 21
3.850685
 31
0.0
  0
LINE
  5
FB
100
AcDbEntity
  8
0
390
0
  6
CONTINUOUS2
 62
     9
100
AcDbLine
 10
2.839685
 20
4.794685
 30
0.0
 11
2.127685
 21
4.082685
 31
0.0
  0
LINE
  5
FC
100
AcDbEntity
  8
0
390
0
  6
CONTINUOUS2
 62
     9
100
AcDbLine
 10
2.839685
 20
4.794685
 30
0.0
 11
3.071685
 21
4.562685
 31
0.0
  0
LINE
  5
FD
100
AcDbEntity
  8
0
390
0
  6
CONTINUOUS2
 62
     9
100
AcDbLine
 10
2.127685
 20
4.082685
 30
0.0
 11
2.359685
 21
3.850685
 31
0.0
  0
LINE
  5
FE
100
AcDbEntity
  8
0
390
0
  6
CONTINUOUS2
 62
     9
100
AcDbLine
 10
3.071685
 20
4.562685
 30
0.0
 11
2.359685
 21
3.850685
 31
0.0
  0
LINE
  5
FF
100
AcDbEntity
  8
0
390
0
  6
CONTINUOUS2
 62
     9
100
AcDbLine
 10
1.343685
 20
4.322685
 30
0.0
 11
1.815685
 21
4.794685
 31
0.0
  0
LINE
  5
100
100
AcDbEntity
  8
0
390
0
  6
CONTINUOUS2
 62
     9
100
AcDbLine
 10
1.815685
 20
4.794685
 30
0.0
 11
2.047685
 21
4.562685
 31
0.0
  0
LINE
  5
101
100
AcDbEntity
  8
0
390
0
  6
CONTINUOUS2
 62
     9
100
AcDbLine
 10
1.575685
 20
4.090685
 30
0.0
 11
2.047685
 21
4.562685
 31
0.0
  0
LINE
  5
102
100
AcDbEntity
  8
0
390
0
  6
CONTINUOUS2
 62
     9
100
AcDbLine
 10
1.535685
 20
4.594685
 30
0.0
 11
1.303685
 21
4.362685
 31
0.0
  0
LINE
  5
103
100
AcDbEntity
  8
0
390
0
  6
CONTINUOUS2
 62
     9
100
AcDbLine
 10
1.847685
 20
5.306685
 30
0.0
 11
2.559685
 21
4.594685
 31
0.0
  0
LINE
  5
104
100
AcDbEntity
  8
0
390
0
  6
CONTINUOUS2
 62
     9
100
AcDbLine
 10
1.847685
 20
5.306685
 30
0.0
 11
1.615685
 21
5.074685
 31
0.0
  0
LINE
  5
105
100
AcDbEntity
  8
0
390
0
  6
CONTINUOUS2
 62
     9
100
AcDbLine
 10
2.559685
 20
4.594685
 30
0.0
 11
2.327685
 21
4.362685
 31
0.0
  0
LINE
  5
106
100
AcDbEntity
  8
0
390
0
  6
CONTINUOUS2
 62
     9
100
AcDbLine
 10
1.615685
 20
5.074685
 30
0.0
 11
2.327685
 21
4.362685
 31
0.0
  0
LINE
  5
107
100
AcDbEntity
  8
0
390
0
  6
CONTINUOUS2
 62
     9
100
AcDbLine
 10
2.871685
 20
5.306685
 30
0.0
 11
3.343685
 21
4.834685
 31
0.0
  0
LINE
  5
108
100
AcDbEntity
  8
0
390
0
  6
CONTINUOUS2
 62
     9
100
AcDbLine
 10
2.871685
 20
5.306685
 30
0.0
 11
2.639685
 21
5.074685
 31
0.0
  0
LINE
  5
109
100
AcDbEntity
  8
0
390
0
  6
CONTINUOUS2
 62
     9
100
AcDbLine
 10
2.639685
 20
5.074685
 30
0.0
 11
3.111685
 21
4.602685
 31
0.0
  0
LINE
  5
10A
100
AcDbEntity
  8
0
390
0
  6
CONTINUOUS2
 62
     9
100
AcDbLine
 10
2.127685
 20
5.106685
 30
0.0
 11
2.839685
 21
5.818685
 31
0.0
  0
LINE
  5
10B
100
AcDbEntity
  8
0
390
0
  6
CONTINUOUS2
 62
     9
100
AcDbLine
 10
2.127685
 20
5.106685
 30
0.0
 11
2.359685
 21
4.874685
 31
0.0
  0
LINE
  5
10C
100
AcDbEntity
  8
0
390
0
  6
CONTINUOUS2
 62
     9
100
AcDbLine
 10
2.839685
 20
5.818685
 30
0.0
 11
3.071685
 21
5.586685
 31
0.0
  0
LINE
  5
10D
100
AcDbEntity
  8
0
390
0
  6
CONTINUOUS2
 62
     9
100
AcDbLine
 10
2.359685
 20
4.874685
 30
0.0
 11
3.071685
 21
5.586685
 31
0.0
  0
LINE
  5
10E
100
AcDbEntity
  8
0
390
0
  6
CONTINUOUS2
 62
     9
100
AcDbLine
 10
1.303685
 20
5.386685
 30
0.0
 11
1.535685
 21
5.618685
 31
0.0
  0
LINE
  5
10F
100
AcDbEntity
  8
0
390
0
  6
CONTINUOUS2
 62
     9
100
AcDbLine
 10
1.575685
 20
5.578685
 30
0.0
 11
1.343685
 21
5.346685
 31
0.0
  0
LINE
  5
110
100
AcDbEntity
  8
0
390
0
  6
CONTINUOUS2
 62
     9
100
AcDbLine
 10
1.807685
 20
5.346685
 30
0.0
 11
1.575685
 21
5.114685
 31
0.0
  0
ARC
  5
111
100
AcDbEntity
  8
0
390
0
  6
CONTINUOUS2
 62
     9
100
AcDbCircle
 10
2.628843
 20
6.631843
 30
0.0
 40
0.354745
210
0.0
220
0.0
230
1.0
100
AcDbArc
 50
45.0
 51
90.0
  0
ARC
  5
112
100
AcDbEntity
  8
0
390
0
  6
CONTINUOUS2
 62
     9
100
AcDbCircle
 10
2.628843
 20
6.631843
 30
0.0
 40
0.682843
210
0.0
220
0.0
230
1.0
100
AcDbArc
 50
45.0
 51
90.0
  0
ARC
  5
113
100
AcDbEntity
  8
0
390
0
  6
CONTINUOUS2
 62
     9
100
AcDbCircle
 10
1.670646
 20
5.753646
 30
0.0
 40
0.51896
210
0.0
220
0.0
230
1.0
100
AcDbArc
 50
180.0
 51
225.0
  0
ARC
  5
114
100
AcDbEntity
  8
0
390
0
  6
CONTINUOUS2
 62
     9
100
AcDbCircle
 10
1.670646
 20
5.753646
 30
0.0
 40
0.190863
210
0.0
220
0.0
230
1.0
100
AcDbArc
 50
180.0
 51
225.0
  0
ARC
  5
115
100
AcDbEntity
  8
0
390
0
  6
CONTINUOUS2
 62
     9
100
AcDbCircle
 10
3.537959
 20
6.768411
 30
0.0
 40
0.546274
210
0.0
220
0.0
230
1.0
100
AcDbArc
 50
90.0
 51
135.0
  0
ARC
  5
116
100
AcDbEntity
  8
0
390
0
  6
CONTINUOUS2
 62
     9
100
AcDbCircle
 10
3.537959
 20
6.768411
 30
0.0
 40
0.218177
210
0.0
220
0.0
230
1.0
100
AcDbArc
 50
90.0
 51
135.0
  0
ARC
  5
117
100
AcDbEntity
  8
0
390
0
  6
CONTINUOUS2
 62
     9
100
AcDbCircle
 10
3.652843
 20
6.631843
 30
0.0
 40
0.682843
210
0.0
220
0.0
230
1.0
100
AcDbArc
 50
45.0
 51
90.0
  0
ARC
  5
118
100
AcDbEntity
  8
0
390
0
  6
CONTINUOUS2
 62
     9
100
AcDbCircle
 10
3.652843
 20
6.631843
 30
0.0
 40
0.354745
210
0.0
220
0.0
230
1.0
100
AcDbArc
 50
45.0
 51
90.0
  0
ARC
  5
119
100
AcDbEntity
  8
0
390
0
  6
CONTINUOUS2
 62
     9
100
AcDbCircle
 10
4.561959
 20
6.768411
 30
0.0
 40
0.546274
210
0.0
220
0.0
230
1.0
100
AcDbArc
 50
90.0
 51
135.0
  0
ARC
  5
11A
100
AcDbEntity
  8
0
390
0
  6
CONTINUOUS2
 62
     9
100
AcDbCircle
 10
4.561959
 20
6.768411
 30
0.0
 40
0.218177
210
0.0
220
0.0
230
1.0
100
AcDbArc
 50
90.0
 51
135.0
  0
ARC
  5
11B
100
AcDbEntity
  8
0
390
0
  6
CONTINUOUS2
 62
     9
100
AcDbCircle
 10
4.676843
 20
6.631843
 30
0.0
 40
0.682843
210
0.0
220
0.0
230
1.0
100
AcDbArc
 50
45.0
 51
90.0
  0
ARC
  5
11C
100
AcDbEntity
  8
0
390
0
  6
CONTINUOUS2
 62
     9
100
AcDbCircle
 10
4.676843
 20
6.631843
 30
0.0
 40
0.354745
210
0.0
220
0.0
230
1.0
100
AcDbArc
 50
45.0
 51
90.0
  0
ARC
  5
11D
100
AcDbEntity
  8
0
390
0
  6
CONTINUOUS2
 62
     9
100
AcDbCircle
 10
4.928156
 20
6.419156
 30
0.0
 40
0.655529
210
0.0
220
0.0
230
1.0
100
AcDbArc
 50
0.0
 51
45.0
  0
ARC
  5
11E
100
AcDbEntity
  8
0
390
0
  6
CONTINUOUS2
 62
     9
100
AcDbCircle
 10
4.928156
 20
6.419156
 30
0.0
 40
0.327431
210
0.0
220
0.0
230
1.0
100
AcDbArc
 50
0.0
 51
45.0
  0
ARC
  5
11F
100
AcDbEntity
  8
0
390
0
  6
CONTINUOUS2
 62
     9
100
AcDbCircle
 10
5.064725
 20
6.265646
 30
0.0
 40
0.190863
210
0.0
220
0.0
230
1.0
100
AcDbArc
 50
315.0
 51
360.0
  0
ARC
  5
120
100
AcDbEntity
  8
0
390
0
  6
CONTINUOUS2
 62
     9
100
AcDbCircle
 10
5.064725
 20
6.265646
 30
0.0
 40
0.51896
210
0.0
220
0.0
230
1.0
100
AcDbArc
 50
315.0
 51
360.0
  0
ARC
  5
121
100
AcDbEntity
  8
0
390
0
  6
CONTINUOUS2
 62
     9
100
AcDbCircle
 10
3.206646
 20
6.475725
 30
0.0
 40
0.51896
210
0.0
220
0.0
230
1.0
100
AcDbArc
 50
135.0
 51
180.0
  0
ARC
  5
122
100
AcDbEntity
  8
0
390
0
  6
CONTINUOUS2
 62
     9
100
AcDbCircle
 10
3.206646
 20
6.475725
 30
0.0
 40
0.190863
210
0.0
220
0.0
230
1.0
100
AcDbArc
 50
135.0
 51
180.0
  0
ARC
  5
123
100
AcDbEntity
  8
0
390
0
  6
CONTINUOUS2
 62
     9
100
AcDbCircle
 10
3.343214
 20
6.322214
 30
0.0
 40
0.327431
210
0.0
220
0.0
230
1.0
100
AcDbArc
 50
180.0
 51
225.0
  0
ARC
  5
124
100
AcDbEntity
  8
0
390
0
  6
CONTINUOUS2
 62
     9
100
AcDbCircle
 10
3.343214
 20
6.322214
 30
0.0
 40
0.655529
210
0.0
220
0.0
230
1.0
100
AcDbArc
 50
180.0
 51
225.0
  0
ARC
  5
125
100
AcDbEntity
  8
0
390
0
  6
CONTINUOUS2
 62
     9
100
AcDbCircle
 10
4.20347
 20
5.558901
 30
0.0
 40
0.300118
210
0.0
220
0.0
230
1.0
100
AcDbArc
 50
270.0
 51
315.0
  0
ARC
  5
126
100
AcDbEntity
  8
0
390
0
  6
CONTINUOUS2
 62
     9
100
AcDbCircle
 10
4.20347
 20
5.558901
 30
0.0
 40
0.628215
210
0.0
220
0.0
230
1.0
100
AcDbArc
 50
270.0
 51
315.0
  0
ARC
  5
127
100
AcDbEntity
  8
0
390
0
  6
CONTINUOUS2
 62
     9
100
AcDbCircle
 10
4.011332
 20
5.422332
 30
0.0
 40
0.163549
210
0.0
220
0.0
230
1.0
100
AcDbArc
 50
225.0
 51
270.0
  0
ARC
  5
128
100
AcDbEntity
  8
0
390
0
  6
CONTINUOUS2
 62
     9
100
AcDbCircle
 10
4.011332
 20
5.422332
 30
0.0
 40
0.491647
210
0.0
220
0.0
230
1.0
100
AcDbArc
 50
225.0
 51
270.0
  0
ARC
  5
129
100
AcDbEntity
  8
0
390
0
  6
CONTINUOUS2
 62
     9
100
AcDbCircle
 10
5.585959
 20
6.768411
 30
0.0
 40
0.546274
210
0.0
220
0.0
230
1.0
100
AcDbArc
 50
90.0
 51
135.0
  0
ARC
  5
12A
100
AcDbEntity
  8
0
390
0
  6
CONTINUOUS2
 62
     9
100
AcDbCircle
 10
5.585959
 20
6.768411
 30
0.0
 40
0.218177
210
0.0
220
0.0
230
1.0
100
AcDbArc
 50
90.0
 51
135.0
  0
ARC
  5
12B
100
AcDbEntity
  8
0
390
0
  6
CONTINUOUS2
 62
     9
100
AcDbCircle
 10
6.464156
 20
5.810214
 30
0.0
 40
0.327431
210
0.0
220
0.0
230
1.0
100
AcDbArc
 50
315.0
 51
361.421287
  0
ARC
  5
12C
100
AcDbEntity
  8
0
390
0
  6
CONTINUOUS2
 62
     9
100
AcDbCircle
 10
6.464156
 20
5.810214
 30
0.0
 40
0.655529
210
0.0
220
0.0
230
1.0
100
AcDbArc
 50
315.0
 51
360.0
  0
ARC
  5
12D
100
AcDbEntity
  8
0
390
0
  6
CONTINUOUS2
 62
     9
100
AcDbCircle
 10
6.269411
 20
5.232411
 30
0.0
 40
0.546274
210
0.0
220
0.0
230
1.0
100
AcDbArc
 50
45.0
 51
90.0
  0
ARC
  5
12E
100
AcDbEntity
  8
0
390
0
  6
CONTINUOUS2
 62
     9
100
AcDbCircle
 10
6.269411
 20
5.232411
 30
0.0
 40
0.218177
210
0.0
220
0.0
230
1.0
100
AcDbArc
 50
45.0
 51
90.0
  0
ARC
  5
12F
100
AcDbEntity
  8
0
390
0
  6
CONTINUOUS2
 62
     9
100
AcDbCircle
 10
6.154528
 20
5.095843
 30
0.0
 40
0.682843
210
0.0
220
0.0
230
1.0
100
AcDbArc
 50
90.0
 51
135.0
  0
ARC
  5
130
100
AcDbEntity
  8
0
390
0
  6
CONTINUOUS2
 62
     9
100
AcDbCircle
 10
6.154528
 20
5.095843
 30
0.0
 40
0.354745
210
0.0
220
0.0
230
1.0
100
AcDbArc
 50
90.0
 51
135.0
  0
ARC
  5
131
100
AcDbEntity
  8
0
390
0
  6
CONTINUOUS2
 62
     9
100
AcDbCircle
 10
6.600725
 20
4.939725
 30
0.0
 40
0.190863
210
0.0
220
0.0
230
1.0
100
AcDbArc
 50
0.0
 51
45.0
  0
ARC
  5
132
100
AcDbEntity
  8
0
390
0
  6
CONTINUOUS2
 62
     9
100
AcDbCircle
 10
6.600725
 20
4.939725
 30
0.0
 40
0.51896
210
0.0
220
0.0
230
1.0
100
AcDbArc
 50
0.0
 51
45.0
  0
ARC
  5
133
100
AcDbEntity
  8
0
390
0
  6
CONTINUOUS2
 62
     9
100
AcDbCircle
 10
6.464156
 20
4.786214
 30
0.0
 40
0.327431
210
0.0
220
0.0
230
1.0
100
AcDbArc
 50
315.0
 51
360.0
  0
ARC
  5
134
100
AcDbEntity
  8
0
390
0
  6
CONTINUOUS2
 62
     9
100
AcDbCircle
 10
6.464156
 20
4.786214
 30
0.0
 40
0.655529
210
0.0
220
0.0
230
1.0
100
AcDbArc
 50
315.0
 51
360.0
  0
ARC
  5
135
100
AcDbEntity
  8
0
390
0
  6
CONTINUOUS2
 62
     9
100
AcDbCircle
 10
6.600725
 20
3.915725
 30
0.0
 40
0.190863
210
0.0
220
0.0
230
1.0
100
AcDbArc
 50
0.0
 51
45.0
  0
ARC
  5
136
100
AcDbEntity
  8
0
390
0
  6
CONTINUOUS2
 62
     9
100
AcDbCircle
 10
6.600725
 20
3.915725
 30
0.0
 40
0.51896
210
0.0
220
0.0
230
1.0
100
AcDbArc
 50
0.0
 51
45.0
  0
ARC
  5
137
100
AcDbEntity
  8
0
390
0
  6
CONTINUOUS2
 62
     9
100
AcDbCircle
 10
6.464156
 20
3.762214
 30
0.0
 40
0.327431
210
0.0
220
0.0
230
1.0
100
AcDbArc
 50
315.0
 51
360.0
  0
ARC
  5
138
100
AcDbEntity
  8
0
390
0
  6
CONTINUOUS2
 62
     9
100
AcDbCircle
 10
6.464156
 20
3.762214
 30
0.0
 40
0.655529
210
0.0
220
0.0
230
1.0
100
AcDbArc
 50
315.0
 51
360.0
  0
ARC
  5
139
100
AcDbEntity
  8
0
390
0
  6
CONTINUOUS2
 62
     9
100
AcDbCircle
 10
6.059332
 20
3.374332
 30
0.0
 40
0.163549
210
0.0
220
0.0
230
1.0
100
AcDbArc
 50
225.0
 51
270.0
  0
ARC
  5
13A
100
AcDbEntity
  8
0
390
0
  6
CONTINUOUS2
 62
     9
100
AcDbCircle
 10
6.059332
 20
3.374332
 30
0.0
 40
0.491647
210
0.0
220
0.0
230
1.0
100
AcDbArc
 50
225.0
 51
270.0
  0
ARC
  5
13B
100
AcDbEntity
  8
0
390
0
  6
CONTINUOUS2
 62
     9
100
AcDbCircle
 10
6.25147
 20
3.510901
 30
0.0
 40
0.300118
210
0.0
220
0.0
230
1.0
100
AcDbArc
 50
270.0
 51
315.0
  0
ARC
  5
13C
100
AcDbEntity
  8
0
390
0
  6
CONTINUOUS2
 62
     9
100
AcDbCircle
 10
6.25147
 20
3.510901
 30
0.0
 40
0.628215
210
0.0
220
0.0
230
1.0
100
AcDbArc
 50
270.0
 51
315.0
  0
ARC
  5
13D
100
AcDbEntity
  8
0
390
0
  6
CONTINUOUS2
 62
     9
100
AcDbCircle
 10
6.600725
 20
2.891725
 30
0.0
 40
0.51896
210
0.0
220
0.0
230
1.0
100
AcDbArc
 50
0.0
 51
45.0
  0
ARC
  5
13E
100
AcDbEntity
  8
0
390
0
  6
CONTINUOUS2
 62
     9
100
AcDbCircle
 10
6.600725
 20
2.891725
 30
0.0
 40
0.190863
210
0.0
220
0.0
230
1.0
100
AcDbArc
 50
0.0
 51
45.0
  0
ARC
  5
13F
100
AcDbEntity
  8
0
390
0
  6
CONTINUOUS2
 62
     9
100
AcDbCircle
 10
5.254646
 20
4.427725
 30
0.0
 40
0.51896
210
0.0
220
0.0
230
1.0
100
AcDbArc
 50
135.0
 51
180.0
  0
ARC
  5
140
100
AcDbEntity
  8
0
390
0
  6
CONTINUOUS2
 62
     9
100
AcDbCircle
 10
5.254646
 20
4.427725
 30
0.0
 40
0.190863
210
0.0
220
0.0
230
1.0
100
AcDbArc
 50
135.0
 51
180.0
  0
ARC
  5
141
100
AcDbEntity
  8
0
390
0
  6
CONTINUOUS2
 62
     9
100
AcDbCircle
 10
5.391214
 20
4.274214
 30
0.0
 40
0.655529
210
0.0
220
0.0
230
1.0
100
AcDbArc
 50
180.0
 51
225.0
  0
ARC
  5
142
100
AcDbEntity
  8
0
390
0
  6
CONTINUOUS2
 62
     9
100
AcDbCircle
 10
5.391214
 20
4.274214
 30
0.0
 40
0.327431
210
0.0
220
0.0
230
1.0
100
AcDbArc
 50
180.0
 51
225.0
  0
ARC
  5
143
100
AcDbEntity
  8
0
390
0
  6
CONTINUOUS2
 62
     9
100
AcDbCircle
 10
4.928156
 20
2.323156
 30
0.0
 40
0.655529
210
0.0
220
0.0
230
1.0
100
AcDbArc
 50
0.0
 51
45.0
  0
ARC
  5
144
100
AcDbEntity
  8
0
390
0
  6
CONTINUOUS2
 62
     9
100
AcDbCircle
 10
4.928156
 20
2.323156
 30
0.0
 40
0.327431
210
0.0
220
0.0
230
1.0
100
AcDbArc
 50
0.0
 51
45.0
  0
ARC
  5
145
100
AcDbEntity
  8
0
390
0
  6
CONTINUOUS2
 62
     9
100
AcDbCircle
 10
5.064725
 20
2.169646
 30
0.0
 40
0.190863
210
0.0
220
0.0
230
1.0
100
AcDbArc
 50
315.0
 51
360.0
  0
ARC
  5
146
100
AcDbEntity
  8
0
390
0
  6
CONTINUOUS2
 62
     9
100
AcDbCircle
 10
5.064725
 20
2.169646
 30
0.0
 40
0.51896
210
0.0
220
0.0
230
1.0
100
AcDbArc
 50
315.0
 51
360.0
  0
ARC
  5
147
100
AcDbEntity
  8
0
390
0
  6
CONTINUOUS2
 62
     9
100
AcDbCircle
 10
5.603901
 20
1.974901
 30
0.0
 40
0.300118
210
0.0
220
0.0
230
1.0
100
AcDbArc
 50
225.0
 51
270.0
  0
ARC
  5
148
100
AcDbEntity
  8
0
390
0
  6
CONTINUOUS2
 62
     9
100
AcDbCircle
 10
5.603901
 20
1.974901
 30
0.0
 40
0.628215
210
0.0
220
0.0
230
1.0
100
AcDbArc
 50
225.0
 51
270.0
  0
ARC
  5
149
100
AcDbEntity
  8
0
390
0
  6
CONTINUOUS2
 62
     9
100
AcDbCircle
 10
4.579901
 20
1.974901
 30
0.0
 40
0.300118
210
0.0
220
0.0
230
1.0
100
AcDbArc
 50
225.0
 51
270.0
  0
ARC
  5
14A
100
AcDbEntity
  8
0
390
0
  6
CONTINUOUS2
 62
     9
100
AcDbCircle
 10
4.579901
 20
1.974901
 30
0.0
 40
0.628215
210
0.0
220
0.0
230
1.0
100
AcDbArc
 50
225.0
 51
270.0
  0
ARC
  5
14B
100
AcDbEntity
  8
0
390
0
  6
CONTINUOUS2
 62
     9
100
AcDbCircle
 10
4.772039
 20
1.838332
 30
0.0
 40
0.163549
210
0.0
220
0.0
230
1.0
100
AcDbArc
 50
270.0
 51
315.0
  0
ARC
  5
14C
100
AcDbEntity
  8
0
390
0
  6
CONTINUOUS2
 62
     9
100
AcDbCircle
 10
4.772039
 20
1.838332
 30
0.0
 40
0.491647
210
0.0
220
0.0
230
1.0
100
AcDbArc
 50
270.0
 51
315.0
  0
ARC
  5
14D
100
AcDbEntity
  8
0
390
0
  6
CONTINUOUS2
 62
     9
100
AcDbCircle
 10
3.555901
 20
1.974901
 30
0.0
 40
0.300118
210
0.0
220
0.0
230
1.0
100
AcDbArc
 50
225.0
 51
270.0
  0
ARC
  5
14E
100
AcDbEntity
  8
0
390
0
  6
CONTINUOUS2
 62
     9
100
AcDbCircle
 10
3.555901
 20
1.974901
 30
0.0
 40
0.628215
210
0.0
220
0.0
230
1.0
100
AcDbArc
 50
225.0
 51
270.0
  0
ARC
  5
14F
100
AcDbEntity
  8
0
390
0
  6
CONTINUOUS2
 62
     9
100
AcDbCircle
 10
3.748039
 20
1.838332
 30
0.0
 40
0.163549
210
0.0
220
0.0
230
1.0
100
AcDbArc
 50
270.0
 51
315.0
  0
ARC
  5
150
100
AcDbEntity
  8
0
390
0
  6
CONTINUOUS2
 62
     9
100
AcDbCircle
 10
3.748039
 20
1.838332
 30
0.0
 40
0.491647
210
0.0
220
0.0
230
1.0
100
AcDbArc
 50
270.0
 51
315.0
  0
ARC
  5
151
100
AcDbEntity
  8
0
390
0
  6
CONTINUOUS2
 62
     9
100
AcDbCircle
 10
2.724039
 20
1.838332
 30
0.0
 40
0.163549
210
0.0
220
0.0
230
1.0
100
AcDbArc
 50
270.0
 51
315.0
  0
ARC
  5
152
100
AcDbEntity
  8
0
390
0
  6
CONTINUOUS2
 62
     9
100
AcDbCircle
 10
2.724039
 20
1.838332
 30
0.0
 40
0.491647
210
0.0
220
0.0
230
1.0
100
AcDbArc
 50
270.0
 51
315.0
  0
ARC
  5
153
100
AcDbEntity
  8
0
390
0
  6
CONTINUOUS2
 62
     9
100
AcDbCircle
 10
3.206646
 20
2.379725
 30
0.0
 40
0.51896
210
0.0
220
0.0
230
1.0
100
AcDbArc
 50
135.0
 51
180.0
  0
ARC
  5
154
100
AcDbEntity
  8
0
390
0
  6
CONTINUOUS2
 62
     9
100
AcDbCircle
 10
3.343214
 20
2.226214
 30
0.0
 40
0.655529
210
0.0
220
0.0
230
1.0
100
AcDbArc
 50
180.0
 51
225.0
  0
ARC
  5
155
100
AcDbEntity
  8
0
390
0
  6
CONTINUOUS2
 62
     9
100
AcDbCircle
 10
3.206646
 20
2.379725
 30
0.0
 40
0.190863
210
0.0
220
0.0
230
1.0
100
AcDbArc
 50
135.0
 51
180.0
  0
ARC
  5
156
100
AcDbEntity
  8
0
390
0
  6
CONTINUOUS2
 62
     9
100
AcDbCircle
 10
3.343214
 20
2.226214
 30
0.0
 40
0.327431
210
0.0
220
0.0
230
1.0
100
AcDbArc
 50
180.0
 51
225.0
  0
ARC
  5
157
100
AcDbEntity
  8
0
390
0
  6
CONTINUOUS2
 62
     9
100
AcDbCircle
 10
4.106528
 20
3.047843
 30
0.0
 40
0.682843
210
0.0
220
0.0
230
1.0
100
AcDbArc
 50
90.0
 51
135.0
  0
ARC
  5
158
100
AcDbEntity
  8
0
390
0
  6
CONTINUOUS2
 62
     9
100
AcDbCircle
 10
4.106528
 20
3.047843
 30
0.0
 40
0.354745
210
0.0
220
0.0
230
1.0
100
AcDbArc
 50
90.0
 51
135.0
  0
ARC
  5
159
100
AcDbEntity
  8
0
390
0
  6
CONTINUOUS2
 62
     9
100
AcDbCircle
 10
4.221411
 20
3.184411
 30
0.0
 40
0.546274
210
0.0
220
0.0
230
1.0
100
AcDbArc
 50
45.0
 51
90.0
  0
ARC
  5
15A
100
AcDbEntity
  8
0
390
0
  6
CONTINUOUS2
 62
     9
100
AcDbCircle
 10
4.221411
 20
3.184411
 30
0.0
 40
0.218177
210
0.0
220
0.0
230
1.0
100
AcDbArc
 50
45.0
 51
90.0
  0
ARC
  5
15B
100
AcDbEntity
  8
0
390
0
  6
CONTINUOUS2
 62
     9
100
AcDbCircle
 10
1.807214
 20
2.835156
 30
0.0
 40
0.655529
210
0.0
220
0.0
230
1.0
100
AcDbArc
 50
135.0
 51
180.0
  0
ARC
  5
15C
100
AcDbEntity
  8
0
390
0
  6
CONTINUOUS2
 62
     9
100
AcDbCircle
 10
1.807214
 20
2.835156
 30
0.0
 40
0.327431
210
0.0
220
0.0
230
1.0
100
AcDbArc
 50
135.0
 51
180.0
  0
ARC
  5
15D
100
AcDbEntity
  8
0
390
0
  6
CONTINUOUS2
 62
     9
100
AcDbCircle
 10
1.963332
 20
3.374332
 30
0.0
 40
0.163549
210
0.0
220
0.0
230
1.0
100
AcDbArc
 50
225.0
 51
270.0
  0
ARC
  5
15E
100
AcDbEntity
  8
0
390
0
  6
CONTINUOUS2
 62
     9
100
AcDbCircle
 10
1.963332
 20
3.374332
 30
0.0
 40
0.491647
210
0.0
220
0.0
230
1.0
100
AcDbArc
 50
225.0
 51
270.0
  0
ARC
  5
15F
100
AcDbEntity
  8
0
390
0
  6
CONTINUOUS2
 62
     9
100
AcDbCircle
 10
2.15547
 20
3.510901
 30
0.0
 40
0.300118
210
0.0
220
0.0
230
1.0
100
AcDbArc
 50
270.0
 51
315.0
  0
ARC
  5
160
100
AcDbEntity
  8
0
390
0
  6
CONTINUOUS2
 62
     9
100
AcDbCircle
 10
2.15547
 20
3.510901
 30
0.0
 40
0.628215
210
0.0
220
0.0
230
1.0
100
AcDbArc
 50
270.0
 51
315.0
  0
ARC
  5
161
100
AcDbEntity
  8
0
390
0
  6
CONTINUOUS2
 62
     9
100
AcDbCircle
 10
1.670646
 20
3.705646
 30
0.0
 40
0.51896
210
0.0
220
0.0
230
1.0
100
AcDbArc
 50
180.0
 51
225.0
  0
ARC
  5
162
100
AcDbEntity
  8
0
390
0
  6
CONTINUOUS2
 62
     9
100
AcDbCircle
 10
1.670646
 20
3.705646
 30
0.0
 40
0.190863
210
0.0
220
0.0
230
1.0
100
AcDbArc
 50
180.0
 51
225.0
  0
ARC
  5
163
100
AcDbEntity
  8
0
390
0
  6
CONTINUOUS2
 62
     9
100
AcDbCircle
 10
1.807214
 20
3.859156
 30
0.0
 40
0.327431
210
0.0
220
0.0
230
1.0
100
AcDbArc
 50
135.0
 51
180.0
  0
ARC
  5
164
100
AcDbEntity
  8
0
390
0
  6
CONTINUOUS2
 62
     9
100
AcDbCircle
 10
1.807214
 20
3.859156
 30
0.0
 40
0.655529
210
0.0
220
0.0
230
1.0
100
AcDbArc
 50
135.0
 51
180.0
  0
ARC
  5
165
100
AcDbEntity
  8
0
390
0
  6
CONTINUOUS2
 62
     9
100
AcDbCircle
 10
1.670646
 20
4.729646
 30
0.0
 40
0.190863
210
0.0
220
0.0
230
1.0
100
AcDbArc
 50
180.0
 51
225.0
  0
ARC
  5
166
100
AcDbEntity
  8
0
390
0
  6
CONTINUOUS2
 62
     9
100
AcDbCircle
 10
1.670646
 20
4.729646
 30
0.0
 40
0.51896
210
0.0
220
0.0
230
1.0
100
AcDbArc
 50
180.0
 51
225.0
  0
ARC
  5
167
100
AcDbEntity
  8
0
390
0
  6
CONTINUOUS2
 62
     9
100
AcDbCircle
 10
1.807214
 20
4.883156
 30
0.0
 40
0.655529
210
0.0
220
0.0
230
1.0
100
AcDbArc
 50
135.0
 51
180.0
  0
ARC
  5
168
100
AcDbEntity
  8
0
390
0
  6
CONTINUOUS2
 62
     9
100
AcDbCircle
 10
1.807214
 20
4.883156
 30
0.0
 40
0.327431
210
0.0
220
0.0
230
1.0
100
AcDbArc
 50
135.0
 51
180.0
  0
ARC
  5
169
100
AcDbEntity
  8
0
390
0
  6
CONTINUOUS2
 62
     9
100
AcDbCircle
 10
2.058528
 20
5.095843
 30
0.0
 40
0.682843
210
0.0
220
0.0
230
1.0
100
AcDbArc
 50
90.0
 51
135.0
  0
ARC
  5
16A
100
AcDbEntity
  8
0
390
0
  6
CONTINUOUS2
 62
     9
100
AcDbCircle
 10
2.058528
 20
5.095843
 30
0.0
 40
0.354745
210
0.0
220
0.0
230
1.0
100
AcDbArc
 50
90.0
 51
135.0
  0
ARC
  5
16B
100
AcDbEntity
  8
0
390
0
  6
CONTINUOUS2
 62
     9
100
AcDbCircle
 10
2.173411
 20
5.232411
 30
0.0
 40
0.546274
210
0.0
220
0.0
230
1.0
100
AcDbArc
 50
45.0
 51
90.0
  0
ARC
  5
16C
100
AcDbEntity
  8
0
390
0
  6
CONTINUOUS2
 62
     9
100
AcDbCircle
 10
2.173411
 20
5.232411
 30
0.0
 40
0.218177
210
0.0
220
0.0
230
1.0
100
AcDbArc
 50
45.0
 51
90.0
  0
ARC
  5
16D
100
AcDbEntity
  8
0
390
0
  6
CONTINUOUS2
 62
     9
100
AcDbCircle
 10
2.880156
 20
4.371156
 30
0.0
 40
0.655529
210
0.0
220
0.0
230
1.0
100
AcDbArc
 50
0.0
 51
45.0
  0
ARC
  5
16E
100
AcDbEntity
  8
0
390
0
  6
CONTINUOUS2
 62
     9
100
AcDbCircle
 10
2.880156
 20
4.371156
 30
0.0
 40
0.327431
210
0.0
220
0.0
230
1.0
100
AcDbArc
 50
0.0
 51
45.0
  0
ARC
  5
16F
100
AcDbEntity
  8
0
390
0
  6
CONTINUOUS2
 62
     9
100
AcDbCircle
 10
3.016725
 20
4.217646
 30
0.0
 40
0.190863
210
0.0
220
0.0
230
1.0
100
AcDbArc
 50
315.0
 51
360.0
  0
ARC
  5
170
100
AcDbEntity
  8
0
390
0
  6
CONTINUOUS2
 62
     9
100
AcDbCircle
 10
3.016725
 20
4.217646
 30
0.0
 40
0.51896
210
0.0
220
0.0
230
1.0
100
AcDbArc
 50
315.0
 51
360.0
  0
ENDSEC
  0
SECTION
  2
OBJECTS
  0
DICTIONARY
  5
19
100
AcDbDictionary
280
     0
281
     1
  3
ACAD_GROUP
350
1A
  3
ACAD_MLINESTYLE
350
1B
  3
ACAD_LAYOUT
350
1E
  3
ACAD_PLOTSETTINGS
350
22
  3
ACAD_PLOTSTYLENAME
350
1F
  3
ACAD_WIPEOUT_VARS
350
23
  0
DICTIONARY
  5
1A
102
{ACAD_REACTORS
330
19
102
}
100
AcDbDictionary
280
     0
281
     1
  0
DICTIONARY
  5
1B
102
{ACAD_REACTORS
330
19
102
}
100
AcDbDictionary
280
     0
281
     1
  3
Standard
350
1C
  0
MLINESTYLE
  5
1C
102
{ACAD_REACTORS
330
1B
102
}
100
AcDbMlineStyle
  2
Standard
 70
     0
  3

 62
     0
 51
90.0
 52
90.0
 71
     2
 49
0.5
 62
   256
  6
ByLayer
 49
-0.5
 62
   256
  6
ByLayer
  0
ACDBDICTIONARYWDFLT
  5
1F
102
{ACAD_REACTORS
330
19
102
}
100
AcDbDictionary
281
     1
  3
Normal
350
1D
100
AcDbDictionaryWithDefault
340
1D
  0
ACDBPLACEHOLDER
  5
1D
102
{ACAD_REACTORS
330
1F
102
}
  0
LAYOUT
  5
20
102
{ACAD_REACTORS
330
1E
102
}
100
AcDbPlotSettings
  1

  2

  4

  6

 40
0.0
 41
0.0
 42
0.0
 43
0.0
 44
0.0
 45
0.0
 46
0.0
 47
0.0
 48
0.0
 49
0.0
140
0.0
141
0.0
142
1.0
143
1.0
 70
  1024
 72
     0
 73
     0
 74
     0
  7

 75
     0
147
1.0
148
0.0
149
0.0
100
AcDbLayout
  1
Model
 70
     0
 71
     1
 10
0.0
 20
0.0
 11
0.0
 21
0.0
 12
0.0
 22
0.0
 32
0.0
 14
0.0
 24
0.0
 34
0.0
 15
0.0
 25
0.0
 35
0.0
146
0.0
 13
0.0
 23
0.0
 33
0.0
 16
0.0
 26
0.0
 36
0.0
 17
0.0
 27
0.0
 37
0.0
 76
     0
330
A
331
0
345
0
346
0
  0
LAYOUT
  5
21
102
{ACAD_REACTORS
330
1E
102
}
100
AcDbPlotSettings
  1

  2

  4

  6

 40
0.0
 41
0.0
 42
0.0
 43
0.0
 44
0.0
 45
0.0
 46
0.0
 47
0.0
 48
0.0
 49
0.0
140
0.0
141
0.0
142
1.0
143
1.0
 70
     0
 72
     0
 73
     0
 74
     0
  7

 75
     0
147
1.0
148
0.0
149
0.0
100
AcDbLayout
  1
Layout1
 70
     0
 71
     2
 10
0.0
 20
0.0
 11
0.0
 21
0.0
 12
0.0
 22
0.0
 32
0.0
 14
0.0
 24
0.0
 34
0.0
 15
0.0
 25
0.0
 35
0.0
146
0.0
 13
0.0
 23
0.0
 33
0.0
 16
0.0
 26
0.0
 36
0.0
 17
0.0
 27
0.0
 37
0.0
 76
     0
330
B
331
0
345
0
346
0
  0
DICTIONARY
  5
1E
102
{ACAD_REACTORS
330
19
102
}
100
AcDbDictionary
280
     0
281
     1
  3
Layout1
350
21
  3
Model
350
20
  0
DICTIONARY
  5
22
102
{ACAD_REACTORS
330
19
102
}
100
AcDbDictionary
280
     0
281
     1
  0
WIPEOUTVARIABLES
  5
23
100
AcDbWipeoutVariables
 70
     1
  0
ENDSEC
  0
EOF
