0
SECTION
2
HEADER
9
$EXTMIN
10
1.332747
20
0.251083
9
$EXTMAX
10
31.427212
20
25.359299
0
ENDSEC
0
SECTION
2
TABLES
0
TABLE
2
LTYPE
70
1
0
LTYPE
2
0
70
0
3
Solid Line
72
65
73
0
40
0.0
0
ENDTAB
0
TABLE
2
LAYER
70
1
0
LAYER
2
1
70
0
62
7
6
0
0
ENDTAB
0
ENDSEC
0
SECTION
2
BLOCKS
0
ENDSEC
0
SECTION
2
ENTITIES
0
POLYLINE
8
1
66
1
70
1
0
VERTEX
8
1
10
13.042576
20
9.970314
0
VERTEX
8
1
10
13.030460
20
10.018898
42
0.013543
0
VERTEX
8
1
10
13.013123
20
10.713379
0
VERTEX
8
1
10
13.005855
20
10.782021
42
0.042260
0
VERTEX
8
1
10
12.780679
20
12.260582
0
VERTEX
8
1
10
12.704163
20
12.567909
0
VERTEX
8
1
10
12.610737
20
12.904259
0
VERTEX
8
1
10
12.563595
20
13.095818
42
0.083537
0
VERTEX
8
1
10
12.925854
20
13.055618
42
0.093205
0
VERTEX
8
1
10
13.423103
20
13.143256
42
0.214109
0
VERTEX
8
1
10
13.715963
20
13.481671
42
0.316040
0
VERTEX
8
1
10
13.609917
20
13.726585
0
VERTEX
8
1
10
13.572823
20
13.748596
0
VERTEX
8
1
10
13.530388
20
13.768402
42
0.136174
0
VERTEX
8
1
10
12.924887
20
13.818031
42
0.152868
0
VERTEX
8
1
10
12.770848
20
13.719909
42
0.221103
0
VERTEX
8
1
10
12.754344
20
13.583687
42
0.224281
0
VERTEX
8
1
10
12.931617
20
13.352831
42
0.087450
0
VERTEX
8
1
10
13.166370
20
13.265170
42
-0.654786
0
VERTEX
8
1
10
13.161579
20
13.242569
42
-0.445611
0
VERTEX
8
1
10
12.597401
20
13.475765
42
-0.093607
0
VERTEX
8
1
10
12.542427
20
13.821843
42
-0.042976
0
VERTEX
8
1
10
12.560055
20
14.063332
42
-0.382933
0
VERTEX
8
1
10
12.588822
20
14.073977
42
-0.010585
0
VERTEX
8
1
10
13.840582
20
13.862704
42
0.277375
0
VERTEX
8
1
10
13.843990
20
13.871155
42
0.092332
0
VERTEX
8
1
10
13.805608
20
14.356822
42
0.239376
0
VERTEX
8
1
10
13.485454
20
14.663047
42
0.075482
0
VERTEX
8
1
10
13.191518
20
14.724714
42
0.086449
0
VERTEX
8
1
10
12.373095
20
14.658727
42
0.100513
0
VERTEX
8
1
10
12.062523
20
14.491333
0
VERTEX
8
1
10
12.043293
20
14.520217
42
0.009028
0
VERTEX
8
1
10
11.618790
20
15.507919
42
-0.025971
0
VERTEX
8
1
10
11.727554
20
15.543106
0
VERTEX
8
1
10
11.733810
20
15.547775
0
VERTEX
8
1
10
11.732445
20
15.555504
42
0.153339
0
VERTEX
8
1
10
11.619168
20
15.674722
42
-0.045616
0
VERTEX
8
1
10
11.605835
20
15.689926
0
VERTEX
8
1
10
11.609837
20
15.697380
42
-0.190290
0
VERTEX
8
1
10
11.846682
20
15.667224
0
VERTEX
8
1
10
11.862823
20
15.659875
42
0.343944
0
VERTEX
8
1
10
12.004192
20
15.670708
42
-0.133741
0
VERTEX
8
1
10
11.995438
20
15.716644
0
VERTEX
8
1
10
12.001396
20
15.720551
0
VERTEX
8
1
10
12.021893
20
15.723518
42
-0.034494
0
VERTEX
8
1
10
12.310283
20
15.722260
0
VERTEX
8
1
10
12.321358
20
15.725098
42
0.002575
0
VERTEX
8
1
10
12.314198
20
15.745926
0
VERTEX
8
1
10
12.320858
20
15.749382
42
0.090979
0
VERTEX
8
1
10
12.199276
20
15.863327
42
-0.044215
0
VERTEX
8
1
10
12.092941
20
15.978203
0
VERTEX
8
1
10
12.093689
20
15.983185
42
-0.126290
0
VERTEX
8
1
10
12.131650
20
16.010338
42
0.344214
0
VERTEX
8
1
10
12.042812
20
16.115128
42
-0.160058
0
VERTEX
8
1
10
11.839922
20
16.248632
0
VERTEX
8
1
10
11.834208
20
16.258350
0
VERTEX
8
1
10
11.829033
20
16.268364
42
-0.224593
0
VERTEX
8
1
10
11.861202
20
16.274391
42
0.179571
0
VERTEX
8
1
10
12.024826
20
16.286781
42
-0.013472
0
VERTEX
8
1
10
11.965000
20
16.404114
42
-0.162776
0
VERTEX
8
1
10
11.987850
20
16.415375
42
0.131563
0
VERTEX
8
1
10
12.130653
20
16.463821
0
VERTEX
8
1
10
12.133968
20
16.470161
42
0.080913
0
VERTEX
8
1
10
12.071619
20
16.514196
42
-0.053706
0
VERTEX
8
1
10
11.952126
20
16.609428
42
0.119935
0
VERTEX
8
1
10
11.822326
20
16.757687
42
-0.111742
0
VERTEX
8
1
10
11.790878
20
16.805809
0
VERTEX
8
1
10
11.792358
20
16.813850
42
0.030683
0
VERTEX
8
1
10
11.873432
20
16.866669
0
VERTEX
8
1
10
11.858398
20
16.885780
42
0.133231
0
VERTEX
8
1
10
11.568336
20
17.010880
0
VERTEX
8
1
10
11.546066
20
17.018814
42
-0.190334
0
VERTEX
8
1
10
11.569695
20
17.103462
42
0.246443
0
VERTEX
8
1
10
11.570301
20
17.195679
42
0.329621
0
VERTEX
8
1
10
11.504654
20
17.184837
42
-0.035035
0
VERTEX
8
1
10
11.131882
20
16.926033
42
-0.119437
0
VERTEX
8
1
10
11.110607
20
16.924469
42
0.122472
0
VERTEX
8
1
10
11.083637
20
17.051567
0
VERTEX
8
1
10
11.074955
20
17.053772
42
0.147086
0
VERTEX
8
1
10
10.986420
20
17.006065
0
VERTEX
8
1
10
10.979214
20
17.004021
42
-0.005417
0
VERTEX
8
1
10
10.928654
20
17.150551
0
VERTEX
8
1
10
10.935921
20
17.153572
42
0.063242
0
VERTEX
8
1
10
11.059757
20
17.149635
0
VERTEX
8
1
10
11.060745
20
17.158714
42
0.125499
0
VERTEX
8
1
10
11.009590
20
17.236954
0
VERTEX
8
1
10
11.004894
20
17.244858
0
VERTEX
8
1
10
11.013241
20
17.249176
42
-0.098327
0
VERTEX
8
1
10
11.235851
20
17.244028
42
0.189079
0
VERTEX
8
1
10
11.314667
20
17.267540
0
VERTEX
8
1
10
11.313080
20
17.273277
42
-0.077476
0
VERTEX
8
1
10
11.236128
20
17.322327
42
-0.473442
0
VERTEX
8
1
10
11.251743
20
17.362053
42
-0.134704
0
VERTEX
8
1
10
11.504059
20
17.506828
0
VERTEX
8
1
10
11.532276
20
17.467010
42
0.191460
0
VERTEX
8
1
10
11.896390
20
17.179213
42
0.296662
0
VERTEX
8
1
10
12.304472
20
17.335054
42
0.067003
0
VERTEX
8
1
10
12.388138
20
17.470940
0
VERTEX
8
1
10
12.401096
20
17.475113
42
0.054043
0
VERTEX
8
1
10
12.510368
20
17.365921
0
VERTEX
8
1
10
12.508129
20
17.355148
42
0.163951
0
VERTEX
8
1
10
12.311451
20
17.203445
0
VERTEX
8
1
10
12.275459
20
17.144806
0
VERTEX
8
1
10
12.245556
20
17.079529
42
0.275402
0
VERTEX
8
1
10
12.416221
20
16.210329
42
0.166029
0
VERTEX
8
1
10
12.686483
20
16.078588
42
0.131580
0
VERTEX
8
1
10
12.851768
20
16.112953
42
0.298509
0
VERTEX
8
1
10
13.026348
20
15.392765
42
0.224637
0
VERTEX
8
1
10
13.315140
20
15.319761
42
0.185686
0
VERTEX
8
1
10
13.502911
20
15.453804
0
VERTEX
8
1
10
13.535038
20
15.505302
42
0.239388
0
VERTEX
8
1
10
13.519775
20
16.119270
0
VERTEX
8
1
10
13.525528
20
16.122925
42
0.272714
0
VERTEX
8
1
10
13.916183
20
16.250221
0
VERTEX
8
1
10
13.959888
20
16.304459
42
0.397191
0
VERTEX
8
1
10
13.790466
20
17.212917
42
0.407666
0
VERTEX
8
1
10
13.217181
20
17.105816
42
0.136079
0
VERTEX
8
1
10
13.107521
20
16.829712
0
VERTEX
8
1
10
13.098751
20
16.840820
42
0.146058
0
VERTEX
8
1
10
12.893909
20
17.239494
0
VERTEX
8
1
10
12.875233
20
17.263794
42
0.217146
0
VERTEX
8
1
10
13.175696
20
17.500397
42
0.029007
0
VERTEX
8
1
10
13.211433
20
17.570244
0
VERTEX
8
1
10
13.241074
20
17.555672
42
0.194298
0
VERTEX
8
1
10
13.612704
20
17.325891
42
0.121561
0
VERTEX
8
1
10
13.801018
20
17.352859
0
VERTEX
8
1
10
13.871983
20
17.390297
0
VERTEX
8
1
10
13.936485
20
17.441429
0
VERTEX
8
1
10
13.993946
20
17.504974
0
VERTEX
8
1
10
14.043781
20
17.579742
42
0.152630
0
VERTEX
8
1
10
14.153988
20
18.160786
42
0.155409
0
VERTEX
8
1
10
13.889415
20
18.797985
42
0.132081
0
VERTEX
8
1
10
13.622087
20
18.965178
42
0.321673
0
VERTEX
8
1
10
13.168376
20
18.784063
42
0.058329
0
VERTEX
8
1
10
13.090237
20
18.645508
0
VERTEX
8
1
10
13.069317
20
18.645348
42
0.128122
0
VERTEX
8
1
10
12.822369
20
18.840729
0
VERTEX
8
1
10
12.802395
20
18.853600
42
0.153229
0
VERTEX
8
1
10
12.997253
20
19.304939
0
VERTEX
8
1
10
13.006321
20
19.316635
42
0.203636
0
VERTEX
8
1
10
13.768751
20
19.001657
42
0.155314
0
VERTEX
8
1
10
14.149891
20
19.142792
0
VERTEX
8
1
10
14.218182
20
19.210403
0
VERTEX
8
1
10
14.274025
20
19.290031
0
VERTEX
8
1
10
14.314240
20
19.376999
0
VERTEX
8
1
10
14.338932
20
19.469498
0
VERTEX
8
1
10
14.348518
20
19.566093
0
VERTEX
8
1
10
14.343395
20
19.665321
0
VERTEX
8
1
10
14.323967
20
19.765770
42
0.172246
0
VERTEX
8
1
10
13.925419
20
20.315987
42
0.072052
0
VERTEX
8
1
10
13.997208
20
20.337837
42
0.128223
0
VERTEX
8
1
10
13.867804
20
20.447971
42
-0.133518
0
VERTEX
8
1
10
13.861996
20
20.460625
42
-0.013565
0
VERTEX
8
1
10
13.957035
20
20.541763
0
VERTEX
8
1
10
13.958431
20
20.548721
0
VERTEX
8
1
10
13.953865
20
20.555222
42
0.145904
0
VERTEX
8
1
10
13.802246
20
20.619997
42
-0.048152
0
VERTEX
8
1
10
13.784264
20
20.629204
0
VERTEX
8
1
10
13.790421
20
20.639687
0
VERTEX
8
1
10
13.806446
20
20.652138
42
-0.159429
0
VERTEX
8
1
10
14.057461
20
20.698204
42
0.284225
0
VERTEX
8
1
10
14.160213
20
20.766884
42
-0.162015
0
VERTEX
8
1
10
14.133987
20
20.805725
0
VERTEX
8
1
10
14.141438
20
20.812706
42
-0.037744
0
VERTEX
8
1
10
14.386383
20
20.921318
42
0.180053
0
VERTEX
8
1
10
14.430748
20
20.940109
42
0.026802
0
VERTEX
8
1
10
14.415939
20
20.955688
0
VERTEX
8
1
10
14.421211
20
20.962036
42
0.086694
0
VERTEX
8
1
10
14.261646
20
21.020477
42
-0.046808
0
VERTEX
8
1
10
14.119843
20
21.085144
42
-0.161777
0
VERTEX
8
1
10
14.144058
20
21.125313
0
VERTEX
8
1
10
14.144566
20
21.129509
42
0.362496
0
VERTEX
8
1
10
14.010429
20
21.188423
42
-0.141368
0
VERTEX
8
1
10
13.789295
20
21.229885
42
-0.042826
0
VERTEX
8
1
10
13.762913
20
21.250633
42
-0.102266
0
VERTEX
8
1
10
13.847736
20
21.280273
42
0.165150
0
VERTEX
8
1
10
13.939182
20
21.342674
42
-0.013540
0
VERTEX
8
1
10
13.841713
20
21.420731
0
VERTEX
8
1
10
13.838249
20
21.426903
42
-0.115823
0
VERTEX
8
1
10
13.900433
20
21.473900
42
0.089955
0
VERTEX
8
1
10
13.968243
20
21.547241
0
VERTEX
8
1
10
13.965385
20
21.553490
42
0.080052
0
VERTEX
8
1
10
13.897575
20
21.568165
42
-0.058087
0
VERTEX
8
1
10
13.744030
20
21.610909
42
0.119801
0
VERTEX
8
1
10
13.566009
20
21.696566
42
-0.121839
0
VERTEX
8
1
10
13.519749
20
21.729385
0
VERTEX
8
1
10
13.519989
20
21.737411
42
0.042464
0
VERTEX
8
1
10
13.573730
20
21.817932
0
VERTEX
8
1
10
13.545246
20
21.830063
42
0.132976
0
VERTEX
8
1
10
13.229214
20
21.828384
0
VERTEX
8
1
10
13.210728
20
21.830315
42
-0.174025
0
VERTEX
8
1
10
13.201031
20
21.917656
42
0.251198
0
VERTEX
8
1
10
13.164337
20
22.000946
42
0.313295
0
VERTEX
8
1
10
13.108448
20
21.963547
42
-0.024924
0
VERTEX
8
1
10
12.881274
20
21.596270
0
VERTEX
8
1
10
12.867958
20
21.582623
0
VERTEX
8
1
10
12.853210
20
21.570534
0
VERTEX
8
1
10
12.847145
20
21.573944
42
0.122456
0
VERTEX
8
1
10
12.771633
20
21.679718
42
0.182996
0
VERTEX
8
1
10
12.675385
20
21.536695
42
-0.211284
0
VERTEX
8
1
10
12.467846
20
21.340309
42
-0.311050
0
VERTEX
8
1
10
12.277925
20
21.422386
42
-0.367896
0
VERTEX
8
1
10
12.345734
20
21.595505
42
-0.044737
0
VERTEX
8
1
10
12.712898
20
21.756210
42
0.297967
0
VERTEX
8
1
10
12.662634
20
21.803560
42
-0.034353
0
VERTEX
8
1
10
12.627819
20
21.823433
0
VERTEX
8
1
10
12.628635
20
21.830025
42
-0.102062
0
VERTEX
8
1
10
12.836720
20
21.913752
42
0.168810
0
VERTEX
8
1
10
12.900700
20
21.963013
0
VERTEX
8
1
10
12.900501
20
21.971199
42
-0.059838
0
VERTEX
8
1
10
12.810232
20
21.985111
42
-0.497478
0
VERTEX
8
1
10
12.806515
20
22.027748
42
-0.205624
0
VERTEX
8
1
10
13.122180
20
22.340132
42
0.070278
0
VERTEX
8
1
10
13.232601
20
22.378311
0
VERTEX
8
1
10
13.229000
20
22.385201
42
0.183648
0
VERTEX
8
1
10
12.926735
20
22.431595
42
-0.026974
0
VERTEX
8
1
10
12.770184
20
22.414047
0
VERTEX
8
1
10
12.755441
20
22.419060
42
-0.272181
0
VERTEX
8
1
10
12.789178
20
22.483669
42
0.061652
0
VERTEX
8
1
10
12.813992
20
22.516106
42
0.280206
0
VERTEX
8
1
10
12.692131
20
22.550896
42
0.013489
0
VERTEX
8
1
10
12.506065
20
22.504036
42
-0.131275
0
VERTEX
8
1
10
12.412084
20
22.481291
42
-0.405137
0
VERTEX
8
1
10
12.390205
20
22.521851
42
-0.045997
0
VERTEX
8
1
10
12.404804
20
22.644676
42
0.147135
0
VERTEX
8
1
10
12.344963
20
22.618858
42
0.173181
0
VERTEX
8
1
10
12.257977
20
22.554276
42
-0.035723
0
VERTEX
8
1
10
12.151104
20
22.431084
42
0.032048
0
VERTEX
8
1
10
12.108055
20
22.564590
0
VERTEX
8
1
10
12.100975
20
22.569267
0
VERTEX
8
1
10
12.089214
20
22.559738
42
0.118829
0
VERTEX
8
1
10
11.927554
20
22.246933
42
0.205176
0
VERTEX
8
1
10
11.867981
20
22.373894
0
VERTEX
8
1
10
11.860638
20
22.370590
0
VERTEX
8
1
10
11.854675
20
22.363976
42
0.100374
0
VERTEX
8
1
10
11.832706
20
22.264549
42
0.029315
0
VERTEX
8
1
10
11.782028
20
21.962082
0
VERTEX
8
1
10
11.775792
20
21.930725
42
-0.197791
0
VERTEX
8
1
10
11.657930
20
21.732456
42
-0.748001
0
VERTEX
8
1
10
11.553768
20
21.837563
42
0.051815
0
VERTEX
8
1
10
11.626747
20
22.088722
42
-0.143234
0
VERTEX
8
1
10
11.540604
20
22.092010
42
-0.134070
0
VERTEX
8
1
10
11.591969
20
22.151993
42
0.021995
0
VERTEX
8
1
10
11.737517
20
22.362125
42
0.105793
0
VERTEX
8
1
10
11.759121
20
22.443588
0
VERTEX
8
1
10
11.755932
20
22.447792
42
-0.196111
0
VERTEX
8
1
10
11.656433
20
22.408333
0
VERTEX
8
1
10
11.647816
20
22.412086
42
0.114509
0
VERTEX
8
1
10
11.717606
20
22.603004
42
0.083428
0
VERTEX
8
1
10
11.761121
20
22.906176
42
0.094830
0
VERTEX
8
1
10
11.730572
20
22.998306
42
0.491286
0
VERTEX
8
1
10
11.699909
20
22.986084
42
-0.105401
0
VERTEX
8
1
10
11.545261
20
22.848106
42
0.060372
0
VERTEX
8
1
10
11.443207
20
22.726391
42
-0.047421
0
VERTEX
8
1
10
11.416355
20
22.703720
0
VERTEX
8
1
10
11.413021
20
22.708611
42
0.124546
0
VERTEX
8
1
10
11.377754
20
22.836714
42
0.326494
0
VERTEX
8
1
10
11.356716
20
22.834930
42
-0.043688
0
VERTEX
8
1
10
11.253307
20
22.708778
0
VERTEX
8
1
10
11.245644
20
22.717407
42
0.028937
0
VERTEX
8
1
10
11.178910
20
22.866722
42
0.040179
0
VERTEX
8
1
10
11.090123
20
22.683685
42
0.065503
0
VERTEX
8
1
10
11.065647
20
22.556396
42
-0.072312
0
VERTEX
8
1
10
11.002308
20
22.365952
42
0.186344
0
VERTEX
8
1
10
10.991710
20
22.400494
42
0.035495
0
VERTEX
8
1
10
10.957684
20
22.475267
0
VERTEX
8
1
10
10.954975
20
22.477051
0
VERTEX
8
1
10
10.949786
20
22.461451
42
-0.002750
0
VERTEX
8
1
10
10.866600
20
22.304466
42
-0.075506
0
VERTEX
8
1
10
10.830734
20
22.092628
0
VERTEX
8
1
10
10.827171
20
22.119602
42
0.116272
0
VERTEX
8
1
10
10.686309
20
22.401176
0
VERTEX
8
1
10
10.680643
20
22.404179
0
VERTEX
8
1
10
10.674512
20
22.406052
42
0.203940
0
VERTEX
8
1
10
10.663864
20
22.295992
42
-0.090326
0
VERTEX
8
1
10
10.656555
20
22.204536
0
VERTEX
8
1
10
10.648941
20
22.192467
42
0.010826
0
VERTEX
8
1
10
10.623882
20
22.260109
42
0.093529
0
VERTEX
8
1
10
10.517635
20
22.327415
0
VERTEX
8
1
10
10.511829
20
22.339584
42
0.005595
0
VERTEX
8
1
10
10.581802
20
22.832939
0
VERTEX
8
1
10
10.605751
20
22.846794
42
0.062265
0
VERTEX
8
1
10
10.801445
20
22.876945
0
VERTEX
8
1
10
10.806889
20
22.884361
42
0.117108
0
VERTEX
8
1
10
10.836894
20
23.371338
42
0.118331
0
VERTEX
8
1
10
10.789928
20
23.460892
42
0.020981
0
VERTEX
8
1
10
10.638138
20
23.630371
0
VERTEX
8
1
10
10.596603
20
24.170364
0
VERTEX
8
1
10
10.588512
20
24.173462
42
0.051850
0
VERTEX
8
1
10
9.536478
20
24.268629
42
0.023239
0
VERTEX
8
1
10
8.853699
20
24.239693
0
VERTEX
8
1
10
8.595604
20
24.205582
42
0.018949
0
VERTEX
8
1
10
8.523320
20
23.771315
42
0.055017
0
VERTEX
8
1
10
8.530842
20
23.642746
0
VERTEX
8
1
10
8.518700
20
23.615585
42
-0.030731
0
VERTEX
8
1
10
8.308911
20
23.475113
42
0.183514
0
VERTEX
8
1
10
8.250744
20
23.386070
42
0.084361
0
VERTEX
8
1
10
8.226742
20
22.976952
0
VERTEX
8
1
10
8.237495
20
22.927208
0
VERTEX
8
1
10
8.253517
20
22.888512
0
VERTEX
8
1
10
8.275383
20
22.863808
0
VERTEX
8
1
10
8.288464
20
22.857788
42
0.035960
0
VERTEX
8
1
10
8.531815
20
22.839226
0
VERTEX
8
1
10
8.566298
20
22.822823
42
-0.036466
0
VERTEX
8
1
10
8.570762
20
20.942757
0
VERTEX
8
1
10
8.549965
20
20.652100
0
VERTEX
8
1
10
8.353481
20
20.478149
42
0.036955
0
VERTEX
8
1
10
7.464893
20
20.078081
42
0.059536
0
VERTEX
8
1
10
7.237002
20
19.907976
42
0.002096
0
VERTEX
8
1
10
7.179720
20
19.833138
42
0.122384
0
VERTEX
8
1
10
6.379350
20
19.473345
42
0.042319
0
VERTEX
8
1
10
6.232580
20
19.326591
0
VERTEX
8
1
10
6.217198
20
19.318184
42
-0.081936
0
VERTEX
8
1
10
5.547003
20
20.085100
42
-0.131214
0
VERTEX
8
1
10
5.378531
20
20.738754
0
VERTEX
8
1
10
5.399172
20
20.736137
42
0.260297
0
VERTEX
8
1
10
6.604315
20
20.655518
42
0.119035
0
VERTEX
8
1
10
6.784103
20
20.822533
0
VERTEX
8
1
10
6.815891
20
20.889565
42
0.158217
0
VERTEX
8
1
10
6.819374
20
21.088554
0
VERTEX
8
1
10
6.795683
20
21.152031
0
VERTEX
8
1
10
6.762449
20
21.212990
0
VERTEX
8
1
10
6.721403
20
21.270805
42
0.194494
0
VERTEX
8
1
10
6.068859
20
21.614609
42
0.111433
0
VERTEX
8
1
10
6.046988
20
21.700426
0
VERTEX
8
1
10
6.045314
20
21.710157
0
VERTEX
8
1
10
6.045954
20
21.720009
42
0.103544
0
VERTEX
8
1
10
6.145176
20
21.703506
42
0.171716
0
VERTEX
8
1
10
6.226626
20
21.702469
42
0.343365
0
VERTEX
8
1
10
6.212151
20
21.734566
42
-0.049887
0
VERTEX
8
1
10
6.142868
20
21.821724
0
VERTEX
8
1
10
6.142645
20
21.827026
42
-0.106674
0
VERTEX
8
1
10
6.209946
20
21.839455
42
0.009933
0
VERTEX
8
1
10
6.396603
20
21.886871
42
0.484307
0
VERTEX
8
1
10
6.398031
20
21.912224
42
0.168471
0
VERTEX
8
1
10
6.301865
20
21.956924
42
-0.006987
0
VERTEX
8
1
10
6.237473
20
21.996895
42
-0.812205
0
VERTEX
8
1
10
6.222597
20
22.033386
42
-0.089991
0
VERTEX
8
1
10
6.459398
20
22.206154
42
-0.013002
0
VERTEX
8
1
10
6.632939
20
22.314138
42
0.014282
0
VERTEX
8
1
10
6.807860
20
22.442268
42
0.047787
0
VERTEX
8
1
10
6.821743
20
22.462410
42
0.058281
0
VERTEX
8
1
10
6.644939
20
22.499886
42
0.082091
0
VERTEX
8
1
10
6.555672
20
22.456635
0
VERTEX
8
1
10
6.546062
20
22.455002
0
VERTEX
8
1
10
6.554331
20
22.479813
42
-0.095935
0
VERTEX
8
1
10
6.676066
20
22.611834
42
0.143481
0
VERTEX
8
1
10
6.723080
20
22.691687
42
0.452835
0
VERTEX
8
1
10
6.706381
20
22.699875
0
VERTEX
8
1
10
6.696600
20
22.700127
42
0.033296
0
VERTEX
8
1
10
6.491980
20
22.648918
42
0.034610
0
VERTEX
8
1
10
6.289398
20
22.543062
42
0.036552
0
VERTEX
8
1
10
6.268059
20
22.522118
42
-0.035118
0
VERTEX
8
1
10
6.388309
20
22.717926
42
0.097101
0
VERTEX
8
1
10
6.441269
20
22.791206
42
-0.048764
0
VERTEX
8
1
10
6.484004
20
22.961052
42
-0.092093
0
VERTEX
8
1
10
6.505663
20
23.027008
0
VERTEX
8
1
10
6.504755
20
23.030350
42
0.142208
0
VERTEX
8
1
10
6.432514
20
23.002907
42
0.106109
0
VERTEX
8
1
10
6.353746
20
22.961433
42
-0.096256
0
VERTEX
8
1
10
6.519627
20
23.287590
42
0.077494
0
VERTEX
8
1
10
6.615261
20
23.514275
42
0.078974
0
VERTEX
8
1
10
6.646206
20
23.635750
42
0.031491
0
VERTEX
8
1
10
6.432407
20
23.544571
0
VERTEX
8
1
10
6.421837
20
23.550865
42
-0.064317
0
VERTEX
8
1
10
6.436869
20
23.754135
0
VERTEX
8
1
10
6.435707
20
23.776268
0
VERTEX
8
1
10
6.427637
20
23.788383
0
VERTEX
8
1
10
6.413950
20
23.792007
0
VERTEX
8
1
10
6.395945
20
23.788597
42
0.088143
0
VERTEX
8
1
10
6.257782
20
23.692703
0
VERTEX
8
1
10
6.251505
20
23.700607
42
-0.088461
0
VERTEX
8
1
10
6.258513
20
23.853012
42
0.129419
0
VERTEX
8
1
10
6.240860
20
24.034111
42
-0.071835
0
VERTEX
8
1
10
6.232026
20
24.274605
42
0.471634
0
VERTEX
8
1
10
6.200336
20
24.285812
0
VERTEX
8
1
10
6.188675
20
24.281609
42
0.146593
0
VERTEX
8
1
10
5.939485
20
24.029507
42
0.001213
0
VERTEX
8
1
10
5.779051
20
23.742664
42
0.075809
0
VERTEX
8
1
10
5.747583
20
23.629997
0
VERTEX
8
1
10
5.740118
20
23.618179
0
VERTEX
8
1
10
5.728230
20
23.623672
0
VERTEX
8
1
10
5.717453
20
23.632294
42
-0.140449
0
VERTEX
8
1
10
5.667887
20
23.758263
42
0.185913
0
VERTEX
8
1
10
5.626549
20
23.699085
42
0.089939
0
VERTEX
8
1
10
5.579643
20
23.492973
42
0.082858
0
VERTEX
8
1
10
5.561563
20
23.236935
42
-0.107440
0
VERTEX
8
1
10
5.549498
20
23.190483
42
-0.117982
0
VERTEX
8
1
10
5.464907
20
23.266289
0
VERTEX
8
1
10
5.459362
20
23.268555
42
0.096367
0
VERTEX
8
1
10
5.423029
20
23.204948
42
0.040044
0
VERTEX
8
1
10
5.283233
20
22.917356
42
-0.726181
0
VERTEX
8
1
10
5.088708
20
22.962685
42
-0.163762
0
VERTEX
8
1
10
5.147642
20
23.226227
42
-0.036456
0
VERTEX
8
1
10
5.263232
20
23.399916
42
0.023517
0
VERTEX
8
1
10
5.427326
20
23.656036
42
0.113313
0
VERTEX
8
1
10
5.490152
20
23.767937
0
VERTEX
8
1
10
5.489264
20
23.780006
0
VERTEX
8
1
10
5.480688
20
23.786774
42
0.204278
0
VERTEX
8
1
10
5.303217
20
23.710159
42
0.113551
0
VERTEX
8
1
10
5.437621
20
24.152752
0
VERTEX
8
1
10
5.436113
20
24.181721
0
VERTEX
8
1
10
5.432268
20
24.210472
42
0.027268
0
VERTEX
8
1
10
5.260614
20
24.114761
0
VERTEX
8
1
10
5.252220
20
24.113304
0
VERTEX
8
1
10
5.250809
20
24.119843
42
-0.024748
0
VERTEX
8
1
10
5.262845
20
24.372330
42
0.129021
0
VERTEX
8
1
10
5.232630
20
24.486420
42
0.124191
0
VERTEX
8
1
10
5.200857
20
24.564690
0
VERTEX
8
1
10
5.195824
20
24.563271
0
VERTEX
8
1
10
5.144041
20
24.490417
42
-0.088228
0
VERTEX
8
1
10
5.076241
20
24.408829
42
-0.412638
0
VERTEX
8
1
10
5.010187
20
24.429848
42
-0.064761
0
VERTEX
8
1
10
4.954470
20
24.535164
42
0.030959
0
VERTEX
8
1
10
4.785773
20
24.779587
42
0.195778
0
VERTEX
8
1
10
4.668371
20
24.822418
0
VERTEX
8
1
10
4.661112
20
24.815422
42
0.024620
0
VERTEX
8
1
10
4.656343
20
24.713043
42
-0.196408
0
VERTEX
8
1
10
4.625107
20
24.663681
42
-0.026846
0
VERTEX
8
1
10
4.413939
20
24.907387
42
0.156386
0
VERTEX
8
1
10
4.110029
20
25.082001
0
VERTEX
8
1
10
4.109625
20
25.072693
42
0.096699
0
VERTEX
8
1
10
4.163837
20
24.968559
42
-0.128762
0
VERTEX
8
1
10
4.254307
20
24.696877
42
-0.135594
0
VERTEX
8
1
10
4.199766
20
24.292633
42
-0.408947
0
VERTEX
8
1
10
4.152836
20
24.285782
42
-0.035284
0
VERTEX
8
1
10
4.058894
20
24.353798
42
0.249511
0
VERTEX
8
1
10
4.070662
20
24.239792
0
VERTEX
8
1
10
4.081057
20
24.220581
42
-0.102308
0
VERTEX
8
1
10
4.205450
20
23.945610
0
VERTEX
8
1
10
4.193560
20
23.946083
42
0.050705
0
VERTEX
8
1
10
4.078228
20
23.970901
0
VERTEX
8
1
10
4.065622
20
23.968460
0
VERTEX
8
1
10
4.054298
20
23.963066
0
VERTEX
8
1
10
4.052448
20
23.949783
42
0.017239
0
VERTEX
8
1
10
4.145578
20
23.767204
42
-0.043372
0
VERTEX
8
1
10
4.277180
20
23.420046
42
-0.308656
0
VERTEX
8
1
10
4.184383
20
23.214264
42
-0.463391
0
VERTEX
8
1
10
3.863565
20
23.413937
42
-0.144329
0
VERTEX
8
1
10
3.880702
20
23.685562
42
0.042028
0
VERTEX
8
1
10
3.927856
20
23.880365
42
0.060917
0
VERTEX
8
1
10
3.921911
20
23.925415
0
VERTEX
8
1
10
3.910538
20
23.935837
42
0.122505
0
VERTEX
8
1
10
3.735270
20
23.896675
42
-0.126902
0
VERTEX
8
1
10
3.731924
20
23.982849
42
-0.021416
0
VERTEX
8
1
10
3.846745
20
24.548723
42
0.166873
0
VERTEX
8
1
10
3.834160
20
24.622307
42
0.309033
0
VERTEX
8
1
10
3.783932
20
24.629562
42
0.181895
0
VERTEX
8
1
10
3.668946
20
24.532906
42
-0.170429
0
VERTEX
8
1
10
3.608440
20
24.500504
42
0.089814
0
VERTEX
8
1
10
3.325229
20
24.791964
42
0.039740
0
VERTEX
8
1
10
3.259281
20
24.823830
0
VERTEX
8
1
10
3.234369
20
24.825981
42
0.069875
0
VERTEX
8
1
10
3.216799
20
24.705971
0
VERTEX
8
1
10
3.213800
20
24.693855
42
-0.195039
0
VERTEX
8
1
10
3.173275
20
24.690193
42
-0.042620
0
VERTEX
8
1
10
3.019506
20
24.751472
42
0.071153
0
VERTEX
8
1
10
2.863567
20
24.783813
0
VERTEX
8
1
10
2.850433
20
24.787537
42
-0.045098
0
VERTEX
8
1
10
2.618000
20
24.920900
42
0.031317
0
VERTEX
8
1
10
2.585002
20
24.935417
42
0.144948
0
VERTEX
8
1
10
2.602674
20
24.715618
42
-0.127065
0
VERTEX
8
1
10
2.599424
20
24.682297
42
-0.018007
0
VERTEX
8
1
10
2.428038
20
24.694344
0
VERTEX
8
1
10
2.417776
20
24.690804
0
VERTEX
8
1
10
2.415699
20
24.680115
42
0.151436
0
VERTEX
8
1
10
2.501561
20
24.467228
42
-0.044497
0
VERTEX
8
1
10
2.509989
20
24.442490
0
VERTEX
8
1
10
2.498789
20
24.435921
42
-0.162264
0
VERTEX
8
1
10
2.268051
20
24.544174
42
-0.040700
0
VERTEX
8
1
10
2.161951
20
24.650711
42
0.241301
0
VERTEX
8
1
10
2.007817
20
24.671494
42
-0.153755
0
VERTEX
8
1
10
1.995922
20
24.607819
0
VERTEX
8
1
10
1.986120
20
24.606354
42
-0.081424
0
VERTEX
8
1
10
1.721743
20
24.713049
42
0.064498
0
VERTEX
8
1
10
1.620340
20
24.749519
42
0.135396
0
VERTEX
8
1
10
1.573542
20
24.763985
0
VERTEX
8
1
10
1.572947
20
24.753632
42
-0.002709
0
VERTEX
8
1
10
1.541965
20
24.751122
42
0.157106
0
VERTEX
8
1
10
1.571442
20
24.688744
42
-0.028957
0
VERTEX
8
1
10
1.711149
20
24.366665
0
VERTEX
8
1
10
1.718689
20
24.339073
42
-0.208514
0
VERTEX
8
1
10
1.656981
20
24.320953
0
VERTEX
8
1
10
1.651997
20
24.318344
42
0.333296
0
VERTEX
8
1
10
1.717947
20
24.137150
42
-0.146686
0
VERTEX
8
1
10
1.902036
20
23.878803
42
-0.042753
0
VERTEX
8
1
10
1.909363
20
23.829781
0
VERTEX
8
1
10
1.898462
20
23.828789
42
-0.045087
0
VERTEX
8
1
10
1.787119
20
23.885208
42
0.147399
0
VERTEX
8
1
10
1.647512
20
23.908684
42
-0.003282
0
VERTEX
8
1
10
1.666510
20
23.738243
0
VERTEX
8
1
10
1.664860
20
23.727303
0
VERTEX
8
1
10
1.657774
20
23.724686
42
-0.088652
0
VERTEX
8
1
10
1.562635
20
23.740540
42
0.092194
0
VERTEX
8
1
10
1.421106
20
23.735291
0
VERTEX
8
1
10
1.415623
20
23.727654
42
0.046664
0
VERTEX
8
1
10
1.524394
20
23.563997
42
-0.125373
0
VERTEX
8
1
10
1.590813
20
23.379181
42
0.084881
0
VERTEX
8
1
10
1.661670
20
23.214951
42
-0.112340
0
VERTEX
8
1
10
1.683949
20
23.120903
0
VERTEX
8
1
10
1.676895
20
23.112305
42
0.038593
0
VERTEX
8
1
10
1.545925
20
23.085617
42
0.131731
0
VERTEX
8
1
10
1.693638
20
22.876671
42
0.032373
0
VERTEX
8
1
10
1.869446
20
22.742126
0
VERTEX
8
1
10
1.889635
20
22.721428
42
-0.226555
0
VERTEX
8
1
10
1.831447
20
22.642370
42
0.221047
0
VERTEX
8
1
10
1.766567
20
22.515228
42
0.402837
0
VERTEX
8
1
10
1.838867
20
22.485565
42
0.009035
0
VERTEX
8
1
10
2.235331
20
22.588112
42
-0.028363
0
VERTEX
8
1
10
2.471321
20
22.630747
42
-0.038974
0
VERTEX
8
1
10
2.491669
20
22.627892
0
VERTEX
8
1
10
2.495987
20
22.619850
42
0.122349
0
VERTEX
8
1
10
2.466848
20
22.442467
0
VERTEX
8
1
10
2.483866
20
22.435913
42
0.133747
0
VERTEX
8
1
10
2.650248
20
22.466301
42
-0.108968
0
VERTEX
8
1
10
2.921124
20
22.524261
42
-0.071306
0
VERTEX
8
1
10
3.069947
20
22.492844
42
-0.339728
0
VERTEX
8
1
10
3.202230
20
22.215279
42
-0.380101
0
VERTEX
8
1
10
2.959885
20
22.111313
42
-0.045761
0
VERTEX
8
1
10
2.480620
20
22.297037
0
VERTEX
8
1
10
2.451931
20
22.308029
0
VERTEX
8
1
10
2.443268
20
22.299637
42
0.212210
0
VERTEX
8
1
10
2.453554
20
22.214085
42
-0.031927
0
VERTEX
8
1
10
2.468739
20
22.160553
0
VERTEX
8
1
10
2.462967
20
22.153748
42
-0.105936
0
VERTEX
8
1
10
2.184363
20
22.269672
42
0.129335
0
VERTEX
8
1
10
2.084726
20
22.293098
0
VERTEX
8
1
10
2.066513
20
22.288216
0
VERTEX
8
1
10
2.057173
20
22.279999
42
-0.049628
0
VERTEX
8
1
10
2.132348
20
22.180386
42
-0.494163
0
VERTEX
8
1
10
2.100019
20
22.133896
42
-0.190489
0
VERTEX
8
1
10
1.520279
20
22.114803
42
-0.058085
0
VERTEX
8
1
10
1.399997
20
22.179705
42
0.062066
0
VERTEX
8
1
10
1.336784
20
22.201927
0
VERTEX
8
1
10
1.332747
20
22.193008
42
0.176350
0
VERTEX
8
1
10
1.564440
20
21.867729
42
-0.022530
0
VERTEX
8
1
10
1.754751
20
21.718224
0
VERTEX
8
1
10
1.766176
20
21.698502
42
-0.272909
0
VERTEX
8
1
10
1.670526
20
21.667042
42
0.060041
0
VERTEX
8
1
10
1.614680
20
21.659500
42
0.279760
0
VERTEX
8
1
10
1.699504
20
21.506828
42
0.012743
0
VERTEX
8
1
10
1.927629
20
21.371948
42
-0.135399
0
VERTEX
8
1
10
2.041421
20
21.305317
42
-0.294653
0
VERTEX
8
1
10
2.040840
20
21.260139
42
-0.085369
0
VERTEX
8
1
10
1.962105
20
21.189835
0
VERTEX
8
1
10
1.891531
20
21.135025
0
VERTEX
8
1
10
1.894058
20
21.129944
42
0.075416
0
VERTEX
8
1
10
1.981817
20
21.099518
42
0.171494
0
VERTEX
8
1
10
2.122763
20
21.080917
42
-0.041245
0
VERTEX
8
1
10
2.347603
20
21.098305
42
0.030106
0
VERTEX
8
1
10
2.260809
20
20.925484
0
VERTEX
8
1
10
2.262432
20
20.913635
42
0.100775
0
VERTEX
8
1
10
2.467325
20
20.942764
42
0.077637
0
VERTEX
8
1
10
2.746405
20
21.062225
42
0.205057
0
VERTEX
8
1
10
2.681442
20
20.879456
42
0.274253
0
VERTEX
8
1
10
2.742443
20
20.892044
42
-0.028358
0
VERTEX
8
1
10
2.959284
20
21.044250
42
-0.024765
0
VERTEX
8
1
10
3.250578
20
21.256077
42
-0.151190
0
VERTEX
8
1
10
3.502190
20
21.308784
42
-0.537533
0
VERTEX
8
1
10
3.564894
20
21.138908
42
-0.100914
0
VERTEX
8
1
10
3.444899
20
21.071938
42
0.021524
0
VERTEX
8
1
10
3.205810
20
20.934696
0
VERTEX
8
1
10
3.195253
20
20.925148
42
-0.142467
0
VERTEX
8
1
10
3.276707
20
20.838112
0
VERTEX
8
1
10
3.269098
20
20.833588
42
-0.097243
0
VERTEX
8
1
10
3.168045
20
20.829041
42
0.031294
0
VERTEX
8
1
10
2.823433
20
20.764076
42
0.081326
0
VERTEX
8
1
10
2.727109
20
20.711916
0
VERTEX
8
1
10
2.722881
20
20.705027
0
VERTEX
8
1
10
2.719973
20
20.697487
42
-0.152668
0
VERTEX
8
1
10
2.847952
20
20.650337
0
VERTEX
8
1
10
2.856033
20
20.639503
0
VERTEX
8
1
10
2.860844
20
20.627419
42
0.115172
0
VERTEX
8
1
10
2.650810
20
20.536224
0
VERTEX
8
1
10
2.600716
20
20.503609
0
VERTEX
8
1
10
2.576262
20
20.488205
42
0.102300
0
VERTEX
8
1
10
2.257149
20
20.232769
42
0.095974
0
VERTEX
8
1
10
2.210537
20
20.127962
42
0.465120
0
VERTEX
8
1
10
2.239058
20
20.112312
42
-0.105493
0
VERTEX
8
1
10
2.538866
20
20.098740
42
0.103945
0
VERTEX
8
1
10
2.678919
20
20.110672
42
-0.083908
0
VERTEX
8
1
10
2.805721
20
20.115387
0
VERTEX
8
1
10
2.803694
20
20.107216
42
0.096923
0
VERTEX
8
1
10
2.713649
20
19.955570
42
0.432601
0
VERTEX
8
1
10
2.737061
20
19.928360
0
VERTEX
8
1
10
2.759188
20
19.930061
42
-0.058894
0
VERTEX
8
1
10
2.961040
20
19.951881
0
VERTEX
8
1
10
2.959673
20
19.935547
42
0.031506
0
VERTEX
8
1
10
2.880625
20
19.724251
0
VERTEX
8
1
10
2.884365
20
19.726234
42
0.086462
0
VERTEX
8
1
10
3.017132
20
19.767738
42
0.109886
0
VERTEX
8
1
10
3.278433
20
19.908638
42
-0.082888
0
VERTEX
8
1
10
3.540346
20
20.045311
42
0.118602
0
VERTEX
8
1
10
3.502146
20
19.963585
42
0.154891
0
VERTEX
8
1
10
3.478697
20
19.889580
42
-0.069191
0
VERTEX
8
1
10
3.517178
20
19.907181
0
VERTEX
8
1
10
3.520378
20
19.899582
42
0.134445
0
VERTEX
8
1
10
3.623091
20
19.642826
42
-0.000426
0
VERTEX
8
1
10
3.758968
20
19.448341
42
0.079763
0
VERTEX
8
1
10
3.839315
20
19.375099
42
-0.269513
0
VERTEX
8
1
10
3.744445
20
19.361422
42
-0.033615
0
VERTEX
8
1
10
3.714714
20
19.369583
42
0.268614
0
VERTEX
8
1
10
3.721460
20
19.344299
42
0.109982
0
VERTEX
8
1
10
3.877687
20
19.211113
42
0.079079
0
VERTEX
8
1
10
4.064289
20
19.103558
42
-0.083762
0
VERTEX
8
1
10
4.075781
20
19.090866
42
-0.118107
0
VERTEX
8
1
10
3.989058
20
19.053505
0
VERTEX
8
1
10
3.991138
20
19.048126
42
0.006438
0
VERTEX
8
1
10
4.115009
20
18.878326
42
-0.084905
0
VERTEX
8
1
10
4.190346
20
18.781334
42
-0.628348
0
VERTEX
8
1
10
4.068537
20
18.685768
42
-0.177102
0
VERTEX
8
1
10
3.878859
20
18.866005
42
0.025285
0
VERTEX
8
1
10
3.699041
20
19.169754
42
0.154047
0
VERTEX
8
1
10
3.638133
20
19.249506
42
0.378230
0
VERTEX
8
1
10
3.623655
20
19.238777
42
0.183149
0
VERTEX
8
1
10
3.619923
20
19.095680
42
0.124413
0
VERTEX
8
1
10
3.329403
20
19.352562
0
VERTEX
8
1
10
3.313568
20
19.357513
0
VERTEX
8
1
10
3.309834
20
19.348137
42
0.026739
0
VERTEX
8
1
10
3.317984
20
19.196327
0
VERTEX
8
1
10
3.312916
20
19.197380
42
-0.022676
0
VERTEX
8
1
10
3.128366
20
19.297142
42
0.090751
0
VERTEX
8
1
10
3.032358
20
19.313431
42
0.113050
0
VERTEX
8
1
10
2.978504
20
19.316612
0
VERTEX
8
1
10
2.975643
20
19.313461
0
VERTEX
8
1
10
3.009655
20
19.251373
42
-0.108152
0
VERTEX
8
1
10
3.045561
20
19.166412
0
VERTEX
8
1
10
3.041103
20
19.154602
42
-0.265578
0
VERTEX
8
1
10
2.951522
20
19.130554
42
0.031924
0
VERTEX
8
1
10
2.903725
20
19.129120
0
VERTEX
8
1
10
2.764013
20
19.111427
42
0.109278
0
VERTEX
8
1
10
2.657032
20
19.083328
42
0.131149
0
VERTEX
8
1
10
2.609621
20
19.020264
0
VERTEX
8
1
10
2.619497
20
19.012840
42
-0.084987
0
VERTEX
8
1
10
2.696836
20
18.966034
0
VERTEX
8
1
10
2.702726
20
18.955971
0
VERTEX
8
1
10
2.706987
20
18.943703
0
VERTEX
8
1
10
2.690533
20
18.933342
42
-0.009628
0
VERTEX
8
1
10
2.440912
20
18.867023
42
0.142457
0
VERTEX
8
1
10
2.235094
20
18.721794
0
VERTEX
8
1
10
2.236557
20
18.714920
42
0.108540
0
VERTEX
8
1
10
2.329332
20
18.716591
42
-0.136060
0
VERTEX
8
1
10
2.555758
20
18.687408
42
-0.136451
0
VERTEX
8
1
10
2.825710
20
18.508263
42
-0.370861
0
VERTEX
8
1
10
2.815681
20
18.474449
42
-0.047269
0
VERTEX
8
1
10
2.734497
20
18.430443
0
VERTEX
8
1
10
2.739895
20
18.421043
0
VERTEX
8
1
10
2.751732
20
18.411949
42
0.150996
0
VERTEX
8
1
10
2.880905
20
18.403984
42
-0.091936
0
VERTEX
8
1
10
3.070570
20
18.393730
0
VERTEX
8
1
10
3.071274
20
18.386642
42
0.029377
0
VERTEX
8
1
10
3.010981
20
18.308947
42
0.188924
0
VERTEX
8
1
10
3.014103
20
18.285454
0
VERTEX
8
1
10
3.035476
20
18.284338
42
-0.059748
0
VERTEX
8
1
10
3.482571
20
18.258398
42
-0.317621
0
VERTEX
8
1
10
3.587306
20
18.114609
42
-0.468317
0
VERTEX
8
1
10
3.319603
20
17.970070
42
-0.162265
0
VERTEX
8
1
10
3.117742
20
18.099390
42
0.073937
0
VERTEX
8
1
10
3.006310
20
18.179636
42
0.074184
0
VERTEX
8
1
10
2.981054
20
18.182556
42
0.122084
0
VERTEX
8
1
10
2.946684
20
18.044617
0
VERTEX
8
1
10
2.940523
20
18.040977
42
-0.121007
0
VERTEX
8
1
10
2.853867
20
18.089668
0
VERTEX
8
1
10
2.837425
20
18.100609
42
-0.008468
0
VERTEX
8
1
10
2.503618
20
18.356449
42
0.320138
0
VERTEX
8
1
10
2.449485
20
18.351715
42
0.248881
0
VERTEX
8
1
10
2.464506
20
18.226425
42
-0.194094
0
VERTEX
8
1
10
2.473967
20
18.163010
0
VERTEX
8
1
10
2.451893
20
18.154564
42
0.106597
0
VERTEX
8
1
10
2.149642
20
18.045521
42
0.048016
0
VERTEX
8
1
10
2.109713
20
18.007622
42
0.031726
0
VERTEX
8
1
10
2.195263
20
17.945339
42
-0.248968
0
VERTEX
8
1
10
2.195429
20
17.928329
42
-0.092396
0
VERTEX
8
1
10
2.101625
20
17.836174
42
0.091708
0
VERTEX
8
1
10
2.015936
20
17.729088
42
-0.068326
0
VERTEX
8
1
10
1.834768
20
17.601234
42
0.025640
0
VERTEX
8
1
10
1.812441
20
17.583130
0
VERTEX
8
1
10
1.814131
20
17.575882
42
0.125985
0
VERTEX
8
1
10
1.980599
20
17.513805
42
-0.087198
0
VERTEX
8
1
10
1.993717
20
17.504639
0
VERTEX
8
1
10
1.991488
20
17.496193
42
-0.008076
0
VERTEX
8
1
10
1.923920
20
17.378540
0
VERTEX
8
1
10
1.930414
20
17.373077
42
0.164837
0
VERTEX
8
1
10
2.103981
20
17.359062
42
-0.099526
0
VERTEX
8
1
10
2.139244
20
17.353233
42
-0.198776
0
VERTEX
8
1
10
1.929229
20
17.199949
42
-0.009191
0
VERTEX
8
1
10
1.860083
20
17.177536
42
0.212685
0
VERTEX
8
1
10
1.798101
20
17.080017
0
VERTEX
8
1
10
1.800777
20
17.076431
42
-0.176920
0
VERTEX
8
1
10
1.840450
20
17.044266
42
-0.086717
0
VERTEX
8
1
10
1.659124
20
16.879791
42
0.042973
0
VERTEX
8
1
10
1.581984
20
16.800484
0
VERTEX
8
1
10
1.589806
20
16.796036
42
0.030033
0
VERTEX
8
1
10
1.580776
20
16.774170
0
VERTEX
8
1
10
1.582869
20
16.772446
42
0.150016
0
VERTEX
8
1
10
1.633930
20
16.772827
42
-0.038986
0
VERTEX
8
1
10
1.925926
20
16.757595
0
VERTEX
8
1
10
1.936810
20
16.754005
42
-0.161279
0
VERTEX
8
1
10
1.925150
20
16.704056
42
0.343503
0
VERTEX
8
1
10
2.079767
20
16.686819
42
-0.146984
0
VERTEX
8
1
10
2.333385
20
16.726601
0
VERTEX
8
1
10
2.354658
20
16.720039
0
VERTEX
8
1
10
2.362957
20
16.711754
42
-0.086965
0
VERTEX
8
1
10
2.293081
20
16.657333
42
0.148922
0
VERTEX
8
1
10
2.217335
20
16.560837
0
VERTEX
8
1
10
2.222488
20
16.554619
42
-0.014314
0
VERTEX
8
1
10
2.351481
20
16.509308
42
-0.200900
0
VERTEX
8
1
10
2.343355
20
16.483704
42
0.135171
0
VERTEX
8
1
10
2.261000
20
16.330208
42
0.053162
0
VERTEX
8
1
10
2.400925
20
16.347153
0
VERTEX
8
1
10
2.456036
20
16.352707
42
-0.133776
0
VERTEX
8
1
10
2.556837
20
16.338219
42
0.090352
0
VERTEX
8
1
10
2.726057
20
16.327507
42
-0.132245
0
VERTEX
8
1
10
2.794363
20
16.307167
42
0.008258
0
VERTEX
8
1
10
2.768030
20
16.205055
0
VERTEX
8
1
10
2.782597
20
16.197731
0
VERTEX
8
1
10
2.816647
20
16.197311
42
0.121582
0
VERTEX
8
1
10
3.139690
20
16.320808
0
VERTEX
8
1
10
3.151436
20
16.315277
42
-0.160136
0
VERTEX
8
1
10
3.188075
20
16.235222
42
0.269199
0
VERTEX
8
1
10
3.260105
20
16.159615
42
0.307334
0
VERTEX
8
1
10
3.302303
20
16.222076
42
-0.029036
0
VERTEX
8
1
10
3.408558
20
16.696457
42
-0.058828
0
VERTEX
8
1
10
3.423800
20
16.719414
42
0.112493
0
VERTEX
8
1
10
3.537941
20
16.636681
0
VERTEX
8
1
10
3.549850
20
16.637955
42
0.151782
0
VERTEX
8
1
10
3.593723
20
16.824350
42
-0.199519
0
VERTEX
8
1
10
3.724665
20
17.087540
42
-0.337509
0
VERTEX
8
1
10
3.964719
20
17.074600
42
-0.362566
0
VERTEX
8
1
10
3.950483
20
16.871078
42
-0.045846
0
VERTEX
8
1
10
3.640789
20
16.583000
0
VERTEX
8
1
10
3.634777
20
16.572273
0
VERTEX
8
1
10
3.640919
20
16.564415
42
0.116844
0
VERTEX
8
1
10
3.740398
20
16.539444
0
VERTEX
8
1
10
3.749887
20
16.536430
42
-0.112107
0
VERTEX
8
1
10
3.563381
20
16.368301
42
0.208806
0
VERTEX
8
1
10
3.515627
20
16.288414
0
VERTEX
8
1
10
3.521893
20
16.286659
42
-0.084295
0
VERTEX
8
1
10
3.620616
20
16.303221
42
-0.429411
0
VERTEX
8
1
10
3.636923
20
16.263771
42
-0.205853
0
VERTEX
8
1
10
3.421054
20
15.821986
42
0.056997
0
VERTEX
8
1
10
3.333093
20
15.755974
0
VERTEX
8
1
10
3.323845
20
15.742661
42
0.185399
0
VERTEX
8
1
10
3.640221
20
15.791679
42
-0.030067
0
VERTEX
8
1
10
3.824314
20
15.880066
0
VERTEX
8
1
10
3.834270
20
15.872314
42
-0.196220
0
VERTEX
8
1
10
3.811446
20
15.773211
0
VERTEX
8
1
10
3.809456
20
15.763468
0
VERTEX
8
1
10
3.809280
20
15.753525
42
0.267893
0
VERTEX
8
1
10
3.944841
20
15.763489
42
0.015145
0
VERTEX
8
1
10
4.124054
20
15.883102
42
-0.151628
0
VERTEX
8
1
10
4.212861
20
15.937635
42
-0.369417
0
VERTEX
8
1
10
4.245689
20
15.906578
42
-0.018903
0
VERTEX
8
1
10
4.277973
20
15.771240
0
VERTEX
8
1
10
4.283108
20
15.772980
0
VERTEX
8
1
10
4.288244
20
15.775932
42
-0.012520
0
VERTEX
8
1
10
4.367178
20
15.858826
42
0.045687
0
VERTEX
8
1
10
4.434127
20
16.030703
42
-0.020579
0
VERTEX
8
1
10
4.457825
20
16.081512
0
VERTEX
8
1
10
4.462502
20
16.082451
42
0.041111
0
VERTEX
8
1
10
4.556675
20
15.958511
0
VERTEX
8
1
10
4.565813
20
15.965149
0
VERTEX
8
1
10
4.574017
20
15.979431
42
0.114013
0
VERTEX
8
1
10
4.624834
20
16.351936
42
0.180803
0
VERTEX
8
1
10
4.724613
20
16.248604
0
VERTEX
8
1
10
4.734489
20
16.247536
0
VERTEX
8
1
10
4.739536
20
16.255569
42
0.144952
0
VERTEX
8
1
10
4.730862
20
16.356407
42
0.017129
0
VERTEX
8
1
10
4.663216
20
16.740978
42
-0.185328
0
VERTEX
8
1
10
4.714941
20
16.986477
42
-0.704115
0
VERTEX
8
1
10
4.859600
20
16.921761
42
0.052902
0
VERTEX
8
1
10
4.869192
20
16.689766
42
0.116967
0
VERTEX
8
1
10
4.877932
20
16.628326
42
-0.142740
0
VERTEX
8
1
10
4.962807
20
16.657738
0
VERTEX
8
1
10
4.966841
20
16.654114
42
-0.128619
0
VERTEX
8
1
10
4.937326
20
16.580078
42
0.050617
0
VERTEX
8
1
10
4.861405
20
16.287746
42
0.109993
0
VERTEX
8
1
10
4.871023
20
16.211624
0
VERTEX
8
1
10
4.875816
20
16.213646
42
-0.173333
0
VERTEX
8
1
10
4.955439
20
16.286873
0
VERTEX
8
1
10
4.965883
20
16.288063
0
VERTEX
8
1
10
4.973915
20
16.284302
42
0.126275
0
VERTEX
8
1
10
4.969202
20
16.075058
42
0.062821
0
VERTEX
8
1
10
5.026457
20
15.758422
42
0.106967
0
VERTEX
8
1
10
5.102389
20
15.651980
42
0.526744
0
VERTEX
8
1
10
5.125750
20
15.667969
42
-0.107103
0
VERTEX
8
1
10
5.239443
20
15.877014
42
0.060186
0
VERTEX
8
1
10
5.295590
20
16.030313
42
-0.072095
0
VERTEX
8
1
10
5.320913
20
16.073143
42
0.126778
0
VERTEX
8
1
10
5.404899
20
15.948816
42
0.388836
0
VERTEX
8
1
10
5.430227
20
15.961731
42
-0.051819
0
VERTEX
8
1
10
5.483309
20
16.116516
0
VERTEX
8
1
10
5.491094
20
16.126692
42
0.021235
0
VERTEX
8
1
10
5.622854
20
15.989990
42
-0.105852
0
VERTEX
8
1
10
5.632837
20
16.030159
42
0.009365
0
VERTEX
8
1
10
5.647543
20
16.217270
42
0.055391
0
VERTEX
8
1
10
5.628232
20
16.340179
42
-0.081531
0
VERTEX
8
1
10
5.622186
20
16.572502
42
0.142009
0
VERTEX
8
1
10
5.668129
20
16.513603
42
0.171786
0
VERTEX
8
1
10
5.712677
20
16.472412
42
-0.118553
0
VERTEX
8
1
10
5.717997
20
16.534332
42
-0.032847
0
VERTEX
8
1
10
5.740274
20
16.678139
42
-0.075236
0
VERTEX
8
1
10
5.700533
20
16.910400
42
0.112521
0
VERTEX
8
1
10
5.744021
20
16.843273
42
0.107011
0
VERTEX
8
1
10
5.965866
20
16.647400
42
0.101968
0
VERTEX
8
1
10
5.976500
20
16.648224
42
0.152964
0
VERTEX
8
1
10
5.946230
20
16.767715
42
-0.123446
0
VERTEX
8
1
10
5.920378
20
16.867630
0
VERTEX
8
1
10
5.925266
20
16.875603
42
0.028903
0
VERTEX
8
1
10
5.975967
20
16.815269
42
0.083689
0
VERTEX
8
1
10
6.114780
20
16.785034
0
VERTEX
8
1
10
6.119614
20
16.789749
42
0.067163
0
VERTEX
8
1
10
6.107840
20
16.823410
42
0.032702
0
VERTEX
8
1
10
5.886318
20
17.153152
42
-0.071763
0
VERTEX
8
1
10
5.817949
20
17.295471
42
-0.578999
0
VERTEX
8
1
10
5.843393
20
17.306458
42
0.029272
0
VERTEX
8
1
10
5.899948
20
17.315742
42
0.216807
0
VERTEX
8
1
10
5.991996
20
17.323412
42
0.527088
0
VERTEX
8
1
10
5.983107
20
17.345886
42
0.022738
0
VERTEX
8
1
10
5.831707
20
17.454168
0
VERTEX
8
1
10
5.825758
20
17.462151
42
-0.041981
0
VERTEX
8
1
10
5.925897
20
17.517097
42
0.462800
0
VERTEX
8
1
10
5.911398
20
17.536827
42
0.030633
0
VERTEX
8
1
10
5.794898
20
17.567280
0
VERTEX
8
1
10
5.790445
20
17.566528
42
-0.232875
0
VERTEX
8
1
10
5.815395
20
17.597252
42
0.104245
0
VERTEX
8
1
10
5.858732
20
17.701118
42
-0.043530
0
VERTEX
8
1
10
5.844411
20
17.786446
42
0.465088
0
VERTEX
8
1
10
5.787973
20
17.801788
42
0.042502
0
VERTEX
8
1
10
5.724841
20
17.746031
42
-0.029733
0
VERTEX
8
1
10
5.578044
20
17.667768
42
-0.059868
0
VERTEX
8
1
10
5.533409
20
17.660973
42
-0.124921
0
VERTEX
8
1
10
5.322584
20
17.630829
42
-0.065387
0
VERTEX
8
1
10
5.185776
20
17.688828
42
-0.227452
0
VERTEX
8
1
10
4.945358
20
17.902802
42
-0.050423
0
VERTEX
8
1
10
4.877237
20
18.092033
42
-0.089663
0
VERTEX
8
1
10
5.291567
20
18.248825
42
-0.151433
0
VERTEX
8
1
10
5.629846
20
18.163425
42
-0.065570
0
VERTEX
8
1
10
5.775084
20
18.056152
42
0.156209
0
VERTEX
8
1
10
5.933872
20
18.002541
42
0.032762
0
VERTEX
8
1
10
6.043204
20
17.998756
42
0.103552
0
VERTEX
8
1
10
6.500305
20
17.267958
42
-0.017489
0
VERTEX
8
1
10
7.201941
20
16.502121
0
VERTEX
8
1
10
7.266624
20
16.421097
42
-0.064321
0
VERTEX
8
1
10
7.371014
20
16.267914
42
-0.008439
0
VERTEX
8
1
10
7.492652
20
16.150436
42
-0.005702
0
VERTEX
8
1
10
7.010527
20
14.998017
42
0.001819
0
VERTEX
8
1
10
6.798664
20
14.437932
0
VERTEX
8
1
10
6.786364
20
14.437698
42
-0.043614
0
VERTEX
8
1
10
6.712519
20
14.765457
42
-0.062644
0
VERTEX
8
1
10
6.771172
20
15.153870
42
-0.033499
0
VERTEX
8
1
10
6.788960
20
15.191444
0
VERTEX
8
1
10
6.811173
20
15.202888
42
-0.006431
0
VERTEX
8
1
10
7.067733
20
15.273545
42
-0.002099
0
VERTEX
8
1
10
7.029469
20
15.426540
0
VERTEX
8
1
10
6.967621
20
15.419579
42
-0.014964
0
VERTEX
8
1
10
6.193542
20
15.301292
0
VERTEX
8
1
10
6.145905
20
15.292442
42
-0.067779
0
VERTEX
8
1
10
6.200778
20
14.720528
42
-0.072405
0
VERTEX
8
1
10
6.033156
20
13.606878
42
-0.081037
0
VERTEX
8
1
10
5.928485
20
13.421415
42
-0.410675
0
VERTEX
8
1
10
5.735199
20
13.424957
42
-0.204681
0
VERTEX
8
1
10
5.574861
20
13.828713
42
-0.085671
0
VERTEX
8
1
10
5.650287
20
14.342248
42
-0.053594
0
VERTEX
8
1
10
5.906979
20
14.972221
0
VERTEX
8
1
10
5.967985
20
15.087921
42
-0.113026
0
VERTEX
8
1
10
5.004048
20
15.258824
42
-0.025527
0
VERTEX
8
1
10
4.918770
20
15.307083
0
VERTEX
8
1
10
4.843775
20
14.938927
42
0.172335
0
VERTEX
8
1
10
5.291634
20
14.915520
0
VERTEX
8
1
10
5.255026
20
14.864365
42
0.082324
0
VERTEX
8
1
10
4.874866
20
14.213075
42
0.075275
0
VERTEX
8
1
10
4.818773
20
13.890579
0
VERTEX
8
1
10
4.826296
20
13.786118
0
VERTEX
8
1
10
4.848139
20
13.688148
0
VERTEX
8
1
10
4.884308
20
13.596680
0
VERTEX
8
1
10
4.934799
20
13.511719
0
VERTEX
8
1
10
4.999613
20
13.433243
0
VERTEX
8
1
10
5.078749
20
13.361275
42
0.086056
0
VERTEX
8
1
10
5.462837
20
13.163362
42
0.077204
0
VERTEX
8
1
10
6.077966
20
13.048222
42
0.086414
0
VERTEX
8
1
10
6.330730
20
13.099449
0
VERTEX
8
1
10
6.312915
20
13.009635
42
0.033630
0
VERTEX
8
1
10
5.846353
20
10.857985
0
VERTEX
8
1
10
5.805074
20
10.588729
42
0.004981
0
VERTEX
8
1
10
5.787454
20
8.896774
0
VERTEX
8
1
10
5.778980
20
8.782692
42
0.128252
0
VERTEX
8
1
10
5.519640
20
8.570980
42
0.373634
0
VERTEX
8
1
10
5.559736
20
8.315231
42
0.159073
0
VERTEX
8
1
10
5.774307
20
8.203995
0
VERTEX
8
1
10
5.787771
20
8.191414
0
VERTEX
8
1
10
5.788782
20
7.946327
42
-0.125001
0
VERTEX
8
1
10
5.474849
20
7.986631
42
-0.205545
0
VERTEX
8
1
10
5.267366
20
8.230949
42
-0.055553
0
VERTEX
8
1
10
5.234537
20
8.362679
0
VERTEX
8
1
10
5.223494
20
8.456100
0
VERTEX
8
1
10
5.219610
20
8.558891
42
-0.060182
0
VERTEX
8
1
10
5.320866
20
9.218018
42
-0.050433
0
VERTEX
8
1
10
5.533618
20
9.838039
42
-0.003333
0
VERTEX
8
1
10
4.301315
20
9.961426
42
0.118677
0
VERTEX
8
1
10
4.312975
20
9.790555
42
0.233296
0
VERTEX
8
1
10
4.340229
20
9.771797
42
-0.033479
0
VERTEX
8
1
10
4.525752
20
9.733586
42
-0.319550
0
VERTEX
8
1
10
4.597633
20
9.605118
42
0.048030
0
VERTEX
8
1
10
4.652216
20
8.392989
42
0.046598
0
VERTEX
8
1
10
4.776625
20
7.934494
0
VERTEX
8
1
10
4.767925
20
7.928864
42
0.189243
0
VERTEX
8
1
10
4.455206
20
7.894455
0
VERTEX
8
1
10
4.454844
20
7.887634
0
VERTEX
8
1
10
4.514933
20
7.551132
42
-0.134738
0
VERTEX
8
1
10
4.678205
20
7.650558
0
VERTEX
8
1
10
4.734888
20
7.667137
42
-0.058789
0
VERTEX
8
1
10
5.227549
20
7.714035
42
-0.022505
0
VERTEX
8
1
10
5.759541
20
7.690369
0
VERTEX
8
1
10
5.790913
20
7.612199
42
0.005026
0
VERTEX
8
1
10
5.833403
20
5.174705
0
VERTEX
8
1
10
5.823830
20
5.141518
42
0.123030
0
VERTEX
8
1
10
5.332878
20
4.921503
42
0.117676
0
VERTEX
8
1
10
5.228162
20
4.768970
42
0.292138
0
VERTEX
8
1
10
5.292711
20
4.568665
42
0.237752
0
VERTEX
8
1
10
5.665140
20
4.454701
42
0.069599
0
VERTEX
8
1
10
5.850603
20
4.500824
0
VERTEX
8
1
10
5.854816
20
4.486122
0
VERTEX
8
1
10
5.861698
20
4.291916
0
VERTEX
8
1
10
5.852631
20
4.274292
42
-0.120540
0
VERTEX
8
1
10
5.359867
20
4.200790
0
VERTEX
8
1
10
5.286943
20
4.213188
42
-0.225028
0
VERTEX
8
1
10
5.029760
20
4.415855
0
VERTEX
8
1
10
4.999807
20
4.484520
42
-0.102876
0
VERTEX
8
1
10
4.955469
20
4.905653
42
-0.050725
0
VERTEX
8
1
10
5.054701
20
5.481453
42
-0.045612
0
VERTEX
8
1
10
5.252371
20
6.065909
0
VERTEX
8
1
10
5.202939
20
6.100851
42
-0.008229
0
VERTEX
8
1
10
4.034626
20
6.217865
42
0.149257
0
VERTEX
8
1
10
4.049541
20
6.038331
42
0.118411
0
VERTEX
8
1
10
4.063533
20
6.028282
42
-0.011349
0
VERTEX
8
1
10
4.246213
20
5.993719
42
-0.327041
0
VERTEX
8
1
10
4.329236
20
5.869317
42
0.025638
0
VERTEX
8
1
10
4.342734
20
4.967562
42
0.057009
0
VERTEX
8
1
10
4.492182
20
4.227228
0
VERTEX
8
1
10
4.508011
20
4.181908
42
0.185390
0
VERTEX
8
1
10
4.194534
20
4.153822
0
VERTEX
8
1
10
4.185522
20
4.147804
0
VERTEX
8
1
10
4.246992
20
3.803574
42
-0.137122
0
VERTEX
8
1
10
4.377365
20
3.893410
0
VERTEX
8
1
10
4.429392
20
3.911598
42
-0.065835
0
VERTEX
8
1
10
4.894136
20
3.968117
42
-0.038767
0
VERTEX
8
1
10
5.854793
20
3.903374
0
VERTEX
8
1
10
5.880201
20
3.816690
42
0.002980
0
VERTEX
8
1
10
5.939247
20
2.585846
42
-0.029392
0
VERTEX
8
1
10
5.539820
20
2.516312
0
VERTEX
8
1
10
5.511581
20
2.499069
42
-0.059034
0
VERTEX
8
1
10
5.331810
20
1.607048
42
-0.062889
0
VERTEX
8
1
10
5.007380
20
0.836029
42
-0.025695
0
VERTEX
8
1
10
4.946629
20
0.752876
42
0.014826
0
VERTEX
8
1
10
4.792145
20
0.819916
42
-0.006978
0
VERTEX
8
1
10
4.629249
20
0.597633
0
VERTEX
8
1
10
4.660391
20
0.588890
42
-0.039067
0
VERTEX
8
1
10
5.650898
20
0.333611
0
VERTEX
8
1
10
5.668421
20
0.345146
42
-0.032779
0
VERTEX
8
1
10
5.690742
20
0.625801
0
VERTEX
8
1
10
5.684376
20
0.651588
42
-0.028220
0
VERTEX
8
1
10
5.281429
20
0.685623
0
VERTEX
8
1
10
5.285519
20
0.701981
42
0.057715
0
VERTEX
8
1
10
5.479439
20
1.170048
42
0.008270
0
VERTEX
8
1
10
5.523125
20
1.314133
0
VERTEX
8
1
10
5.579431
20
1.317787
42
0.002966
0
VERTEX
8
1
10
6.195195
20
1.251831
0
VERTEX
8
1
10
6.231106
20
1.244713
42
-0.070676
0
VERTEX
8
1
10
6.271877
20
0.793533
42
-0.028925
0
VERTEX
8
1
10
6.243174
20
0.421982
0
VERTEX
8
1
10
6.246979
20
0.388161
42
-0.061826
0
VERTEX
8
1
10
7.192642
20
0.439003
0
VERTEX
8
1
10
7.228022
20
0.440971
42
0.004877
0
VERTEX
8
1
10
7.360039
20
0.675827
0
VERTEX
8
1
10
7.352631
20
0.683601
0
VERTEX
8
1
10
7.184765
20
0.721718
42
-0.212605
0
VERTEX
8
1
10
7.019054
20
0.831562
42
-0.056378
0
VERTEX
8
1
10
7.007725
20
0.864998
0
VERTEX
8
1
10
6.858997
20
1.294846
0
VERTEX
8
1
10
6.856758
20
1.325737
42
0.055204
0
VERTEX
8
1
10
7.747933
20
1.129233
42
0.024079
0
VERTEX
8
1
10
8.642178
20
1.058609
0
VERTEX
8
1
10
8.747162
20
1.030167
42
0.043551
0
VERTEX
8
1
10
8.860489
20
0.628075
42
0.193737
0
VERTEX
8
1
10
8.535679
20
0.594894
0
VERTEX
8
1
10
8.597073
20
0.251083
42
-0.127483
0
VERTEX
8
1
10
8.719540
20
0.336739
0
VERTEX
8
1
10
8.770348
20
0.355347
0
VERTEX
8
1
10
8.828415
20
0.371445
42
-0.060281
0
VERTEX
8
1
10
9.347131
20
0.414137
42
-0.034393
0
VERTEX
8
1
10
10.298428
20
0.338310
42
0.245227
0
VERTEX
8
1
10
10.321175
20
0.353165
0
VERTEX
8
1
10
10.336411
20
0.378120
42
0.134829
0
VERTEX
8
1
10
10.590500
20
1.067116
0
VERTEX
8
1
10
10.597572
20
1.080147
0
VERTEX
8
1
10
10.708996
20
1.087677
0
VERTEX
8
1
10
10.719551
20
1.086273
42
0.212184
0
VERTEX
8
1
10
10.956562
20
0.565865
42
0.281150
0
VERTEX
8
1
10
12.009392
20
0.322205
42
0.229423
0
VERTEX
8
1
10
12.519961
20
0.883197
42
0.098062
0
VERTEX
8
1
10
12.597294
20
1.517578
42
0.104430
0
VERTEX
8
1
10
12.880913
20
1.793358
42
-0.027760
0
VERTEX
8
1
10
13.127502
20
1.823318
0
VERTEX
8
1
10
13.120064
20
1.781715
42
0.081768
0
VERTEX
8
1
10
12.927567
20
1.011502
42
0.098629
0
VERTEX
8
1
10
12.981917
20
0.662100
42
0.254097
0
VERTEX
8
1
10
13.301155
20
0.419150
42
0.075730
0
VERTEX
8
1
10
13.677071
20
0.392937
42
0.073060
0
VERTEX
8
1
10
14.338266
20
0.503752
42
0.125047
0
VERTEX
8
1
10
14.685410
20
0.740944
42
0.136650
0
VERTEX
8
1
10
14.804740
20
1.024379
42
0.285017
0
VERTEX
8
1
10
14.693877
20
1.208007
42
0.090043
0
VERTEX
8
1
10
14.508174
20
1.286111
42
0.109496
0
VERTEX
8
1
10
13.952115
20
1.323267
42
0.139725
0
VERTEX
8
1
10
13.781305
20
1.229943
42
0.225068
0
VERTEX
8
1
10
13.751998
20
1.101829
42
0.248610
0
VERTEX
8
1
10
13.929585
20
0.848442
42
0.035244
0
VERTEX
8
1
10
14.215233
20
0.736458
42
-0.449873
0
VERTEX
8
1
10
14.214428
20
0.694214
42
-0.120359
0
VERTEX
8
1
10
14.166352
20
0.656269
42
-0.134664
0
VERTEX
8
1
10
13.800620
20
0.547601
42
-0.294454
0
VERTEX
8
1
10
13.656252
20
0.662820
42
-0.086420
0
VERTEX
8
1
10
13.608925
20
0.838921
0
VERTEX
8
1
10
13.601959
20
0.908194
42
-0.079429
0
VERTEX
8
1
10
13.705361
20
1.787364
0
VERTEX
8
1
10
13.709957
20
1.794945
0
VERTEX
8
1
10
13.738777
20
1.797768
42
-0.017563
0
VERTEX
8
1
10
14.153545
20
1.793472
42
-0.221750
0
VERTEX
8
1
10
14.252831
20
1.694717
42
0.034520
0
VERTEX
8
1
10
14.339287
20
1.516609
42
0.293677
0
VERTEX
8
1
10
14.401295
20
1.502159
42
0.067700
0
VERTEX
8
1
10
14.624168
20
1.590561
0
VERTEX
8
1
10
14.627567
20
1.600052
42
-0.075002
0
VERTEX
8
1
10
14.490486
20
2.062691
42
-0.004655
0
VERTEX
8
1
10
14.499012
20
2.325739
42
0.102916
0
VERTEX
8
1
10
14.473900
20
2.425232
0
VERTEX
8
1
10
14.459915
20
2.424934
42
0.068385
0
VERTEX
8
1
10
14.165276
20
2.298531
0
VERTEX
8
1
10
14.141628
20
2.278564
0
VERTEX
8
1
10
14.157990
20
2.265266
42
-0.339029
0
VERTEX
8
1
10
14.226410
20
2.053093
0
VERTEX
8
1
10
14.220493
20
2.048286
0
VERTEX
8
1
10
14.209461
20
2.043900
42
-0.046875
0
VERTEX
8
1
10
13.879589
20
2.022545
0
VERTEX
8
1
10
13.779819
20
2.022438
0
VERTEX
8
1
10
13.777554
20
2.029846
42
-0.041092
0
VERTEX
8
1
10
14.010243
20
2.451694
42
0.011099
0
VERTEX
8
1
10
14.055187
20
2.533577
42
0.142719
0
VERTEX
8
1
10
14.026234
20
2.533546
42
-0.015756
0
VERTEX
8
1
10
13.079170
20
2.454231
42
0.218447
0
VERTEX
8
1
10
13.076481
20
2.436035
42
-0.045304
0
VERTEX
8
1
10
13.142685
20
2.058891
0
VERTEX
8
1
10
13.133842
20
2.054405
42
-0.014401
0
VERTEX
8
1
10
13.017818
20
2.063751
0
VERTEX
8
1
10
13.011436
20
2.071739
42
0.069271
0
VERTEX
8
1
10
13.054688
20
2.394196
42
0.000235
0
VERTEX
8
1
10
13.053981
20
3.845222
0
VERTEX
8
1
10
13.059147
20
4.025970
42
-0.081480
0
VERTEX
8
1
10
13.178747
20
4.044820
42
-0.103312
0
VERTEX
8
1
10
13.881138
20
3.971530
0
VERTEX
8
1
10
13.930992
20
3.953207
0
VERTEX
8
1
10
13.980141
20
3.933067
0
VERTEX
8
1
10
14.015793
20
3.929161
42
-0.055614
0
VERTEX
8
1
10
13.893234
20
4.409973
42
-0.176115
0
VERTEX
8
1
10
14.166897
20
4.900338
42
-0.179813
0
VERTEX
8
1
10
14.331257
20
4.947279
42
-0.301731
0
VERTEX
8
1
10
14.407719
20
4.867363
42
-0.065565
0
VERTEX
8
1
10
14.435505
20
4.561066
42
-0.107744
0
VERTEX
8
1
10
14.325588
20
3.953690
0
VERTEX
8
1
10
14.325325
20
3.914300
42
-0.001826
0
VERTEX
8
1
10
15.096169
20
3.739382
0
VERTEX
8
1
10
15.114587
20
3.746575
42
-0.003652
0
VERTEX
8
1
10
15.156434
20
3.866180
0
VERTEX
8
1
10
15.155697
20
3.873550
42
-0.046818
0
VERTEX
8
1
10
14.956532
20
3.932205
0
VERTEX
8
1
10
14.946327
20
3.943993
42
-0.092953
0
VERTEX
8
1
10
14.912289
20
4.194130
42
-0.021774
0
VERTEX
8
1
10
14.960571
20
4.817329
42
0.085760
0
VERTEX
8
1
10
14.907436
20
5.442957
42
0.097795
0
VERTEX
8
1
10
14.806263
20
5.619560
42
0.321796
0
VERTEX
8
1
10
14.551205
20
5.650299
42
0.111740
0
VERTEX
8
1
10
14.244275
20
5.406386
42
0.107909
0
VERTEX
8
1
10
13.858536
20
4.713951
0
VERTEX
8
1
10
13.851349
20
4.701775
42
-0.105183
0
VERTEX
8
1
10
14.081703
20
6.140966
0
VERTEX
8
1
10
14.093690
20
6.184402
42
-0.005857
0
VERTEX
8
1
10
13.060666
20
6.257676
0
VERTEX
8
1
10
13.050096
20
6.335754
42
0.000190
0
VERTEX
8
1
10
13.046047
20
7.729362
42
-0.119199
0
VERTEX
8
1
10
13.450371
20
7.651047
0
VERTEX
8
1
10
13.450367
20
7.726387
0
VERTEX
8
1
10
13.454880
20
7.726814
0
VERTEX
8
1
10
14.060478
20
7.744118
0
VERTEX
8
1
10
14.074684
20
7.742752
42
0.151849
0
VERTEX
8
1
10
14.626480
20
7.604713
42
0.088212
0
VERTEX
8
1
10
15.133622
20
7.684932
42
0.216827
0
VERTEX
8
1
10
15.440914
20
8.023154
42
0.351064
0
VERTEX
8
1
10
15.315163
20
8.289688
0
VERTEX
8
1
10
15.274857
20
8.310364
42
0.148405
0
VERTEX
8
1
10
14.639174
20
8.363847
42
0.162916
0
VERTEX
8
1
10
14.492927
20
8.261059
42
0.212055
0
VERTEX
8
1
10
14.484199
20
8.119448
42
0.206740
0
VERTEX
8
1
10
14.650414
20
7.907493
42
0.096163
0
VERTEX
8
1
10
14.892325
20
7.815729
42
-0.651698
0
VERTEX
8
1
10
14.889744
20
7.793023
42
-0.452175
0
VERTEX
8
1
10
14.322000
20
8.031307
42
-0.111537
0
VERTEX
8
1
10
14.281322
20
8.584578
42
-0.060636
0
VERTEX
8
1
10
14.295784
20
8.623055
0
VERTEX
8
1
10
14.301018
20
8.625076
0
VERTEX
8
1
10
14.308111
20
8.624528
42
-0.010598
0
VERTEX
8
1
10
15.568834
20
8.413848
42
0.169074
0
VERTEX
8
1
10
15.570839
20
8.419670
42
0.097490
0
VERTEX
8
1
10
15.526886
20
8.921590
42
0.217805
0
VERTEX
8
1
10
15.242547
20
9.201150
42
0.087099
0
VERTEX
8
1
10
14.931031
20
9.272336
42
0.081145
0
VERTEX
8
1
10
14.147575
20
9.221367
0
VERTEX
8
1
10
14.021828
20
9.180405
0
VERTEX
8
1
10
13.912834
20
9.129189
0
VERTEX
8
1
10
13.820599
20
9.067734
0
VERTEX
8
1
10
13.745106
20
8.996017
0
VERTEX
8
1
10
13.686367
20
8.914055
0
VERTEX
8
1
10
13.644382
20
8.821838
0
VERTEX
8
1
10
13.619144
20
8.719383
42
0.235878
0
VERTEX
8
1
10
13.928734
20
7.858185
42
-0.009466
0
VERTEX
8
1
10
13.450363
20
7.834511
0
VERTEX
8
1
10
13.450367
20
8.016815
42
0.213383
0
VERTEX
8
1
10
13.116547
20
7.993744
42
0.104307
0
VERTEX
8
1
10
13.387339
20
9.073976
42
0.071703
0
VERTEX
8
1
10
13.314527
20
9.937549
0
VERTEX
8
1
10
13.298836
20
9.995911
42
0.009765
0
SEQEND
0
POLYLINE
8
1
66
1
70
1
0
VERTEX
8
1
10
13.634056
20
16.931053
0
VERTEX
8
1
10
13.647434
20
16.930969
0
VERTEX
8
1
10
13.661022
20
16.926773
42
-0.161393
0
VERTEX
8
1
10
13.740650
20
16.827347
42
-0.153990
0
VERTEX
8
1
10
13.797592
20
16.308777
42
-0.148142
0
VERTEX
8
1
10
13.749084
20
16.244738
42
-0.323697
0
VERTEX
8
1
10
13.692169
20
16.259651
42
-0.130613
0
VERTEX
8
1
10
13.594471
20
16.450218
42
-0.116688
0
VERTEX
8
1
10
13.572089
20
16.847166
42
-0.112987
0
VERTEX
8
1
10
13.609604
20
16.918892
0
VERTEX
8
1
10
13.621315
20
16.926956
0
SEQEND
0
POLYLINE
8
1
66
1
70
1
0
VERTEX
8
1
10
13.454353
20
15.740974
42
-0.561890
0
VERTEX
8
1
10
13.200331
20
15.556278
42
-0.727702
0
VERTEX
8
1
10
13.206412
20
15.869164
42
-0.461739
0
SEQEND
0
POLYLINE
8
1
66
1
70
1
0
VERTEX
8
1
10
13.199875
20
16.363022
42
0.122935
0
VERTEX
8
1
10
13.060364
20
16.342361
0
VERTEX
8
1
10
13.057404
20
16.345985
42
0.084858
0
VERTEX
8
1
10
13.115673
20
16.590637
42
0.087523
0
VERTEX
8
1
10
13.202850
20
16.367775
0
SEQEND
0
POLYLINE
8
1
66
1
70
1
0
VERTEX
8
1
10
13.527939
20
18.168762
42
-0.229520
0
VERTEX
8
1
10
13.564053
20
18.156036
42
-0.143666
0
VERTEX
8
1
10
13.646915
20
17.983383
42
-0.132419
0
VERTEX
8
1
10
13.648338
20
17.704491
0
VERTEX
8
1
10
13.640948
20
17.688171
42
-0.621139
0
VERTEX
8
1
10
13.564014
20
17.676392
0
VERTEX
8
1
10
13.552082
20
17.689735
42
-0.193163
0
VERTEX
8
1
10
13.484065
20
18.119749
42
-0.124097
0
VERTEX
8
1
10
13.516659
20
18.164917
0
SEQEND
0
POLYLINE
8
1
66
1
70
1
0
VERTEX
8
1
10
5.757874
20
21.705864
42
-0.058720
0
VERTEX
8
1
10
5.822973
20
21.627975
0
VERTEX
8
1
10
5.814896
20
21.620247
42
0.105170
0
VERTEX
8
1
10
5.339300
20
21.482277
42
-0.084332
0
VERTEX
8
1
10
5.228346
20
21.899399
0
VERTEX
8
1
10
5.235056
20
21.912430
42
-0.124360
0
VERTEX
8
1
10
5.373337
20
21.889687
42
-0.205514
0
VERTEX
8
1
10
5.637897
20
21.798325
42
-0.030881
0
VERTEX
8
1
10
5.703028
20
21.741783
42
-0.029146
0
SEQEND
0
POLYLINE
8
1
66
1
70
1
0
VERTEX
8
1
10
6.215675
20
20.742714
0
VERTEX
8
1
10
6.215630
20
20.743134
0
VERTEX
8
1
10
6.215288
20
20.743385
0
VERTEX
8
1
10
6.210806
20
20.742317
42
-0.117745
0
VERTEX
8
1
10
5.841329
20
20.889330
42
-0.087786
0
VERTEX
8
1
10
5.513801
20
21.191689
42
-0.187102
0
VERTEX
8
1
10
5.780663
20
21.416903
0
VERTEX
8
1
10
5.809126
20
21.413977
42
-0.228730
0
VERTEX
8
1
10
6.280918
20
21.067204
42
-0.231024
0
VERTEX
8
1
10
6.274326
20
20.800262
42
-0.106021
0
SEQEND
0
POLYLINE
8
1
66
1
70
1
0
VERTEX
8
1
10
4.719713
20
22.083534
42
0.036731
0
VERTEX
8
1
10
5.026098
20
22.245117
42
-0.101329
0
VERTEX
8
1
10
5.122936
20
22.324745
42
-0.123082
0
VERTEX
8
1
10
5.230333
20
22.334831
42
0.081757
0
VERTEX
8
1
10
5.310959
20
22.365250
42
-0.075089
0
VERTEX
8
1
10
5.448137
20
22.369583
42
0.066016
0
VERTEX
8
1
10
5.596590
20
22.399879
42
-0.155777
0
VERTEX
8
1
10
5.753722
20
22.380653
42
0.121933
0
VERTEX
8
1
10
5.912275
20
22.376770
42
-0.200506
0
VERTEX
8
1
10
6.008544
20
22.349068
42
0.291519
0
VERTEX
8
1
10
6.016792
20
22.416847
42
0.106306
0
VERTEX
8
1
10
5.882717
20
22.569595
0
VERTEX
8
1
10
5.871332
20
22.581055
42
0.276858
0
VERTEX
8
1
10
5.733049
20
22.641899
42
-0.217633
0
VERTEX
8
1
10
5.671564
20
22.665428
0
VERTEX
8
1
10
5.670431
20
22.679146
42
-0.078583
0
VERTEX
8
1
10
5.991221
20
23.019865
42
-0.056118
0
VERTEX
8
1
10
6.032461
20
23.037292
42
0.068416
0
VERTEX
8
1
10
5.862650
20
23.023972
42
-0.159977
0
VERTEX
8
1
10
5.774724
20
23.012024
42
0.100126
0
VERTEX
8
1
10
5.904943
20
23.427246
42
-0.064700
0
VERTEX
8
1
10
5.994951
20
23.713120
42
0.078295
0
VERTEX
8
1
10
6.051620
20
23.808052
42
0.213949
0
VERTEX
8
1
10
6.038857
20
23.861458
0
VERTEX
8
1
10
6.026857
20
23.864304
42
0.070969
0
VERTEX
8
1
10
5.891790
20
23.732872
42
0.210076
0
VERTEX
8
1
10
5.779790
20
23.461401
42
-0.129505
0
VERTEX
8
1
10
5.723135
20
23.318321
42
0.115267
0
VERTEX
8
1
10
5.666014
20
23.150337
42
-0.115590
0
VERTEX
8
1
10
5.597374
20
22.988869
42
0.042363
0
VERTEX
8
1
10
5.552514
20
22.887222
42
-0.198363
0
VERTEX
8
1
10
5.101952
20
22.533110
0
VERTEX
8
1
10
5.062094
20
22.521694
42
-0.138228
0
VERTEX
8
1
10
4.904505
20
22.511177
42
-0.208030
0
VERTEX
8
1
10
4.840784
20
22.581215
42
-0.092509
0
VERTEX
8
1
10
4.761364
20
22.966972
42
-0.067598
0
VERTEX
8
1
10
4.816820
20
23.256767
0
VERTEX
8
1
10
4.855783
20
23.383186
42
0.093625
0
VERTEX
8
1
10
4.940594
20
23.765808
0
VERTEX
8
1
10
4.943327
20
23.825874
42
0.007919
0
VERTEX
8
1
10
4.905256
20
24.032583
0
VERTEX
8
1
10
4.904991
20
24.042824
0
VERTEX
8
1
10
4.889824
20
24.026512
42
0.044093
0
VERTEX
8
1
10
4.745858
20
23.744442
42
-0.044153
0
VERTEX
8
1
10
4.664375
20
23.611343
0
VERTEX
8
1
10
4.659698
20
23.616776
42
0.194659
0
VERTEX
8
1
10
4.646444
20
23.910805
42
-0.023263
0
VERTEX
8
1
10
4.523391
20
24.230143
42
0.070937
0
VERTEX
8
1
10
4.469049
20
24.315155
0
VERTEX
8
1
10
4.449934
20
24.325066
42
0.258075
0
VERTEX
8
1
10
4.399843
20
24.189945
42
0.062990
0
VERTEX
8
1
10
4.424868
20
24.005257
42
-0.014829
0
VERTEX
8
1
10
4.474825
20
23.591644
42
-0.021069
0
VERTEX
8
1
10
4.448563
20
23.351349
42
-0.088919
0
VERTEX
8
1
10
4.413136
20
23.052177
42
-0.024115
0
VERTEX
8
1
10
4.354350
20
22.746410
42
-0.102834
0
VERTEX
8
1
10
4.277147
20
22.614868
42
-0.232683
0
VERTEX
8
1
10
4.060150
20
22.560440
42
-0.256399
0
VERTEX
8
1
10
3.728430
20
22.797318
42
-0.039871
0
VERTEX
8
1
10
3.589439
20
23.154099
42
0.046745
0
VERTEX
8
1
10
3.548491
20
23.342987
42
-0.230289
0
VERTEX
8
1
10
3.524029
20
23.446419
42
0.157584
0
VERTEX
8
1
10
3.496277
20
23.563416
42
-0.103142
0
VERTEX
8
1
10
3.387463
20
23.906994
42
0.216891
0
VERTEX
8
1
10
3.093605
20
24.314522
0
VERTEX
8
1
10
3.071894
20
24.322380
42
-0.034474
0
VERTEX
8
1
10
3.069017
20
24.175873
42
0.063322
0
VERTEX
8
1
10
3.110954
20
23.974678
42
-0.083074
0
VERTEX
8
1
10
3.136887
20
23.686823
42
-0.138105
0
VERTEX
8
1
10
3.108145
20
23.627762
0
VERTEX
8
1
10
3.080999
20
23.641350
42
-0.125500
0
VERTEX
8
1
10
2.952400
20
23.803513
42
0.058079
0
VERTEX
8
1
10
2.783137
20
24.105791
42
0.086785
0
VERTEX
8
1
10
2.580971
20
24.286324
0
VERTEX
8
1
10
2.567387
20
24.274040
42
0.138093
0
VERTEX
8
1
10
2.596416
20
24.138184
42
0.006494
0
VERTEX
8
1
10
2.712694
20
23.900146
0
VERTEX
8
1
10
2.726030
20
23.864479
0
VERTEX
8
1
10
2.734627
20
23.831635
0
VERTEX
8
1
10
2.723735
20
23.821089
42
-0.000323
0
VERTEX
8
1
10
2.329849
20
24.001518
42
0.055584
0
VERTEX
8
1
10
2.129236
20
24.101288
0
VERTEX
8
1
10
2.104370
20
24.106514
0
VERTEX
8
1
10
2.085777
20
24.102592
0
VERTEX
8
1
10
2.102684
20
24.068413
42
0.099965
0
VERTEX
8
1
10
2.304224
20
23.883965
42
-0.034348
0
VERTEX
8
1
10
2.534109
20
23.719917
42
-0.057902
0
VERTEX
8
1
10
2.665329
20
23.532272
42
0.140582
0
VERTEX
8
1
10
2.430490
20
23.418947
42
0.014639
0
VERTEX
8
1
10
2.345915
20
23.350624
0
VERTEX
8
1
10
2.370348
20
23.337357
42
0.069718
0
VERTEX
8
1
10
2.613453
20
23.320030
0
VERTEX
8
1
10
2.654490
20
23.320351
42
-0.159773
0
VERTEX
8
1
10
2.975428
20
23.234116
42
-0.020712
0
VERTEX
8
1
10
3.213755
20
23.074341
0
VERTEX
8
1
10
3.214615
20
23.062500
42
0.096788
0
VERTEX
8
1
10
2.794991
20
22.899055
0
VERTEX
8
1
10
2.786730
20
22.885567
42
-0.032263
0
VERTEX
8
1
10
3.128292
20
22.850021
42
-0.127294
0
VERTEX
8
1
10
3.316870
20
22.751236
42
-0.043713
0
VERTEX
8
1
10
3.617588
20
22.518234
42
-0.038084
0
VERTEX
8
1
10
3.825853
20
22.338907
42
-0.344846
0
VERTEX
8
1
10
3.821378
20
22.143841
42
-0.107274
0
VERTEX
8
1
10
3.688956
20
22.015783
42
-0.100779
0
VERTEX
8
1
10
3.310991
20
21.844368
42
-0.030648
0
VERTEX
8
1
10
3.024590
20
21.784752
42
-0.077226
0
VERTEX
8
1
10
2.757999
20
21.818996
42
0.010351
0
VERTEX
8
1
10
2.666191
20
21.835320
0
VERTEX
8
1
10
2.645102
20
21.832695
42
0.155264
0
VERTEX
8
1
10
2.707016
20
21.763538
42
0.157133
0
VERTEX
8
1
10
3.029835
20
21.664093
42
-0.033952
0
VERTEX
8
1
10
3.056496
20
21.657036
42
-0.192734
0
VERTEX
8
1
10
2.861559
20
21.495621
42
0.055831
0
VERTEX
8
1
10
3.119339
20
21.536209
42
0.032837
0
VERTEX
8
1
10
3.247534
20
21.614882
42
-0.278799
0
VERTEX
8
1
10
3.341908
20
21.609024
0
VERTEX
8
1
10
3.348637
20
21.596436
0
VERTEX
8
1
10
3.345274
20
21.460541
0
VERTEX
8
1
10
3.356749
20
21.452606
42
0.147666
0
VERTEX
8
1
10
3.508730
20
21.488501
42
0.071881
0
VERTEX
8
1
10
3.694868
20
21.608109
42
-0.038252
0
VERTEX
8
1
10
4.038975
20
21.818968
0
VERTEX
8
1
10
4.062673
20
21.826677
42
-0.445575
0
VERTEX
8
1
10
4.213879
20
21.754288
42
-0.082744
0
VERTEX
8
1
10
4.235685
20
21.593163
0
VERTEX
8
1
10
4.236691
20
21.542877
42
-0.208899
0
VERTEX
8
1
10
4.050333
20
21.019789
42
-0.086137
0
VERTEX
8
1
10
3.746992
20
20.762081
42
-0.101764
0
VERTEX
8
1
10
3.543752
20
20.710445
42
0.153046
0
VERTEX
8
1
10
3.436724
20
20.651550
0
VERTEX
8
1
10
3.436102
20
20.635963
42
0.127729
0
VERTEX
8
1
10
3.567928
20
20.606369
42
-0.148486
0
VERTEX
8
1
10
3.657045
20
20.573418
0
VERTEX
8
1
10
3.661182
20
20.557037
42
0.021813
0
VERTEX
8
1
10
3.229141
20
20.209202
42
-0.028506
0
VERTEX
8
1
10
3.151968
20
20.157333
42
0.106532
0
VERTEX
8
1
10
3.527676
20
20.248924
42
0.056484
0
VERTEX
8
1
10
3.784111
20
20.389626
42
-0.075193
0
VERTEX
8
1
10
3.923294
20
20.485525
42
-0.321102
0
VERTEX
8
1
10
4.010035
20
20.452820
42
-0.067678
0
VERTEX
8
1
10
4.110628
20
20.263840
0
VERTEX
8
1
10
4.126184
20
20.274406
0
VERTEX
8
1
10
4.144678
20
20.307358
42
0.100840
0
VERTEX
8
1
10
4.186548
20
20.560486
42
-0.008508
0
VERTEX
8
1
10
4.187073
20
20.774643
0
VERTEX
8
1
10
4.197176
20
20.791389
42
0.017912
0
VERTEX
8
1
10
4.414042
20
20.666643
42
0.030693
0
VERTEX
8
1
10
4.452614
20
20.654800
0
VERTEX
8
1
10
4.463041
20
20.672249
42
-0.055183
0
VERTEX
8
1
10
4.333805
20
21.208132
42
-0.130512
0
VERTEX
8
1
10
4.415401
20
21.649742
42
-0.051921
0
VERTEX
8
1
10
4.566329
20
21.950439
42
-0.108609
0
SEQEND
0
POLYLINE
8
1
66
1
70
1
0
VERTEX
8
1
10
4.741978
20
20.731041
42
0.076281
0
VERTEX
8
1
10
4.694366
20
20.784309
42
-0.144435
0
VERTEX
8
1
10
4.574886
20
20.995911
42
-0.049539
0
VERTEX
8
1
10
4.571699
20
21.147377
42
-0.246423
0
VERTEX
8
1
10
4.704120
20
21.576876
42
-0.008527
0
VERTEX
8
1
10
4.735769
20
21.612907
0
VERTEX
8
1
10
4.743329
20
21.614868
42
0.089974
0
VERTEX
8
1
10
4.958332
20
21.154213
0
VERTEX
8
1
10
4.974799
20
21.126450
42
0.127957
0
VERTEX
8
1
10
4.856880
20
20.627106
42
-0.134561
0
SEQEND
0
POLYLINE
8
1
66
1
70
1
0
VERTEX
8
1
10
4.048618
20
19.871941
0
VERTEX
8
1
10
4.056072
20
19.874420
0
VERTEX
8
1
10
4.054251
20
19.868355
0
SEQEND
0
POLYLINE
8
1
66
1
70
1
0
VERTEX
8
1
10
3.615196
20
19.938774
42
-0.011577
0
VERTEX
8
1
10
3.725586
20
19.969124
42
-0.066322
0
VERTEX
8
1
10
3.967882
20
20.144798
0
VERTEX
8
1
10
3.966257
20
20.139717
0
VERTEX
8
1
10
3.949406
20
20.118561
42
0.067415
0
VERTEX
8
1
10
3.836521
20
19.835724
0
VERTEX
8
1
10
3.831419
20
19.834961
42
0.113666
0
VERTEX
8
1
10
3.713413
20
19.873817
42
-0.072594
0
VERTEX
8
1
10
3.583206
20
19.927338
0
SEQEND
0
POLYLINE
8
1
66
1
70
1
0
VERTEX
8
1
10
3.964575
20
19.763924
42
-0.053034
0
VERTEX
8
1
10
3.933357
20
19.773407
0
VERTEX
8
1
10
3.954576
20
19.799065
42
0.022898
0
SEQEND
0
POLYLINE
8
1
66
1
70
1
0
VERTEX
8
1
10
5.340857
20
17.312447
0
VERTEX
8
1
10
5.323303
20
17.300278
0
VERTEX
8
1
10
5.319872
20
17.286598
42
-0.042152
0
VERTEX
8
1
10
5.599630
20
17.135557
42
-0.080369
0
VERTEX
8
1
10
5.663019
20
17.063904
0
VERTEX
8
1
10
5.660376
20
17.052025
42
0.100720
0
VERTEX
8
1
10
5.470126
20
17.036825
42
0.310100
0
VERTEX
8
1
10
5.440071
20
16.971893
42
0.028905
0
VERTEX
8
1
10
5.466424
20
16.837204
42
-0.083359
0
VERTEX
8
1
10
5.444378
20
16.426453
0
VERTEX
8
1
10
5.431940
20
16.386490
0
VERTEX
8
1
10
5.416836
20
16.349411
0
VERTEX
8
1
10
5.407951
20
16.340378
42
0.062232
0
VERTEX
8
1
10
5.370453
20
16.505402
42
-0.011777
0
VERTEX
8
1
10
5.303493
20
16.815605
0
VERTEX
8
1
10
5.295919
20
16.839592
42
0.219782
0
VERTEX
8
1
10
5.222262
20
16.765217
42
-0.086878
0
VERTEX
8
1
10
5.168825
20
16.702225
0
VERTEX
8
1
10
5.155497
20
16.703979
42
-0.201937
0
VERTEX
8
1
10
5.158076
20
16.829979
42
0.164646
0
VERTEX
8
1
10
5.165361
20
17.090935
42
0.097614
0
VERTEX
8
1
10
5.007082
20
17.432842
42
0.109391
0
VERTEX
8
1
10
4.828436
20
17.569168
0
VERTEX
8
1
10
4.751291
20
17.604836
42
0.148130
0
VERTEX
8
1
10
4.600698
20
17.638470
42
0.352349
0
VERTEX
8
1
10
4.531324
20
17.544853
42
0.024988
0
VERTEX
8
1
10
4.557644
20
17.243950
42
-0.111805
0
VERTEX
8
1
10
4.574209
20
16.967237
42
-0.052145
0
VERTEX
8
1
10
4.557787
20
16.928040
0
VERTEX
8
1
10
4.546843
20
16.920517
0
VERTEX
8
1
10
4.448374
20
16.971367
42
0.361744
0
VERTEX
8
1
10
4.404505
20
16.909134
42
0.012541
0
VERTEX
8
1
10
4.415167
20
16.788223
42
-0.071365
0
VERTEX
8
1
10
4.355313
20
16.592918
42
0.178644
0
VERTEX
8
1
10
4.310219
20
16.778816
0
VERTEX
8
1
10
4.301939
20
16.777512
42
0.004904
0
VERTEX
8
1
10
4.232653
20
16.670502
42
-0.130044
0
VERTEX
8
1
10
4.064688
20
16.551872
0
VERTEX
8
1
10
4.047070
20
16.549942
0
VERTEX
8
1
10
4.040285
20
16.558434
0
VERTEX
8
1
10
4.056980
20
16.583015
42
0.037407
0
VERTEX
8
1
10
4.191814
20
16.774406
0
VERTEX
8
1
10
4.204063
20
16.801231
42
0.086779
0
VERTEX
8
1
10
4.280222
20
17.291323
42
0.088471
0
VERTEX
8
1
10
4.223825
20
17.501341
42
0.228403
0
VERTEX
8
1
10
4.116877
20
17.568886
42
0.097065
0
VERTEX
8
1
10
3.978523
20
17.523918
0
VERTEX
8
1
10
3.905569
20
17.488609
42
0.050905
0
VERTEX
8
1
10
3.616238
20
17.345673
42
0.167802
0
VERTEX
8
1
10
3.447748
20
17.198395
42
0.020638
0
VERTEX
8
1
10
3.342951
20
17.021820
0
VERTEX
8
1
10
3.333351
20
17.020111
42
-0.101292
0
VERTEX
8
1
10
3.361813
20
17.384323
0
VERTEX
8
1
10
3.346445
20
17.381508
42
0.050946
0
VERTEX
8
1
10
3.081385
20
17.212402
42
0.119915
0
VERTEX
8
1
10
2.963333
20
17.024721
42
-0.052896
0
VERTEX
8
1
10
2.874163
20
16.875542
0
VERTEX
8
1
10
2.855156
20
16.863815
42
-0.079430
0
VERTEX
8
1
10
2.824171
20
17.096550
0
VERTEX
8
1
10
2.828188
20
17.120918
0
VERTEX
8
1
10
2.834812
20
17.143867
0
VERTEX
8
1
10
2.827221
20
17.151230
42
0.148914
0
VERTEX
8
1
10
2.549692
20
17.068901
42
-0.049360
0
VERTEX
8
1
10
2.323593
20
16.950935
0
VERTEX
8
1
10
2.286772
20
16.940849
0
VERTEX
8
1
10
2.251511
20
16.936234
0
VERTEX
8
1
10
2.227184
20
16.941177
42
-0.116661
0
VERTEX
8
1
10
2.360235
20
17.057518
0
VERTEX
8
1
10
2.378744
20
17.070095
42
0.002447
0
VERTEX
8
1
10
2.655482
20
17.297865
0
VERTEX
8
1
10
2.637932
20
17.307541
42
0.055871
0
VERTEX
8
1
10
2.422554
20
17.311256
42
-0.057526
0
VERTEX
8
1
10
2.307369
20
17.323463
0
VERTEX
8
1
10
2.281879
20
17.334221
0
VERTEX
8
1
10
2.266220
20
17.349518
0
VERTEX
8
1
10
2.285316
20
17.363770
42
-0.148384
0
VERTEX
8
1
10
2.677620
20
17.448946
42
0.071158
0
VERTEX
8
1
10
2.862490
20
17.468208
0
VERTEX
8
1
10
2.889889
20
17.479424
0
VERTEX
8
1
10
2.914885
20
17.494392
0
VERTEX
8
1
10
2.917912
20
17.509972
42
0.173589
0
VERTEX
8
1
10
2.839942
20
17.567848
42
0.075458
0
VERTEX
8
1
10
2.601427
20
17.636810
42
-0.091156
0
VERTEX
8
1
10
2.426912
20
17.710535
0
VERTEX
8
1
10
2.421155
20
17.712807
0
VERTEX
8
1
10
2.415344
20
17.714935
0
VERTEX
8
1
10
2.427835
20
17.728294
42
-0.249259
0
VERTEX
8
1
10
2.887067
20
17.776648
42
0.086579
0
VERTEX
8
1
10
3.115168
20
17.755854
42
-0.149190
0
VERTEX
8
1
10
3.216154
20
17.722961
42
0.127568
0
VERTEX
8
1
10
3.287264
20
17.715904
42
-0.013533
0
VERTEX
8
1
10
3.445402
20
17.675697
42
0.062839
0
VERTEX
8
1
10
3.794073
20
17.662769
42
0.305209
0
VERTEX
8
1
10
4.052967
20
17.922028
42
0.231363
0
VERTEX
8
1
10
3.993362
20
18.068909
42
0.044806
0
VERTEX
8
1
10
3.787771
20
18.227531
42
0.089806
0
VERTEX
8
1
10
3.577587
20
18.362473
42
-0.004172
0
VERTEX
8
1
10
3.437803
20
18.452965
42
0.036867
0
VERTEX
8
1
10
3.135570
20
18.559990
42
0.004420
0
VERTEX
8
1
10
2.975676
20
18.609980
42
-0.111759
0
VERTEX
8
1
10
2.900322
20
18.668327
0
VERTEX
8
1
10
2.890310
20
18.690636
0
VERTEX
8
1
10
2.897957
20
18.707008
42
-0.104151
0
VERTEX
8
1
10
3.106045
20
18.703667
42
-0.030177
0
VERTEX
8
1
10
3.323977
20
18.683647
42
-0.145168
0
VERTEX
8
1
10
3.475685
20
18.593628
42
0.070318
0
VERTEX
8
1
10
3.334803
20
18.792946
42
-0.043939
0
VERTEX
8
1
10
3.253363
20
18.907722
0
VERTEX
8
1
10
3.247601
20
18.924301
42
0.042916
0
VERTEX
8
1
10
3.382265
20
18.888748
42
-0.082636
0
VERTEX
8
1
10
3.521776
20
18.813927
42
-0.090178
0
VERTEX
8
1
10
3.678631
20
18.681877
42
0.053837
0
VERTEX
8
1
10
3.932014
20
18.468056
42
0.120935
0
VERTEX
8
1
10
4.290726
20
18.373325
42
0.293205
0
VERTEX
8
1
10
4.363220
20
18.434509
42
0.204005
0
VERTEX
8
1
10
4.322589
20
18.940445
0
VERTEX
8
1
10
4.305212
20
18.967751
42
-0.028479
0
VERTEX
8
1
10
4.197186
20
19.110283
42
0.035790
0
VERTEX
8
1
10
4.084095
20
19.206566
0
VERTEX
8
1
10
4.073168
20
19.217880
42
0.039605
0
VERTEX
8
1
10
3.996511
20
19.320625
42
-0.011134
0
VERTEX
8
1
10
3.875244
20
19.410339
42
-0.125488
0
VERTEX
8
1
10
3.805994
20
19.526413
42
-0.076169
0
VERTEX
8
1
10
3.761583
20
19.659431
0
VERTEX
8
1
10
3.765696
20
19.669685
42
-0.374596
0
VERTEX
8
1
10
3.834475
20
19.629845
42
0.113351
0
VERTEX
8
1
10
3.933285
20
19.505424
42
0.014359
0
VERTEX
8
1
10
4.151926
20
19.332512
42
-0.070360
0
VERTEX
8
1
10
4.282011
20
19.188721
0
VERTEX
8
1
10
4.286411
20
19.193573
42
0.060506
0
VERTEX
8
1
10
4.309971
20
19.285744
42
-0.017917
0
VERTEX
8
1
10
4.352316
20
19.380661
42
0.124840
0
VERTEX
8
1
10
4.366942
20
19.267715
42
0.061306
0
VERTEX
8
1
10
4.487165
20
18.993263
42
0.283255
0
VERTEX
8
1
10
4.537008
20
19.046349
42
-0.245562
0
VERTEX
8
1
10
4.618950
20
19.107033
42
-0.041844
0
VERTEX
8
1
10
4.772011
20
19.155815
42
-0.257018
0
VERTEX
8
1
10
4.836189
20
19.126579
42
0.234793
0
VERTEX
8
1
10
4.769527
20
19.033569
42
-0.107598
0
VERTEX
8
1
10
4.688517
20
18.915199
42
0.152200
0
VERTEX
8
1
10
4.645187
20
18.793472
42
-0.101156
0
VERTEX
8
1
10
4.596878
20
18.678246
42
0.128541
0
VERTEX
8
1
10
4.578857
20
18.576462
0
VERTEX
8
1
10
4.567825
20
18.556438
42
0.274193
0
VERTEX
8
1
10
4.568601
20
18.390047
42
-0.000406
0
VERTEX
8
1
10
4.595403
20
18.166525
0
VERTEX
8
1
10
4.600420
20
18.154778
0
VERTEX
8
1
10
4.607058
20
18.143860
0
VERTEX
8
1
10
4.615145
20
18.147835
42
0.195542
0
VERTEX
8
1
10
4.620993
20
17.988213
0
VERTEX
8
1
10
4.638474
20
17.949562
42
0.072410
0
VERTEX
8
1
10
4.868177
20
17.657364
42
0.130753
0
VERTEX
8
1
10
5.236042
20
17.488583
42
0.028542
0
VERTEX
8
1
10
5.511499
20
17.441986
42
-0.103363
0
SEQEND
0
POLYLINE
8
1
66
1
70
1
0
VERTEX
8
1
10
5.182775
20
18.711700
42
-0.106368
0
VERTEX
8
1
10
5.316498
20
18.749138
42
-0.119621
0
VERTEX
8
1
10
5.428956
20
18.752857
42
0.290359
0
VERTEX
8
1
10
5.478787
20
18.784645
42
0.194446
0
VERTEX
8
1
10
5.447563
20
18.850021
42
0.273454
0
VERTEX
8
1
10
5.375654
20
18.915398
42
0.115077
0
VERTEX
8
1
10
5.301102
20
18.930611
0
VERTEX
8
1
10
5.295822
20
18.933914
42
0.084933
0
VERTEX
8
1
10
5.344545
20
19.004379
42
0.161884
0
VERTEX
8
1
10
5.370419
20
19.055069
42
0.506128
0
VERTEX
8
1
10
5.353241
20
19.061462
42
-0.058055
0
VERTEX
8
1
10
5.256060
20
19.038795
0
VERTEX
8
1
10
5.251790
20
19.042168
42
-0.151492
0
VERTEX
8
1
10
5.265816
20
19.089523
42
0.013098
0
VERTEX
8
1
10
5.296815
20
19.243483
42
0.529897
0
VERTEX
8
1
10
5.272579
20
19.249931
42
0.125591
0
VERTEX
8
1
10
5.211186
20
19.195549
42
-0.002979
0
VERTEX
8
1
10
5.165092
20
19.168312
42
-0.843665
0
VERTEX
8
1
10
5.132421
20
19.169647
42
-0.081651
0
VERTEX
8
1
10
5.089396
20
19.413704
42
0.032063
0
VERTEX
8
1
10
5.048882
20
19.713264
0
VERTEX
8
1
10
5.043180
20
19.728951
0
VERTEX
8
1
10
5.035507
20
19.743675
42
0.055295
0
VERTEX
8
1
10
4.948517
20
19.635963
42
0.122057
0
VERTEX
8
1
10
4.946560
20
19.563057
0
VERTEX
8
1
10
4.946356
20
19.550468
0
VERTEX
8
1
10
4.934704
20
19.553825
42
-0.130094
0
VERTEX
8
1
10
4.883245
20
19.677876
42
0.147687
0
VERTEX
8
1
10
4.834885
20
19.753609
0
VERTEX
8
1
10
4.828426
20
19.748367
0
VERTEX
8
1
10
4.823044
20
19.739822
42
0.108824
0
VERTEX
8
1
10
4.792301
20
19.395287
0
VERTEX
8
1
10
4.798244
20
19.375916
0
VERTEX
8
1
10
4.794500
20
19.378227
42
-0.060538
0
VERTEX
8
1
10
4.672617
20
19.583092
42
-0.047057
0
VERTEX
8
1
10
4.523458
20
19.713257
0
VERTEX
8
1
10
4.519726
20
19.713768
0
VERTEX
8
1
10
4.516872
20
19.708176
0
VERTEX
8
1
10
4.515102
20
19.701477
42
-0.016768
0
VERTEX
8
1
10
4.512865
20
19.595375
0
VERTEX
8
1
10
4.515244
20
19.586952
0
VERTEX
8
1
10
4.517159
20
19.582962
42
-0.098274
0
VERTEX
8
1
10
4.341940
20
19.814705
42
0.081998
0
VERTEX
8
1
10
4.269510
20
19.906723
0
VERTEX
8
1
10
4.265806
20
19.914421
42
0.024882
0
VERTEX
8
1
10
4.349953
20
20.069069
42
-0.070131
0
VERTEX
8
1
10
4.471585
20
20.222408
42
-0.612385
0
VERTEX
8
1
10
4.498820
20
20.200058
42
0.171883
0
VERTEX
8
1
10
4.518394
20
20.174404
42
-0.160905
0
VERTEX
8
1
10
4.552740
20
20.096954
42
0.204476
0
VERTEX
8
1
10
4.600891
20
20.039848
0
VERTEX
8
1
10
4.609657
20
20.041626
0
VERTEX
8
1
10
4.616736
20
20.050163
42
0.009988
0
VERTEX
8
1
10
4.655794
20
20.246880
42
-0.110190
0
VERTEX
8
1
10
4.662184
20
20.300827
0
VERTEX
8
1
10
4.667913
20
20.304672
42
-0.040399
0
VERTEX
8
1
10
4.780608
20
20.222132
42
0.514474
0
VERTEX
8
1
10
4.796208
20
20.233681
42
0.092255
0
VERTEX
8
1
10
4.786106
20
20.315407
42
0.111168
0
VERTEX
8
1
10
4.766947
20
20.404686
42
-0.278859
0
VERTEX
8
1
10
4.796022
20
20.398218
42
0.110417
0
VERTEX
8
1
10
4.886375
20
20.386162
42
0.075983
0
VERTEX
8
1
10
5.085094
20
19.919563
0
VERTEX
8
1
10
5.162634
20
19.800301
42
0.083965
0
VERTEX
8
1
10
5.970829
20
19.008232
0
VERTEX
8
1
10
6.024706
20
18.964951
42
0.092099
0
VERTEX
8
1
10
5.952374
20
18.491096
0
VERTEX
8
1
10
5.869347
20
18.499931
0
VERTEX
8
1
10
5.761831
20
18.514305
0
VERTEX
8
1
10
5.653055
20
18.521957
42
0.069313
0
VERTEX
8
1
10
4.893892
20
18.431099
0
VERTEX
8
1
10
4.881343
20
18.431808
42
-0.117013
0
VERTEX
8
1
10
4.941498
20
18.513229
42
-0.220447
0
VERTEX
8
1
10
5.113220
20
18.677206
42
0.024110
0
SEQEND
0
POLYLINE
8
1
66
1
70
1
0
VERTEX
8
1
10
12.287094
20
5.418655
42
-0.095132
0
VERTEX
8
1
10
12.303145
20
5.306441
42
-0.604932
0
VERTEX
8
1
10
12.290806
20
5.309296
42
0.124066
0
VERTEX
8
1
10
11.964130
20
5.457207
42
0.080107
0
VERTEX
8
1
10
11.423105
20
5.493226
42
0.167135
0
VERTEX
8
1
10
11.211168
20
5.382738
42
0.163916
0
VERTEX
8
1
10
11.146477
20
5.205765
42
0.065068
0
VERTEX
8
1
10
11.175484
20
4.854942
42
0.210045
0
VERTEX
8
1
10
11.461196
20
4.369832
42
0.157081
0
VERTEX
8
1
10
11.801487
20
4.279922
42
0.136969
0
VERTEX
8
1
10
12.265658
20
4.398885
42
0.124599
0
VERTEX
8
1
10
12.358761
20
4.506645
42
-0.065027
0
VERTEX
8
1
10
12.343494
20
4.125061
0
VERTEX
8
1
10
12.336388
20
4.108465
42
-0.002904
0
VERTEX
8
1
10
11.887196
20
4.098335
42
0.139453
0
VERTEX
8
1
10
11.605951
20
4.180315
42
0.119625
0
VERTEX
8
1
10
11.011887
20
4.083983
42
-0.000552
0
VERTEX
8
1
10
10.528004
20
4.078284
0
VERTEX
8
1
10
10.508877
20
4.080772
42
-0.097134
0
VERTEX
8
1
10
10.899620
20
4.162209
0
VERTEX
8
1
10
10.880589
20
4.385201
0
VERTEX
8
1
10
10.877724
20
4.387604
42
0.183452
0
VERTEX
8
1
10
10.554413
20
4.374420
42
-0.040503
0
VERTEX
8
1
10
10.642590
20
5.331551
42
-0.302812
0
VERTEX
8
1
10
10.712612
20
5.376556
42
-0.083912
0
VERTEX
8
1
10
10.959560
20
5.357445
0
VERTEX
8
1
10
10.967225
20
5.371663
42
0.073569
0
VERTEX
8
1
10
10.979069
20
5.487617
0
VERTEX
8
1
10
10.945330
20
5.504815
42
-0.003960
0
VERTEX
8
1
10
10.208914
20
5.663651
0
VERTEX
8
1
10
10.198139
20
5.663109
42
-0.100456
0
VERTEX
8
1
10
9.933599
20
4.495338
42
-0.055538
0
VERTEX
8
1
10
9.793691
20
4.281472
42
-0.453451
0
VERTEX
8
1
10
9.589458
20
4.289813
0
VERTEX
8
1
10
9.578659
20
4.303588
42
-0.192942
0
VERTEX
8
1
10
9.545154
20
4.589789
42
-0.079098
0
VERTEX
8
1
10
9.706637
20
5.039013
42
-0.049832
0
VERTEX
8
1
10
9.950714
20
5.421272
0
VERTEX
8
1
10
9.937614
20
5.435272
42
-0.033311
0
VERTEX
8
1
10
8.884216
20
5.448112
0
VERTEX
8
1
10
8.856190
20
5.436852
42
-0.003208
0
VERTEX
8
1
10
8.754009
20
5.229973
0
VERTEX
8
1
10
8.770641
20
5.229149
42
-0.029453
0
VERTEX
8
1
10
9.364147
20
5.244270
42
0.143206
0
VERTEX
8
1
10
8.841671
20
4.524333
42
0.108158
0
VERTEX
8
1
10
8.814258
20
4.163251
42
0.074567
0
VERTEX
8
1
10
8.851688
20
4.069466
0
VERTEX
8
1
10
8.846741
20
4.065033
0
VERTEX
8
1
10
8.671806
20
4.064140
0
VERTEX
8
1
10
8.666889
20
4.065598
0
VERTEX
8
1
10
8.636513
20
4.362839
42
0.190630
0
VERTEX
8
1
10
8.303638
20
4.324852
0
VERTEX
8
1
10
8.309044
20
4.347580
42
0.098826
0
VERTEX
8
1
10
8.406714
20
5.201873
42
-0.006041
0
VERTEX
8
1
10
8.404007
20
5.348099
42
-0.205999
0
VERTEX
8
1
10
8.468895
20
5.409698
42
-0.034300
0
VERTEX
8
1
10
8.606487
20
5.467911
42
0.158394
0
VERTEX
8
1
10
8.620605
20
5.525398
42
0.081168
0
VERTEX
8
1
10
8.597569
20
5.724915
42
-0.038030
0
VERTEX
8
1
10
7.786957
20
5.549591
0
VERTEX
8
1
10
7.687042
20
5.533943
0
VERTEX
8
1
10
7.670502
20
5.522049
42
-0.106804
0
VERTEX
8
1
10
7.799400
20
5.122993
0
VERTEX
8
1
10
7.722008
20
5.191406
42
0.180919
0
VERTEX
8
1
10
7.115302
20
5.437278
42
0.279574
0
VERTEX
8
1
10
6.524026
20
5.069166
42
0.106565
0
VERTEX
8
1
10
6.383677
20
4.621475
42
0.104238
0
VERTEX
8
1
10
6.399739
20
4.192646
42
0.087303
0
VERTEX
8
1
10
6.469774
20
4.065933
0
VERTEX
8
1
10
6.447382
20
4.063637
42
-0.007273
0
VERTEX
8
1
10
6.169773
20
4.068947
0
VERTEX
8
1
10
6.167871
20
4.079910
0
VERTEX
8
1
10
6.161358
20
4.260887
0
VERTEX
8
1
10
6.162533
20
4.265999
42
0.136403
0
VERTEX
8
1
10
6.223214
20
4.930164
42
0.126187
0
VERTEX
8
1
10
6.135590
20
5.088013
0
VERTEX
8
1
10
6.129373
20
5.246122
42
-0.002568
0
VERTEX
8
1
10
6.071027
20
7.602239
0
VERTEX
8
1
10
6.248116
20
7.609734
0
VERTEX
8
1
10
6.524183
20
7.605797
0
VERTEX
8
1
10
6.874203
20
7.604037
42
0.003665
0
VERTEX
8
1
10
12.546087
20
7.661715
0
VERTEX
8
1
10
12.566540
20
7.659508
0
VERTEX
8
1
10
12.556511
20
7.618233
42
1.037387
0
VERTEX
8
1
10
12.573943
20
7.597324
42
-0.028167
0
VERTEX
8
1
10
12.733013
20
7.664513
0
VERTEX
8
1
10
12.798838
20
7.665634
42
-0.000680
0
VERTEX
8
1
10
12.798458
20
5.375267
42
-0.126651
0
VERTEX
8
1
10
12.251888
20
5.559013
42
-0.006862
0
SEQEND
0
POLYLINE
8
1
66
1
70
1
0
VERTEX
8
1
10
12.714870
20
5.143814
42
0.042105
0
VERTEX
8
1
10
12.798183
20
5.107880
0
VERTEX
8
1
10
12.798038
20
4.956711
42
0.030041
0
VERTEX
8
1
10
12.703888
20
5.149750
0
SEQEND
0
POLYLINE
8
1
66
1
70
1
0
VERTEX
8
1
10
11.748981
20
5.039909
42
-0.206836
0
VERTEX
8
1
10
12.393274
20
4.865252
42
-0.154883
0
VERTEX
8
1
10
12.431263
20
4.783958
42
-0.279268
0
VERTEX
8
1
10
12.386208
20
4.725807
42
-0.106527
0
VERTEX
8
1
10
12.165485
20
4.673836
42
-0.162853
0
VERTEX
8
1
10
11.518626
20
4.821488
42
-0.136001
0
VERTEX
8
1
10
11.465405
20
4.895172
42
-0.327494
0
VERTEX
8
1
10
11.508347
20
4.976677
42
-0.109334
0
SEQEND
0
POLYLINE
8
1
66
1
70
1
0
VERTEX
8
1
10
11.954094
20
3.972557
0
VERTEX
8
1
10
12.316071
20
3.977966
42
-0.130710
0
VERTEX
8
1
10
12.158518
20
3.646528
42
-0.118334
0
VERTEX
8
1
10
12.022423
20
3.564850
42
-0.128781
0
VERTEX
8
1
10
11.444342
20
3.511119
42
-0.157200
0
VERTEX
8
1
10
11.406445
20
3.539391
42
-0.320673
0
VERTEX
8
1
10
11.436012
20
3.592346
42
-0.075036
0
VERTEX
8
1
10
11.548508
20
3.641144
42
0.054986
0
VERTEX
8
1
10
11.832165
20
3.757614
42
0.235022
0
SEQEND
0
POLYLINE
8
1
66
1
70
1
0
VERTEX
8
1
10
9.878933
20
4.140678
42
0.034053
0
VERTEX
8
1
10
10.021496
20
4.285301
42
-0.019410
0
VERTEX
8
1
10
9.993587
20
4.073090
0
VERTEX
8
1
10
9.793133
20
4.071388
42
0.021546
0
SEQEND
0
POLYLINE
8
1
66
1
70
1
0
VERTEX
8
1
10
7.709442
20
4.865143
42
-0.138918
0
VERTEX
8
1
10
7.862988
20
4.793922
42
-0.330717
0
VERTEX
8
1
10
7.867367
20
4.706459
42
-0.138108
0
VERTEX
8
1
10
7.733189
20
4.581688
42
-0.163414
0
VERTEX
8
1
10
7.119471
20
4.443680
42
-0.101206
0
VERTEX
8
1
10
6.775760
20
4.524704
42
-0.604881
0
VERTEX
8
1
10
6.774210
20
4.693178
42
-0.092800
0
VERTEX
8
1
10
6.935568
20
4.787727
42
-0.150115
0
SEQEND
0
POLYLINE
8
1
66
1
70
1
0
VERTEX
8
1
10
7.771358
20
4.128487
42
-0.018644
0
VERTEX
8
1
10
7.764118
20
4.060989
0
VERTEX
8
1
10
7.602409
20
4.060730
42
0.028844
0
VERTEX
8
1
10
7.762081
20
4.169647
42
-0.610067
0
VERTEX
8
1
10
7.771339
20
4.159584
42
-0.041677
0
SEQEND
0
POLYLINE
8
1
66
1
70
1
0
VERTEX
8
1
10
6.148453
20
8.033127
42
-0.037369
0
VERTEX
8
1
10
6.063942
20
7.996185
0
VERTEX
8
1
10
6.060467
20
8.217628
0
VERTEX
8
1
10
6.077335
20
8.230873
42
0.064291
0
VERTEX
8
1
10
6.305149
20
8.346558
42
-0.443159
0
VERTEX
8
1
10
6.335019
20
8.321495
42
-0.276238
0
VERTEX
8
1
10
6.251451
20
8.106476
42
-0.066723
0
SEQEND
0
POLYLINE
8
1
66
1
70
1
0
VERTEX
8
1
10
7.124228
20
7.741158
42
-0.053229
0
VERTEX
8
1
10
7.745914
20
7.742340
0
VERTEX
8
1
10
7.722786
20
7.741566
42
-0.000700
0
SEQEND
0
POLYLINE
8
1
66
1
70
1
0
VERTEX
8
1
10
13.108784
20
14.515434
42
-0.179348
0
VERTEX
8
1
10
13.306170
20
14.414660
42
-0.501432
0
VERTEX
8
1
10
13.240468
20
14.238015
42
-0.102232
0
VERTEX
8
1
10
13.084095
20
14.205780
42
-0.067778
0
VERTEX
8
1
10
12.597656
20
14.249047
42
-0.140134
0
VERTEX
8
1
10
12.476664
20
14.327779
0
VERTEX
8
1
10
12.470404
20
14.340189
42
-0.348224
0
VERTEX
8
1
10
12.489510
20
14.433493
0
VERTEX
8
1
10
12.501263
20
14.443836
42
-0.094182
0
VERTEX
8
1
10
12.658699
20
14.497476
42
-0.088560
0
SEQEND
0
POLYLINE
8
1
66
1
70
1
0
VERTEX
8
1
10
10.121429
20
14.727318
42
-0.015120
0
VERTEX
8
1
10
9.654415
20
14.767288
42
0.133833
0
VERTEX
8
1
10
9.667275
20
14.607117
42
0.188790
0
VERTEX
8
1
10
9.690147
20
14.591248
42
-0.046052
0
VERTEX
8
1
10
9.865547
20
14.555206
42
-0.305171
0
VERTEX
8
1
10
9.938812
20
14.435585
42
0.041574
0
VERTEX
8
1
10
10.065601
20
13.580086
42
0.058742
0
VERTEX
8
1
10
10.125229
20
13.436737
42
0.197045
0
VERTEX
8
1
10
9.812298
20
13.467232
0
VERTEX
8
1
10
9.809559
20
13.143929
42
-0.145211
0
VERTEX
8
1
10
9.972816
20
13.208290
42
-0.133885
0
VERTEX
8
1
10
10.719517
20
13.079109
0
VERTEX
8
1
10
10.706944
20
13.130363
42
-0.056656
0
VERTEX
8
1
10
10.598747
20
13.573639
42
-0.141625
0
VERTEX
8
1
10
10.818949
20
14.006660
42
-0.130763
0
VERTEX
8
1
10
11.003018
20
14.106660
42
-0.367058
0
VERTEX
8
1
10
11.104240
20
14.036072
42
-0.089103
0
VERTEX
8
1
10
11.131630
20
13.816124
42
-0.063089
0
VERTEX
8
1
10
11.077401
20
13.263762
42
-0.060441
0
VERTEX
8
1
10
10.992992
20
13.057152
0
VERTEX
8
1
10
11.301940
20
12.999375
42
-0.027581
0
VERTEX
8
1
10
8.657017
20
13.148254
0
VERTEX
8
1
10
8.590458
20
13.162834
42
-0.084921
0
VERTEX
8
1
10
9.674992
20
13.162064
0
VERTEX
8
1
10
9.699635
20
13.173943
42
0.043989
0
VERTEX
8
1
10
9.674935
20
13.516292
42
0.345543
0
VERTEX
8
1
10
9.652351
20
13.523964
42
-0.167908
0
VERTEX
8
1
10
9.448669
20
13.493581
42
-0.256889
0
VERTEX
8
1
10
9.374611
20
13.579834
42
-0.075755
0
VERTEX
8
1
10
9.349266
20
13.820763
42
-0.041417
0
VERTEX
8
1
10
9.443802
20
14.661680
42
-0.010858
0
VERTEX
8
1
10
9.520664
20
14.958214
42
0.161000
0
VERTEX
8
1
10
9.677705
20
15.059549
42
0.239999
0
VERTEX
8
1
10
9.670620
20
15.179565
0
VERTEX
8
1
10
9.680473
20
15.162565
42
-0.005804
0
VERTEX
8
1
10
9.740005
20
14.989126
42
0.119423
0
VERTEX
8
1
10
9.787327
20
14.929497
42
0.145068
0
VERTEX
8
1
10
9.828499
20
14.887718
0
VERTEX
8
1
10
9.830692
20
14.891380
42
-0.050169
0
VERTEX
8
1
10
9.868868
20
15.024867
42
-0.422288
0
VERTEX
8
1
10
9.918911
20
15.030121
0
VERTEX
8
1
10
9.929420
20
15.023560
42
0.057650
0
VERTEX
8
1
10
10.160769
20
14.855079
42
0.204520
0
VERTEX
8
1
10
10.254398
20
14.857376
0
VERTEX
8
1
10
10.257603
20
14.863403
0
VERTEX
8
1
10
10.255981
20
14.871132
42
-0.074367
0
VERTEX
8
1
10
10.232414
20
14.949333
0
VERTEX
8
1
10
10.234081
20
14.959190
0
VERTEX
8
1
10
10.237911
20
14.969460
0
VERTEX
8
1
10
10.249870
20
14.972420
42
-0.023607
0
VERTEX
8
1
10
10.447426
20
14.869339
42
0.168399
0
VERTEX
8
1
10
10.699066
20
14.834496
42
0.123687
0
VERTEX
8
1
10
10.633911
20
14.893547
42
-0.157842
0
VERTEX
8
1
10
10.470205
20
15.115906
42
-0.101283
0
VERTEX
8
1
10
10.428663
20
15.340102
42
-0.424604
0
VERTEX
8
1
10
10.462513
20
15.355621
42
-0.014755
0
VERTEX
8
1
10
10.539810
20
15.336212
42
0.243348
0
VERTEX
8
1
10
10.489029
20
15.419083
42
-0.104686
0
VERTEX
8
1
10
10.332054
20
15.570435
42
0.047684
0
VERTEX
8
1
10
10.430954
20
15.591563
42
0.098273
0
VERTEX
8
1
10
10.440636
20
15.602852
42
0.046223
0
VERTEX
8
1
10
10.335487
20
15.696266
42
-0.051469
0
VERTEX
8
1
10
10.137588
20
15.916517
42
-0.298209
0
VERTEX
8
1
10
10.154556
20
16.070984
42
-0.475510
0
VERTEX
8
1
10
10.427380
20
16.006828
42
-0.163733
0
VERTEX
8
1
10
10.483149
20
15.797484
42
0.118150
0
VERTEX
8
1
10
10.517272
20
15.659302
42
0.375020
0
VERTEX
8
1
10
10.539879
20
15.660797
42
0.106798
0
VERTEX
8
1
10
10.631966
20
15.725479
0
VERTEX
8
1
10
10.638535
20
15.726326
42
-0.113882
0
VERTEX
8
1
10
10.661133
20
15.669952
42
-0.026394
0
VERTEX
8
1
10
10.734780
20
15.259513
42
0.107098
0
VERTEX
8
1
10
10.759441
20
15.216835
42
0.384746
0
VERTEX
8
1
10
10.807693
20
15.232536
42
0.089036
0
VERTEX
8
1
10
10.860231
20
15.339539
42
-0.246685
0
VERTEX
8
1
10
10.888981
20
15.353653
42
0.107278
0
VERTEX
8
1
10
11.173810
20
15.234668
42
0.050249
0
VERTEX
8
1
10
11.220295
20
15.236725
42
0.060438
0
VERTEX
8
1
10
11.199753
20
15.326668
0
VERTEX
8
1
10
11.199966
20
15.334785
0
VERTEX
8
1
10
11.206966
20
15.340012
42
-0.108801
0
VERTEX
8
1
10
11.344720
20
15.346566
42
0.010358
0
VERTEX
8
1
10
11.368542
20
15.347176
42
-0.040220
0
VERTEX
8
1
10
11.674186
20
14.662323
42
-0.011518
0
VERTEX
8
1
10
11.883694
20
14.056152
42
0.153780
0
VERTEX
8
1
10
12.061409
20
13.477104
42
-0.005997
0
VERTEX
8
1
10
12.183964
20
13.053474
0
VERTEX
8
1
10
12.162880
20
13.047668
42
-0.015516
0
VERTEX
8
1
10
11.878914
20
13.021873
0
VERTEX
8
1
10
11.883617
20
13.034142
42
-0.017204
0
VERTEX
8
1
10
11.675533
20
13.104462
0
VERTEX
8
1
10
11.668076
20
13.115471
42
-0.089692
0
VERTEX
8
1
10
11.635777
20
13.380295
42
-0.023614
0
VERTEX
8
1
10
11.684416
20
14.048784
42
0.084819
0
VERTEX
8
1
10
11.627854
20
14.602140
42
0.116495
0
VERTEX
8
1
10
11.515756
20
14.782245
42
0.287133
0
VERTEX
8
1
10
11.278580
20
14.808655
0
VERTEX
8
1
10
11.247815
20
14.795377
42
0.188673
0
VERTEX
8
1
10
10.576843
20
13.994278
0
VERTEX
8
1
10
10.561943
20
13.984985
42
-0.110930
0
VERTEX
8
1
10
10.695286
20
14.609200
0
VERTEX
8
1
10
10.722023
20
14.658218
0
VERTEX
8
1
10
10.664469
20
14.690056
42
-0.001266
0
SEQEND
0
POLYLINE
8
1
66
1
70
1
0
VERTEX
8
1
10
9.435509
20
15.452637
42
0.036389
0
VERTEX
8
1
10
9.417625
20
15.363426
0
VERTEX
8
1
10
9.408421
20
15.363449
42
0.030561
0
VERTEX
8
1
10
9.312057
20
15.388443
42
0.060347
0
VERTEX
8
1
10
9.231893
20
15.687446
0
VERTEX
8
1
10
9.225227
20
15.703162
0
VERTEX
8
1
10
9.224953
20
15.712845
0
VERTEX
8
1
10
9.231068
20
15.716721
42
-0.119925
0
VERTEX
8
1
10
9.302338
20
15.690483
0
VERTEX
8
1
10
9.308311
20
15.691177
42
0.035124
0
VERTEX
8
1
10
9.330254
20
15.942805
0
VERTEX
8
1
10
9.333340
20
15.968438
0
VERTEX
8
1
10
9.338493
20
15.993736
42
-0.654945
0
VERTEX
8
1
10
9.482357
20
15.981789
42
-0.158591
0
VERTEX
8
1
10
9.502663
20
15.776611
0
VERTEX
8
1
10
9.493771
20
15.730560
42
0.030251
0
SEQEND
0
POLYLINE
8
1
66
1
70
1
0
VERTEX
8
1
10
9.517529
20
15.317169
42
0.024490
0
VERTEX
8
1
10
9.461380
20
15.343735
0
VERTEX
8
1
10
9.459442
20
15.349289
42
0.157808
0
VERTEX
8
1
10
9.530602
20
15.434944
42
0.025736
0
VERTEX
8
1
10
9.523483
20
15.319588
0
SEQEND
0
POLYLINE
8
1
66
1
70
1
0
VERTEX
8
1
10
10.619595
20
17.280357
42
-0.055943
0
VERTEX
8
1
10
10.463375
20
17.196960
42
0.030136
0
VERTEX
8
1
10
10.321964
20
17.099197
42
0.072016
0
VERTEX
8
1
10
10.126396
20
16.945690
42
0.302160
0
VERTEX
8
1
10
10.121353
20
16.760918
42
0.266118
0
VERTEX
8
1
10
10.377041
20
16.593742
42
0.043485
0
VERTEX
8
1
10
10.667229
20
16.607277
42
-0.047161
0
VERTEX
8
1
10
10.797615
20
16.635239
42
0.230727
0
VERTEX
8
1
10
10.881886
20
16.652802
42
-0.120984
0
VERTEX
8
1
10
11.007156
20
16.664063
42
0.078026
0
VERTEX
8
1
10
11.136959
20
16.676117
0
VERTEX
8
1
10
11.228493
20
16.695877
42
-0.225842
0
VERTEX
8
1
10
11.590263
20
16.609985
0
VERTEX
8
1
10
11.580158
20
16.606850
42
-0.044490
0
VERTEX
8
1
10
11.439632
20
16.548012
42
0.081090
0
VERTEX
8
1
10
11.151641
20
16.466711
42
0.092146
0
VERTEX
8
1
10
11.120182
20
16.433983
0
VERTEX
8
1
10
11.128445
20
16.418427
42
0.141755
0
VERTEX
8
1
10
11.299538
20
16.376114
0
VERTEX
8
1
10
11.330868
20
16.375313
42
-0.149099
0
VERTEX
8
1
10
11.699043
20
16.281334
0
VERTEX
8
1
10
11.710709
20
16.266716
42
-0.170527
0
VERTEX
8
1
10
11.597069
20
16.240494
42
0.028263
0
VERTEX
8
1
10
11.378006
20
16.244331
0
VERTEX
8
1
10
11.351439
20
16.238201
42
0.001268
0
VERTEX
8
1
10
11.591591
20
16.026001
42
-0.090684
0
VERTEX
8
1
10
11.734112
20
15.899406
0
VERTEX
8
1
10
11.716549
20
15.892654
0
VERTEX
8
1
10
11.683071
20
15.897690
42
-0.083632
0
VERTEX
8
1
10
11.504112
20
15.984863
0
VERTEX
8
1
10
11.436161
20
16.028214
42
0.146186
0
VERTEX
8
1
10
11.195412
20
16.105721
0
VERTEX
8
1
10
11.186291
20
16.100502
0
VERTEX
8
1
10
11.192005
20
16.078377
42
-0.109847
0
VERTEX
8
1
10
11.163296
20
15.856262
0
VERTEX
8
1
10
11.154251
20
15.842377
42
-0.080611
0
VERTEX
8
1
10
11.082275
20
15.959862
0
VERTEX
8
1
10
11.054432
20
16.024086
42
0.165126
0
VERTEX
8
1
10
10.898403
20
16.223114
42
0.021235
0
VERTEX
8
1
10
10.714279
20
16.338821
0
VERTEX
8
1
10
10.715958
20
16.320229
42
-0.096456
0
VERTEX
8
1
10
10.727421
20
15.999649
0
VERTEX
8
1
10
10.717934
20
16.004684
0
VERTEX
8
1
10
10.672112
20
16.090790
42
0.091407
0
VERTEX
8
1
10
10.548500
20
16.263535
42
0.037624
0
VERTEX
8
1
10
10.157974
20
16.475903
42
0.079074
0
VERTEX
8
1
10
10.040200
20
16.524611
42
0.306788
0
VERTEX
8
1
10
9.924370
20
16.457603
0
VERTEX
8
1
10
9.908314
20
16.426231
42
0.137465
0
VERTEX
8
1
10
9.881176
20
16.028442
42
0.038259
0
VERTEX
8
1
10
9.929462
20
15.817558
42
0.059304
0
VERTEX
8
1
10
10.049980
20
15.628822
0
VERTEX
8
1
10
10.065422
20
15.604980
0
VERTEX
8
1
10
10.064892
20
15.592163
0
VERTEX
8
1
10
10.048241
20
15.593994
42
-0.202944
0
VERTEX
8
1
10
9.841964
20
15.799326
42
0.071728
0
VERTEX
8
1
10
9.829735
20
15.810448
42
0.190436
0
VERTEX
8
1
10
9.782314
20
15.634171
42
-0.069799
0
VERTEX
8
1
10
9.733143
20
15.833763
42
0.110976
0
VERTEX
8
1
10
9.740687
20
15.959585
42
0.177411
0
VERTEX
8
1
10
9.715210
20
15.986900
0
VERTEX
8
1
10
9.703716
20
15.986801
0
VERTEX
8
1
10
9.616646
20
15.945290
0
VERTEX
8
1
10
9.606419
20
15.952850
0
VERTEX
8
1
10
9.597095
20
15.974068
42
-0.133093
0
VERTEX
8
1
10
9.605297
20
16.198425
42
0.044531
0
VERTEX
8
1
10
9.649671
20
16.518074
42
0.486401
0
VERTEX
8
1
10
9.538086
20
16.604187
42
0.104271
0
VERTEX
8
1
10
9.247978
20
16.462145
42
0.122354
0
VERTEX
8
1
10
9.104771
20
16.251724
42
0.090958
0
VERTEX
8
1
10
9.036377
20
15.990486
42
0.065157
0
VERTEX
8
1
10
9.064960
20
15.839072
42
-0.127364
0
VERTEX
8
1
10
9.056576
20
15.770058
0
VERTEX
8
1
10
9.045479
20
15.761520
42
-0.141307
0
VERTEX
8
1
10
8.986408
20
15.840500
42
0.141383
0
VERTEX
8
1
10
8.942120
20
15.887543
0
VERTEX
8
1
10
8.927036
20
15.889267
0
VERTEX
8
1
10
8.921940
20
15.869797
42
-0.018553
0
VERTEX
8
1
10
8.815703
20
15.461856
42
0.022935
0
VERTEX
8
1
10
8.812756
20
15.435394
0
VERTEX
8
1
10
8.800163
20
15.461403
0
VERTEX
8
1
10
8.787914
20
15.498482
42
-0.102114
0
VERTEX
8
1
10
8.780712
20
15.922935
42
0.094577
0
VERTEX
8
1
10
8.800284
20
16.046612
42
0.246689
0
VERTEX
8
1
10
8.766338
20
16.082626
42
0.098220
0
VERTEX
8
1
10
8.604576
20
16.097610
0
VERTEX
8
1
10
8.600426
20
16.107353
0
VERTEX
8
1
10
8.619247
20
16.133331
42
-0.110432
0
VERTEX
8
1
10
8.837076
20
16.262596
42
0.033310
0
VERTEX
8
1
10
8.926174
20
16.308289
42
-0.025527
0
VERTEX
8
1
10
8.776119
20
16.417953
0
VERTEX
8
1
10
8.762524
20
16.433060
0
VERTEX
8
1
10
8.750767
20
16.449524
42
0.222910
0
VERTEX
8
1
10
9.582342
20
16.955925
42
0.219667
0
VERTEX
8
1
10
9.591034
20
17.067497
0
VERTEX
8
1
10
9.599049
20
17.065193
0
VERTEX
8
1
10
9.605770
20
17.073822
0
VERTEX
8
1
10
9.611393
20
17.091263
42
0.008909
0
VERTEX
8
1
10
9.637611
20
17.282227
0
VERTEX
8
1
10
9.642269
20
17.296074
42
0.292718
0
VERTEX
8
1
10
9.638718
20
17.447350
42
-0.041809
0
VERTEX
8
1
10
9.632954
20
17.520935
42
0.045893
0
VERTEX
8
1
10
9.591560
20
17.615944
42
-0.033671
0
VERTEX
8
1
10
9.569569
20
17.724419
42
0.087908
0
VERTEX
8
1
10
9.504147
20
17.822220
42
-0.074866
0
VERTEX
8
1
10
9.461479
20
17.920578
42
0.160432
0
VERTEX
8
1
10
9.424694
20
17.963448
0
VERTEX
8
1
10
9.419746
20
17.973228
0
VERTEX
8
1
10
9.431770
20
17.984024
42
-0.222841
0
VERTEX
8
1
10
9.533527
20
17.977585
42
-0.027263
0
VERTEX
8
1
10
9.660854
20
17.921616
42
-0.142088
0
VERTEX
8
1
10
9.699250
20
17.859489
42
0.178276
0
VERTEX
8
1
10
9.730362
20
17.836845
0
VERTEX
8
1
10
9.741753
20
17.850563
42
0.089661
0
VERTEX
8
1
10
9.867325
20
18.169327
0
VERTEX
8
1
10
9.867043
20
18.182854
42
-0.098722
0
VERTEX
8
1
10
9.916129
20
18.022409
42
0.056387
0
VERTEX
8
1
10
9.922207
20
18.011246
0
VERTEX
8
1
10
9.931927
20
18.018173
42
-0.092590
0
VERTEX
8
1
10
10.188025
20
18.236500
42
0.069197
0
VERTEX
8
1
10
10.327579
20
18.367760
42
-0.215918
0
VERTEX
8
1
10
10.390655
20
18.434780
42
-0.105972
0
VERTEX
8
1
10
10.411613
20
18.433067
0
VERTEX
8
1
10
10.412949
20
18.421867
42
-0.093101
0
VERTEX
8
1
10
10.315231
20
18.212471
42
-0.062439
0
VERTEX
8
1
10
10.196465
20
18.127426
42
0.064455
0
VERTEX
8
1
10
10.117817
20
18.031868
42
-0.082605
0
VERTEX
8
1
10
10.063906
20
17.990370
42
0.108684
0
VERTEX
8
1
10
9.945747
20
17.864029
42
0.199969
0
VERTEX
8
1
10
9.804345
20
17.531933
42
0.094748
0
VERTEX
8
1
10
9.834417
20
17.307449
42
0.278224
0
VERTEX
8
1
10
9.902077
20
17.265060
42
0.130866
0
VERTEX
8
1
10
10.247238
20
17.355156
42
0.040186
0
VERTEX
8
1
10
10.539501
20
17.602127
42
-0.030345
0
VERTEX
8
1
10
10.703445
20
17.697639
42
-0.017376
0
VERTEX
8
1
10
10.861870
20
17.737862
0
VERTEX
8
1
10
10.853893
20
17.719849
42
-0.027406
0
VERTEX
8
1
10
10.678862
20
17.501307
42
0.025734
0
VERTEX
8
1
10
10.649323
20
17.453896
0
VERTEX
8
1
10
10.654957
20
17.451874
42
-0.196913
0
VERTEX
8
1
10
10.863495
20
17.528755
42
0.027932
0
VERTEX
8
1
10
11.103523
20
17.541105
42
-0.064096
0
VERTEX
8
1
10
11.167294
20
17.531403
0
VERTEX
8
1
10
11.182877
20
17.520935
42
-0.229382
0
VERTEX
8
1
10
11.119392
20
17.451714
42
-0.043341
0
VERTEX
8
1
10
10.943268
20
17.399750
42
0.028257
0
VERTEX
8
1
10
10.671465
20
17.311264
42
0.035604
0
SEQEND
0
POLYLINE
8
1
66
1
70
1
0
VERTEX
8
1
10
10.656071
20
17.142462
42
0.006524
0
VERTEX
8
1
10
10.741257
20
16.862427
42
-0.445033
0
VERTEX
8
1
10
10.527511
20
17.010563
42
-0.310034
0
VERTEX
8
1
10
10.609251
20
17.129587
42
-0.086079
0
SEQEND
0
POLYLINE
8
1
66
1
70
1
0
VERTEX
8
1
10
10.109020
20
17.912498
42
-0.176217
0
VERTEX
8
1
10
10.142574
20
17.935844
42
0.069275
0
VERTEX
8
1
10
10.311096
20
18.028221
42
0.078630
0
VERTEX
8
1
10
10.420834
20
18.110100
0
VERTEX
8
1
10
10.425385
20
18.102299
42
0.000840
0
VERTEX
8
1
10
10.451481
20
17.966980
42
0.025301
0
VERTEX
8
1
10
10.281216
20
17.699837
0
VERTEX
8
1
10
10.254467
20
17.661522
42
-0.186857
0
VERTEX
8
1
10
10.076139
20
17.536453
42
-0.682116
0
VERTEX
8
1
10
10.014503
20
17.664856
42
0.052822
0
VERTEX
8
1
10
10.187969
20
17.877434
42
-0.109679
0
SEQEND
0
POLYLINE
8
1
66
1
70
1
0
VERTEX
8
1
10
10.403934
20
18.220436
0
VERTEX
8
1
10
10.415730
20
18.154396
42
-0.326199
0
VERTEX
8
1
10
10.332561
20
18.168671
42
0.092910
0
VERTEX
8
1
10
10.396980
20
18.217293
0
SEQEND
0
POLYLINE
8
1
66
1
70
1
0
VERTEX
8
1
10
10.503326
20
21.648346
0
VERTEX
8
1
10
10.491592
20
21.646706
0
VERTEX
8
1
10
10.491512
20
21.743904
0
VERTEX
8
1
10
10.493038
20
21.748894
42
0.047056
0
VERTEX
8
1
10
10.550339
20
21.671585
0
VERTEX
8
1
10
10.554134
20
21.663322
0
VERTEX
8
1
10
10.549801
20
21.657669
42
0.004104
0
SEQEND
0
POLYLINE
8
1
66
1
70
1
0
VERTEX
8
1
10
10.505211
20
21.586174
42
0.152615
0
VERTEX
8
1
10
10.553852
20
21.557953
0
VERTEX
8
1
10
10.547661
20
21.549507
42
0.136265
0
VERTEX
8
1
10
10.492767
20
21.514984
0
VERTEX
8
1
10
10.491955
20
21.523689
0
VERTEX
8
1
10
10.491707
20
21.596718
42
-0.045452
0
SEQEND
0
POLYLINE
8
1
66
1
70
1
0
VERTEX
8
1
10
11.055737
20
18.085258
42
0.180914
0
VERTEX
8
1
10
10.941395
20
18.054482
42
-0.033734
0
VERTEX
8
1
10
10.803661
20
17.988045
42
0.039884
0
VERTEX
8
1
10
10.816929
20
18.128311
0
VERTEX
8
1
10
10.810257
20
18.134392
42
0.100470
0
VERTEX
8
1
10
10.696194
20
18.070671
42
-0.017124
0
VERTEX
8
1
10
10.626560
20
18.567421
42
0.152825
0
VERTEX
8
1
10
10.958427
20
18.139900
42
0.057968
0
VERTEX
8
1
10
11.072990
20
18.087372
42
-0.024321
0
SEQEND
0
POLYLINE
8
1
66
1
70
1
0
VERTEX
8
1
10
10.525364
20
20.031090
0
VERTEX
8
1
10
10.522957
20
20.031166
0
VERTEX
8
1
10
10.519161
20
20.129021
0
VERTEX
8
1
10
10.526173
20
20.136322
42
-0.018110
0
VERTEX
8
1
10
10.586201
20
20.126823
0
VERTEX
8
1
10
10.585037
20
20.118729
42
0.049861
0
SEQEND
0
POLYLINE
8
1
66
1
70
1
0
VERTEX
8
1
10
10.543594
20
20.249809
42
0.125072
0
VERTEX
8
1
10
10.571777
20
20.238098
0
VERTEX
8
1
10
10.578648
20
20.233032
0
VERTEX
8
1
10
10.578182
20
20.226288
42
0.076315
0
VERTEX
8
1
10
10.517197
20
20.183304
0
VERTEX
8
1
10
10.514526
20
20.260460
0
VERTEX
8
1
10
10.514980
20
20.272491
42
-0.004650
0
SEQEND
0
POLYLINE
8
1
66
1
70
1
0
VERTEX
8
1
10
10.570076
20
19.976494
0
VERTEX
8
1
10
10.575943
20
19.979019
42
0.097067
0
VERTEX
8
1
10
10.638054
20
19.994825
42
-0.397496
0
VERTEX
8
1
10
10.650101
20
19.964508
42
-0.078205
0
VERTEX
8
1
10
10.614151
20
19.761421
42
0.040489
0
VERTEX
8
1
10
10.556721
20
19.462044
0
VERTEX
8
1
10
10.561222
20
19.452942
42
0.016647
0
VERTEX
8
1
10
10.624035
20
19.488991
0
VERTEX
8
1
10
10.628300
20
19.488068
42
0.050414
0
VERTEX
8
1
10
10.567558
20
19.314743
0
VERTEX
8
1
10
10.561428
20
19.304565
42
-0.006360
0
VERTEX
8
1
10
10.526310
20
19.953545
42
0.073648
0
SEQEND
0
POLYLINE
8
1
66
1
70
1
0
VERTEX
8
1
10
11.034245
20
18.387497
0
VERTEX
8
1
10
11.018166
20
18.387123
42
-0.212682
0
VERTEX
8
1
10
10.922314
20
18.462814
42
-0.186470
0
VERTEX
8
1
10
10.830734
20
19.084284
42
-0.195254
0
VERTEX
8
1
10
10.903720
20
19.176046
42
-0.282529
0
VERTEX
8
1
10
10.977779
20
19.156891
42
-0.134340
0
VERTEX
8
1
10
11.092102
20
18.958916
42
-0.137791
0
VERTEX
8
1
10
11.116497
20
18.482004
42
-0.171251
0
VERTEX
8
1
10
11.049698
20
18.391960
0
SEQEND
0
POLYLINE
8
1
66
1
70
1
0
VERTEX
8
1
10
10.742981
20
20.385750
0
VERTEX
8
1
10
10.731741
20
20.383583
42
-0.107637
0
VERTEX
8
1
10
10.510399
20
20.427711
0
VERTEX
8
1
10
10.508766
20
20.447441
0
VERTEX
8
1
10
10.503883
20
20.636192
0
VERTEX
8
1
10
10.519367
20
20.659431
42
-0.021764
0
VERTEX
8
1
10
11.178577
20
20.874779
0
VERTEX
8
1
10
11.193890
20
20.871460
0
VERTEX
8
1
10
11.193714
20
20.846291
42
-0.255985
0
VERTEX
8
1
10
11.050907
20
20.525307
42
-0.097562
0
VERTEX
8
1
10
10.938995
20
20.424843
42
-0.085685
0
VERTEX
8
1
10
10.752420
20
20.388538
0
VERTEX
8
1
10
10.747681
20
20.387211
0
SEQEND
0
POLYLINE
8
1
66
1
70
1
0
VERTEX
8
1
10
11.172855
20
17.916023
42
-0.122559
0
VERTEX
8
1
10
11.063358
20
17.933233
42
-0.287820
0
VERTEX
8
1
10
11.054985
20
17.964180
42
-0.062009
0
VERTEX
8
1
10
11.114601
20
18.074265
0
VERTEX
8
1
10
11.126480
20
18.074509
42
0.162712
0
VERTEX
8
1
10
11.370186
20
18.109756
0
VERTEX
8
1
10
11.378452
20
18.103783
42
0.043338
0
VERTEX
8
1
10
11.384655
20
17.876686
42
0.035895
0
SEQEND
0
POLYLINE
8
1
66
1
70
1
0
VERTEX
8
1
10
11.422714
20
17.711830
42
-0.029645
0
VERTEX
8
1
10
11.354778
20
17.736168
42
-0.274899
0
VERTEX
8
1
10
11.403679
20
17.784424
42
0.017051
0
SEQEND
0
POLYLINE
8
1
66
1
70
1
0
VERTEX
8
1
10
11.627022
20
19.731873
42
-0.105452
0
VERTEX
8
1
10
11.670250
20
19.727974
0
VERTEX
8
1
10
11.670071
20
19.735558
42
0.003209
0
VERTEX
8
1
10
11.617447
20
19.913155
42
-0.070816
0
VERTEX
8
1
10
11.579945
20
20.022530
42
-0.637462
0
VERTEX
8
1
10
11.713345
20
20.071045
42
-0.153875
0
VERTEX
8
1
10
11.814114
20
19.893402
42
0.102411
0
VERTEX
8
1
10
11.797318
20
19.439644
42
0.071504
0
VERTEX
8
1
10
11.711369
20
19.569061
42
0.070067
0
VERTEX
8
1
10
11.590079
20
19.709591
42
-0.082927
0
VERTEX
8
1
10
11.583992
20
19.725006
42
-0.009219
0
SEQEND
0
POLYLINE
8
1
66
1
70
1
0
VERTEX
8
1
10
12.043514
20
17.314308
0
VERTEX
8
1
10
12.026760
20
17.313835
42
-0.211917
0
VERTEX
8
1
10
11.927087
20
17.389183
42
-0.197254
0
VERTEX
8
1
10
11.834348
20
18.041529
42
-0.152587
0
VERTEX
8
1
10
11.899662
20
18.125347
42
-0.325407
0
VERTEX
8
1
10
11.994133
20
18.102730
42
-0.127710
0
VERTEX
8
1
10
12.110596
20
17.893654
42
-0.140451
0
VERTEX
8
1
10
12.129843
20
17.409399
42
-0.171404
0
VERTEX
8
1
10
12.059643
20
17.318871
0
SEQEND
0
POLYLINE
8
1
66
1
70
1
0
VERTEX
8
1
10
11.767433
20
19.251907
42
0.105221
0
VERTEX
8
1
10
11.704254
20
19.399467
0
VERTEX
8
1
10
11.703415
20
19.408051
42
-0.244589
0
VERTEX
8
1
10
11.806007
20
19.376793
0
VERTEX
8
1
10
11.817588
20
19.340332
42
0.168982
0
VERTEX
8
1
10
12.155671
20
18.798800
42
0.080252
0
VERTEX
8
1
10
12.341976
20
18.705330
42
0.078982
0
VERTEX
8
1
10
12.237743
20
18.521149
42
0.206708
0
VERTEX
8
1
10
11.869700
20
18.718702
42
0.112639
0
VERTEX
8
1
10
11.704109
20
18.684731
0
VERTEX
8
1
10
11.702087
20
18.693527
42
0.032942
0
VERTEX
8
1
10
11.708832
20
18.898666
42
-0.011480
0
VERTEX
8
1
10
11.784569
20
18.819893
42
0.499019
0
VERTEX
8
1
10
11.807331
20
18.834114
42
0.165579
0
VERTEX
8
1
10
11.792172
20
19.158121
42
-0.011079
0
SEQEND
0
POLYLINE
8
1
66
1
70
1
0
VERTEX
8
1
10
12.255856
20
19.350662
42
0.030539
0
VERTEX
8
1
10
12.356171
20
19.242249
42
-0.204272
0
VERTEX
8
1
10
12.272326
20
19.080433
42
-0.326611
0
VERTEX
8
1
10
12.157753
20
19.093058
42
-0.168375
0
VERTEX
8
1
10
12.048309
20
19.263762
42
-0.093107
0
VERTEX
8
1
10
12.024052
20
19.450203
42
0.078616
0
VERTEX
8
1
10
12.144878
20
19.273071
0
VERTEX
8
1
10
12.160717
20
19.261124
42
0.041657
0
VERTEX
8
1
10
12.204243
20
19.402550
42
-0.067319
0
SEQEND
0
POLYLINE
8
1
66
1
70
1
0
VERTEX
8
1
10
12.770199
20
20.152992
42
0.182753
0
VERTEX
8
1
10
12.389268
20
20.384268
42
0.052502
0
VERTEX
8
1
10
12.294361
20
20.386444
42
-0.272302
0
VERTEX
8
1
10
12.381149
20
20.487932
42
-0.288111
0
VERTEX
8
1
10
12.570015
20
20.464836
42
-0.171214
0
VERTEX
8
1
10
12.716048
20
20.277708
42
0.073415
0
VERTEX
8
1
10
12.782581
20
20.181358
42
0.013910
0
SEQEND
0
POLYLINE
8
1
66
1
70
1
0
VERTEX
8
1
10
12.611889
20
16.513168
42
-0.270840
0
VERTEX
8
1
10
12.571053
20
16.539497
42
-0.168800
0
VERTEX
8
1
10
12.504354
20
16.957006
42
-0.139340
0
VERTEX
8
1
10
12.532787
20
16.996872
42
-0.327765
0
VERTEX
8
1
10
12.573265
20
16.978394
0
VERTEX
8
1
10
12.583538
20
16.964439
42
-0.168593
0
VERTEX
8
1
10
12.642530
20
16.546253
42
-0.169707
0
SEQEND
0
POLYLINE
8
1
66
1
70
1
0
VERTEX
8
1
10
12.745697
20
17.578651
42
-0.254433
0
VERTEX
8
1
10
12.696358
20
17.604881
42
-0.103153
0
VERTEX
8
1
10
12.625232
20
17.751549
42
-0.119183
0
VERTEX
8
1
10
12.576948
20
18.274412
42
-0.135382
0
VERTEX
8
1
10
12.618979
20
18.341351
42
-0.355649
0
VERTEX
8
1
10
12.671398
20
18.324905
42
-0.113555
0
VERTEX
8
1
10
12.765099
20
18.123718
42
-0.102674
0
VERTEX
8
1
10
12.799911
20
17.665123
42
-0.104326
0
VERTEX
8
1
10
12.767368
20
17.590721
0
VERTEX
8
1
10
12.757034
20
17.582611
0
SEQEND
0
POLYLINE
8
1
66
1
70
1
0
VERTEX
8
1
10
13.537605
20
20.032341
42
0.066339
0
VERTEX
8
1
10
13.608681
20
20.058357
42
0.049130
0
VERTEX
8
1
10
13.553467
20
20.136230
42
-0.426432
0
VERTEX
8
1
10
13.631447
20
20.155327
0
VERTEX
8
1
10
13.650822
20
20.140526
42
-0.114537
0
VERTEX
8
1
10
13.759968
20
19.933693
42
-0.109393
0
VERTEX
8
1
10
13.816288
20
19.348303
42
-0.114419
0
VERTEX
8
1
10
13.764971
20
19.232422
42
-0.348841
0
VERTEX
8
1
10
13.700279
20
19.228790
0
VERTEX
8
1
10
13.680897
20
19.243591
42
-0.114600
0
VERTEX
8
1
10
13.571751
20
19.450439
42
-0.110401
0
VERTEX
8
1
10
13.514950
20
20.027863
42
0.015161
0
SEQEND
0
POLYLINE
8
1
66
1
70
1
0
VERTEX
8
1
10
11.264572
20
22.193893
42
0.005312
0
VERTEX
8
1
10
11.324795
20
22.111856
0
VERTEX
8
1
10
11.329472
20
22.110430
0
VERTEX
8
1
10
11.334362
20
22.110428
42
-0.099894
0
VERTEX
8
1
10
11.481934
20
22.410601
42
0.113014
0
VERTEX
8
1
10
11.571033
20
22.648003
42
-0.243360
0
VERTEX
8
1
10
11.611858
20
22.686668
0
VERTEX
8
1
10
11.620476
20
22.680901
0
VERTEX
8
1
10
11.622833
20
22.671349
42
-0.063392
0
VERTEX
8
1
10
11.619724
20
22.468300
42
-0.094935
0
VERTEX
8
1
10
11.545696
20
22.335785
42
0.128832
0
VERTEX
8
1
10
11.512296
20
22.244469
42
-0.108834
0
VERTEX
8
1
10
11.451740
20
22.114189
42
0.090091
0
VERTEX
8
1
10
11.410046
20
21.985054
42
0.168199
0
VERTEX
8
1
10
11.383792
20
21.708113
42
0.145139
0
VERTEX
8
1
10
11.526042
20
21.424141
42
0.306454
0
VERTEX
8
1
10
11.618843
20
21.419098
42
0.116107
0
VERTEX
8
1
10
11.879192
20
21.622498
42
0.045525
0
VERTEX
8
1
10
12.055016
20
21.966873
42
-0.038374
0
VERTEX
8
1
10
12.177891
20
22.130547
42
-0.008160
0
VERTEX
8
1
10
12.298527
20
22.219803
0
VERTEX
8
1
10
12.303154
20
22.217026
42
-0.044068
0
VERTEX
8
1
10
12.231100
20
21.959246
42
0.052772
0
VERTEX
8
1
10
12.216995
20
21.865631
42
-0.204211
0
VERTEX
8
1
10
12.373669
20
22.025932
42
0.031471
0
VERTEX
8
1
10
12.591968
20
22.132648
42
-0.083457
0
VERTEX
8
1
10
12.675293
20
22.152985
0
VERTEX
8
1
10
12.683113
20
22.135468
0
VERTEX
8
1
10
12.680130
20
22.112396
42
-0.155546
0
VERTEX
8
1
10
12.576491
20
21.995178
42
0.015452
0
VERTEX
8
1
10
12.316280
20
21.781448
42
0.044022
0
VERTEX
8
1
10
12.213409
20
21.644890
42
0.082000
0
VERTEX
8
1
10
12.064911
20
21.441505
42
0.056855
0
VERTEX
8
1
10
11.936161
20
21.219099
42
0.325549
0
VERTEX
8
1
10
12.007881
20
21.029747
42
0.272060
0
VERTEX
8
1
10
12.320755
20
20.986809
42
0.040543
0
VERTEX
8
1
10
12.570068
20
21.110664
42
-0.059684
0
VERTEX
8
1
10
12.676228
20
21.184074
42
0.227419
0
VERTEX
8
1
10
12.741528
20
21.229424
42
-0.146464
0
VERTEX
8
1
10
12.828011
20
21.281204
42
0.101997
0
VERTEX
8
1
10
13.036088
20
21.401644
42
-0.216765
0
VERTEX
8
1
10
13.394043
20
21.473831
0
VERTEX
8
1
10
13.409088
20
21.466248
0
VERTEX
8
1
10
13.397884
20
21.455959
0
VERTEX
8
1
10
13.387437
20
21.444902
42
-0.123415
0
VERTEX
8
1
10
13.233204
20
21.311760
42
0.109937
0
VERTEX
8
1
10
13.054452
20
21.146196
42
0.083095
0
VERTEX
8
1
10
13.048496
20
21.117714
0
VERTEX
8
1
10
13.072701
20
21.110474
42
0.142642
0
VERTEX
8
1
10
13.279410
20
21.159525
42
-0.145279
0
VERTEX
8
1
10
13.649078
20
21.206779
0
VERTEX
8
1
10
13.653339
20
21.192574
42
-0.141581
0
VERTEX
8
1
10
13.550762
20
21.126472
42
0.042592
0
VERTEX
8
1
10
13.351307
20
21.044067
0
VERTEX
8
1
10
13.346040
20
21.030468
42
0.000903
0
VERTEX
8
1
10
13.648766
20
20.930107
42
-0.104114
0
VERTEX
8
1
10
13.828228
20
20.866562
0
VERTEX
8
1
10
13.798450
20
20.854599
42
-0.110600
0
VERTEX
8
1
10
13.531387
20
20.869373
42
0.146554
0
VERTEX
8
1
10
13.240604
20
20.849319
0
VERTEX
8
1
10
13.243977
20
20.836998
42
-0.129592
0
VERTEX
8
1
10
13.314514
20
20.601685
0
VERTEX
8
1
10
13.301464
20
20.596565
42
-0.072937
0
VERTEX
8
1
10
13.191147
20
20.679184
0
VERTEX
8
1
10
13.140530
20
20.727432
42
0.169077
0
VERTEX
8
1
10
12.879490
20
20.852493
42
0.016908
0
VERTEX
8
1
10
12.708927
20
20.876167
42
-0.105619
0
VERTEX
8
1
10
12.857540
20
20.563477
42
0.023547
0
VERTEX
8
1
10
12.662348
20
20.709879
42
0.124185
0
VERTEX
8
1
10
12.516917
20
20.754229
0
VERTEX
8
1
10
12.453486
20
20.763437
42
0.018497
0
VERTEX
8
1
10
12.045175
20
20.790253
42
0.331862
0
VERTEX
8
1
10
11.943619
20
20.704147
0
VERTEX
8
1
10
11.937351
20
20.671165
0
VERTEX
8
1
10
11.935753
20
20.635605
42
0.134646
0
VERTEX
8
1
10
12.069530
20
20.260971
42
0.041843
0
VERTEX
8
1
10
12.196716
20
20.087372
42
0.061622
0
VERTEX
8
1
10
12.346314
20
19.984201
0
VERTEX
8
1
10
12.375975
20
19.965151
0
VERTEX
8
1
10
12.405243
20
19.945503
0
VERTEX
8
1
10
12.402699
20
19.935448
0
VERTEX
8
1
10
12.386230
20
19.931213
42
-0.197237
0
VERTEX
8
1
10
12.119633
20
20.040260
0
VERTEX
8
1
10
12.110706
20
20.045418
0
VERTEX
8
1
10
12.103004
20
20.043152
42
0.180932
0
VERTEX
8
1
10
12.127213
20
19.867073
42
-0.057078
0
VERTEX
8
1
10
12.010128
20
20.018333
42
0.042850
0
VERTEX
8
1
10
11.971980
20
20.138716
42
0.237520
0
VERTEX
8
1
10
11.927086
20
20.163651
0
VERTEX
8
1
10
11.918091
20
20.158005
0
VERTEX
8
1
10
11.854202
20
20.085869
0
VERTEX
8
1
10
11.840530
20
20.091331
0
VERTEX
8
1
10
11.823906
20
20.107613
0
VERTEX
8
1
10
11.809128
20
20.126961
42
-0.102062
0
VERTEX
8
1
10
11.740025
20
20.352608
42
0.037002
0
VERTEX
8
1
10
11.653456
20
20.641151
42
0.456408
0
VERTEX
8
1
10
11.523960
20
20.661766
42
0.104562
0
VERTEX
8
1
10
11.312647
20
20.416222
42
0.121618
0
VERTEX
8
1
10
11.264057
20
20.166344
42
0.091467
0
VERTEX
8
1
10
11.303562
20
19.900642
42
0.065960
0
VERTEX
8
1
10
11.388852
20
19.772949
42
-0.128341
0
VERTEX
8
1
10
11.407688
20
19.706062
0
VERTEX
8
1
10
11.400192
20
19.694679
42
-0.138924
0
VERTEX
8
1
10
11.315216
20
19.744514
42
0.142153
0
VERTEX
8
1
10
11.256020
20
19.770294
0
VERTEX
8
1
10
11.241997
20
19.765305
42
-0.017683
0
VERTEX
8
1
10
11.306258
20
19.328936
42
0.022793
0
VERTEX
8
1
10
11.313869
20
19.303452
0
VERTEX
8
1
10
11.292084
20
19.322533
0
VERTEX
8
1
10
11.266361
20
19.351860
42
-0.102034
0
VERTEX
8
1
10
11.094074
20
19.739632
42
0.093575
0
VERTEX
8
1
10
11.063977
20
19.861118
42
0.246490
0
VERTEX
8
1
10
11.018913
20
19.881233
42
0.099352
0
VERTEX
8
1
10
10.864143
20
19.832077
0
VERTEX
8
1
10
10.855946
20
19.838219
0
VERTEX
8
1
10
10.862923
20
19.869469
42
-0.111111
0
VERTEX
8
1
10
11.012502
20
20.073879
42
0.027454
0
VERTEX
8
1
10
11.078400
20
20.151138
42
-0.023756
0
VERTEX
8
1
10
10.897594
20
20.193390
0
VERTEX
8
1
10
10.879154
20
20.201881
0
VERTEX
8
1
10
10.861599
20
20.212250
42
0.058435
0
VERTEX
8
1
10
11.218896
20
20.452364
42
0.146362
0
VERTEX
8
1
10
11.397942
20
20.767006
42
0.108106
0
VERTEX
8
1
10
11.433999
20
21.024534
42
0.139612
0
VERTEX
8
1
10
11.392132
20
21.109955
0
VERTEX
8
1
10
11.400558
20
21.109726
0
VERTEX
8
1
10
11.403591
20
21.119362
0
VERTEX
8
1
10
11.402225
20
21.136955
42
0.010400
0
VERTEX
8
1
10
11.352612
20
21.324265
0
VERTEX
8
1
10
11.351311
20
21.339058
42
0.293686
0
VERTEX
8
1
10
11.289310
20
21.477890
42
-0.048237
0
VERTEX
8
1
10
11.255363
20
21.543121
42
0.048998
0
VERTEX
8
1
10
11.180698
20
21.614044
42
-0.038821
0
VERTEX
8
1
10
11.118137
20
21.705109
42
0.093780
0
VERTEX
8
1
10
11.020515
20
21.769798
42
-0.104362
0
VERTEX
8
1
10
10.940398
20
21.845722
42
0.133153
0
VERTEX
8
1
10
10.881325
20
21.874107
0
VERTEX
8
1
10
10.887489
20
21.889290
42
-0.236734
0
VERTEX
8
1
10
10.981706
20
21.925201
42
-0.015758
0
VERTEX
8
1
10
11.125864
20
21.923128
42
-0.153217
0
VERTEX
8
1
10
11.182258
20
21.882355
42
0.171957
0
VERTEX
8
1
10
11.218971
20
21.872353
0
VERTEX
8
1
10
11.225697
20
21.885193
42
0.078716
0
VERTEX
8
1
10
11.222867
20
22.216879
0
VERTEX
8
1
10
11.217534
20
22.231585
0
VERTEX
8
1
10
11.210869
20
22.245735
42
-0.004915
0
SEQEND
0
POLYLINE
8
1
66
1
70
1
0
VERTEX
8
1
10
10.617443
20
21.395515
42
-0.140693
0
VERTEX
8
1
10
10.753471
20
21.397964
42
-0.219671
0
VERTEX
8
1
10
10.999649
20
21.310844
42
-0.205337
0
VERTEX
8
1
10
11.133133
20
21.173225
42
-0.051023
0
VERTEX
8
1
10
11.168491
20
21.075806
0
VERTEX
8
1
10
11.132179
20
21.063461
42
0.016949
0
VERTEX
8
1
10
10.535892
20
20.962265
0
VERTEX
8
1
10
10.497387
20
20.968466
42
-0.002054
0
VERTEX
8
1
10
10.492949
20
21.352470
0
VERTEX
8
1
10
10.497066
20
21.357651
0
VERTEX
8
1
10
10.501690
20
21.359276
42
-0.119670
0
SEQEND
0
POLYLINE
8
1
66
1
70
1
0
VERTEX
8
1
10
10.564800
20
22.053932
42
0.021587
0
VERTEX
8
1
10
10.597412
20
21.940727
42
-0.060615
0
VERTEX
8
1
10
10.612667
20
21.801270
42
-0.617992
0
VERTEX
8
1
10
10.587883
20
21.797600
0
VERTEX
8
1
10
10.583687
20
21.799789
42
-0.114388
0
VERTEX
8
1
10
10.492001
20
21.829132
42
-0.035431
0
VERTEX
8
1
10
10.506152
20
22.294670
42
0.015096
0
SEQEND
0
POLYLINE
8
1
66
1
70
1
0
VERTEX
8
1
10
10.394024
20
23.556473
42
-0.039010
0
VERTEX
8
1
10
10.387245
20
23.524551
0
VERTEX
8
1
10
10.370331
20
23.517685
42
-0.041390
0
VERTEX
8
1
10
10.035442
20
23.491409
42
-0.031740
0
VERTEX
8
1
10
8.945120
20
23.523848
42
-0.049777
0
VERTEX
8
1
10
8.837804
20
23.553261
42
-0.482753
0
VERTEX
8
1
10
8.841152
20
23.566437
0
VERTEX
8
1
10
8.852394
20
23.571587
42
0.021150
0
VERTEX
8
1
10
9.160576
20
23.651375
42
0.158251
0
VERTEX
8
1
10
9.234862
20
23.716324
42
0.390069
0
VERTEX
8
1
10
9.211205
20
23.756310
0
VERTEX
8
1
10
9.195366
20
23.763565
0
VERTEX
8
1
10
9.176392
20
23.769897
42
0.023053
0
VERTEX
8
1
10
8.895165
20
23.813234
42
-0.197087
0
VERTEX
8
1
10
8.762572
20
23.903519
42
-0.352171
0
VERTEX
8
1
10
8.781834
20
23.966087
42
-0.174578
0
VERTEX
8
1
10
9.028835
20
24.053757
0
VERTEX
8
1
10
9.096671
20
24.057709
42
-0.026876
0
VERTEX
8
1
10
10.386936
20
24.002045
0
VERTEX
8
1
10
10.395550
20
23.997719
42
-0.198320
0
VERTEX
8
1
10
10.439373
20
23.877762
42
-0.063016
0
SEQEND
0
POLYLINE
8
1
66
1
70
1
0
VERTEX
8
1
10
10.351902
20
23.064171
42
-0.074418
0
VERTEX
8
1
10
10.596898
20
23.015621
42
-0.097638
0
VERTEX
8
1
10
10.613930
20
22.997948
0
VERTEX
8
1
10
10.604141
20
22.989685
42
-0.077884
0
VERTEX
8
1
10
10.478901
20
22.974503
42
-0.018616
0
VERTEX
8
1
10
9.396942
20
22.999214
42
-0.015008
0
VERTEX
8
1
10
8.477345
20
23.061287
42
-0.357861
0
VERTEX
8
1
10
8.421993
20
23.147987
42
-0.133060
0
VERTEX
8
1
10
8.529297
20
23.390404
42
0.037204
0
VERTEX
8
1
10
10.213921
20
23.320602
42
0.011223
0
VERTEX
8
1
10
10.422096
20
23.346811
0
VERTEX
8
1
10
10.435506
20
23.344683
42
-0.825787
0
VERTEX
8
1
10
10.442268
20
23.314293
0
VERTEX
8
1
10
10.433197
20
23.305145
42
-0.069205
0
VERTEX
8
1
10
10.140049
20
23.140093
42
0.093258
0
VERTEX
8
1
10
10.104059
20
23.117126
42
0.513441
0
VERTEX
8
1
10
10.117172
20
23.098282
42
0.049656
0
SEQEND
0
POLYLINE
8
1
66
1
70
1
0
VERTEX
8
1
10
10.209334
20
22.120771
42
0.004221
0
VERTEX
8
1
10
10.308151
20
19.038460
42
0.016563
0
VERTEX
8
1
10
10.348160
20
18.582649
42
-0.100669
0
VERTEX
8
1
10
10.233826
20
18.525795
0
VERTEX
8
1
10
10.232586
20
18.529915
42
0.138001
0
VERTEX
8
1
10
10.249943
20
18.664715
42
0.380358
0
VERTEX
8
1
10
10.229271
20
18.669518
42
-0.052930
0
VERTEX
8
1
10
10.085129
20
18.593918
0
VERTEX
8
1
10
10.082584
20
18.604301
42
0.031326
0
VERTEX
8
1
10
10.079227
20
18.768456
42
0.046719
0
VERTEX
8
1
10
9.906240
20
18.610825
0
VERTEX
8
1
10
9.888774
20
18.586571
42
-0.100235
0
VERTEX
8
1
10
9.722462
20
18.379036
42
0.088351
0
VERTEX
8
1
10
9.725258
20
18.449501
42
0.226032
0
VERTEX
8
1
10
9.719639
20
18.496521
0
VERTEX
8
1
10
9.709625
20
18.484718
42
-0.009148
0
VERTEX
8
1
10
9.573647
20
18.374763
42
-0.073399
0
VERTEX
8
1
10
9.456554
20
18.191612
42
0.117776
0
VERTEX
8
1
10
9.469124
20
18.253799
42
0.125700
0
VERTEX
8
1
10
9.437901
20
18.539757
0
VERTEX
8
1
10
9.434071
20
18.541832
42
0.176861
0
VERTEX
8
1
10
9.381591
20
18.440788
42
-0.120078
0
VERTEX
8
1
10
9.334831
20
18.358070
0
VERTEX
8
1
10
9.328094
20
18.356659
42
0.042181
0
VERTEX
8
1
10
9.330303
20
18.431923
42
0.076385
0
VERTEX
8
1
10
9.254704
20
18.536568
0
VERTEX
8
1
10
9.249527
20
18.533791
42
0.081178
0
VERTEX
8
1
10
9.222240
20
18.423897
42
0.021389
0
VERTEX
8
1
10
9.182049
20
18.140160
42
-0.067331
0
VERTEX
8
1
10
9.141781
20
18.008316
42
-0.590224
0
VERTEX
8
1
10
9.113808
20
18.019646
42
-0.164253
0
VERTEX
8
1
10
9.045349
20
18.080164
42
0.272229
0
VERTEX
8
1
10
9.000675
20
18.092628
0
VERTEX
8
1
10
8.998711
20
18.088554
42
0.034174
0
VERTEX
8
1
10
9.034256
20
17.905750
0
VERTEX
8
1
10
9.032608
20
17.899879
42
-0.001812
0
VERTEX
8
1
10
8.931450
20
17.924812
42
0.497374
0
VERTEX
8
1
10
8.930088
20
17.900513
42
0.048225
0
VERTEX
8
1
10
8.992043
20
17.806831
42
-0.137713
0
VERTEX
8
1
10
8.952347
20
17.801804
42
0.150538
0
VERTEX
8
1
10
8.862846
20
17.758797
42
-0.074004
0
VERTEX
8
1
10
8.821565
20
17.695221
42
0.593190
0
VERTEX
8
1
10
8.865242
20
17.645157
42
-0.118763
0
VERTEX
8
1
10
8.987465
20
17.633423
42
-0.146692
0
VERTEX
8
1
10
9.113953
20
17.582649
42
-0.211485
0
VERTEX
8
1
10
9.305546
20
17.407471
42
-0.218026
0
VERTEX
8
1
10
9.376358
20
17.182449
42
-0.053589
0
VERTEX
8
1
10
9.353432
20
17.040154
0
VERTEX
8
1
10
9.319115
20
17.030838
42
-0.083033
0
VERTEX
8
1
10
8.809978
20
17.161306
42
-0.051480
0
VERTEX
8
1
10
8.203345
20
17.478699
0
VERTEX
8
1
10
8.207932
20
17.497604
42
0.007545
0
VERTEX
8
1
10
8.348434
20
17.948959
0
VERTEX
8
1
10
8.385406
20
18.052979
0
VERTEX
8
1
10
8.414455
20
18.118347
0
VERTEX
8
1
10
8.436897
20
18.150101
0
VERTEX
8
1
10
8.454041
20
18.153275
0
VERTEX
8
1
10
8.467186
20
18.132866
42
-0.026222
0
VERTEX
8
1
10
8.511872
20
17.881948
42
0.065295
0
VERTEX
8
1
10
8.557240
20
17.751740
0
VERTEX
8
1
10
8.570419
20
17.742073
0
VERTEX
8
1
10
8.584053
20
17.751183
0
VERTEX
8
1
10
8.598095
20
17.778008
0
VERTEX
8
1
10
8.612492
20
17.821472
42
0.031251
0
VERTEX
8
1
10
8.703609
20
18.372444
42
0.003015
0
VERTEX
8
1
10
8.757896
20
18.854126
42
0.154045
0
VERTEX
8
1
10
8.786290
20
19.142616
42
0.004323
0
VERTEX
8
1
10
8.938682
20
21.067307
0
VERTEX
8
1
10
8.950657
20
21.169312
0
VERTEX
8
1
10
8.960194
20
21.196053
0
VERTEX
8
1
10
8.968269
20
21.160316
0
VERTEX
8
1
10
8.975842
20
21.074905
42
0.010467
0
VERTEX
8
1
10
9.020398
20
20.492346
0
VERTEX
8
1
10
9.039913
20
20.350464
0
VERTEX
8
1
10
9.064713
20
20.235680
0
VERTEX
8
1
10
9.095749
20
20.160774
0
VERTEX
8
1
10
9.133991
20
20.138557
0
VERTEX
8
1
10
9.173180
20
20.180183
0
VERTEX
8
1
10
9.201874
20
20.282631
0
VERTEX
8
1
10
9.221358
20
20.435944
42
0.022027
0
VERTEX
8
1
10
9.237372
20
21.358559
42
-0.005005
0
VERTEX
8
1
10
9.226993
20
22.297241
0
VERTEX
8
1
10
9.231625
20
22.459610
0
VERTEX
8
1
10
9.242172
20
22.573112
0
VERTEX
8
1
10
9.261600
20
22.632133
0
VERTEX
8
1
10
9.302021
20
22.668228
0
VERTEX
8
1
10
9.362576
20
22.691132
42
-0.086943
0
VERTEX
8
1
10
9.605809
20
22.698618
42
-0.049555
0
VERTEX
8
1
10
10.196125
20
22.585075
0
VERTEX
8
1
10
10.196996
20
22.575058
42
-0.000804
0
SEQEND
0
POLYLINE
8
1
66
1
70
1
0
VERTEX
8
1
10
8.240952
20
20.093613
42
-0.011472
0
VERTEX
8
1
10
8.510297
20
20.219688
42
-0.008518
0
VERTEX
8
1
10
8.440788
20
19.638939
42
0.126535
0
VERTEX
8
1
10
7.883816
20
19.863808
0
VERTEX
8
1
10
7.891422
20
19.880989
42
-0.060035
0
SEQEND
0
POLYLINE
8
1
66
1
70
1
0
VERTEX
8
1
10
8.155342
20
18.071548
42
-0.009812
0
VERTEX
8
1
10
8.025543
20
17.620743
0
VERTEX
8
1
10
7.964153
20
17.628769
42
0.050103
0
VERTEX
8
1
10
7.258278
20
17.986252
42
0.084320
0
VERTEX
8
1
10
6.918897
20
18.039286
42
0.168807
0
VERTEX
8
1
10
6.630716
20
17.909775
42
-0.126598
0
VERTEX
8
1
10
6.479822
20
18.702057
0
VERTEX
8
1
10
6.505871
20
18.698853
42
0.127538
0
VERTEX
8
1
10
7.899457
20
18.425802
42
0.048394
0
VERTEX
8
1
10
8.259567
20
18.493279
0
VERTEX
8
1
10
8.242701
20
18.402334
42
-0.001236
0
SEQEND
0
POLYLINE
8
1
66
1
70
1
0
VERTEX
8
1
10
6.967400
20
17.415573
42
-0.018344
0
VERTEX
8
1
10
6.874446
20
17.521011
42
-0.229439
0
VERTEX
8
1
10
7.048739
20
17.750324
42
-0.171265
0
VERTEX
8
1
10
7.245890
20
17.758047
42
-0.075052
0
VERTEX
8
1
10
7.417682
20
17.691681
42
-0.009801
0
VERTEX
8
1
10
7.918976
20
17.382805
0
VERTEX
8
1
10
7.941892
20
17.362099
42
-0.012088
0
VERTEX
8
1
10
7.679328
20
16.640030
42
0.014032
0
SEQEND
0
POLYLINE
8
1
66
1
70
1
0
VERTEX
8
1
10
7.817554
20
16.410019
42
0.003614
0
VERTEX
8
1
10
8.121703
20
17.246796
0
VERTEX
8
1
10
8.231392
20
17.196747
42
0.046796
0
VERTEX
8
1
10
8.936916
20
16.862335
42
0.037822
0
VERTEX
8
1
10
9.143169
20
16.815361
0
VERTEX
8
1
10
9.230148
20
16.811035
0
VERTEX
8
1
10
9.246159
20
16.795799
42
-0.177061
0
VERTEX
8
1
10
9.044338
20
16.660706
42
-0.079620
0
VERTEX
8
1
10
8.910172
20
16.614334
42
-0.100713
0
VERTEX
8
1
10
8.730106
20
16.651596
42
-0.161641
0
VERTEX
8
1
10
8.614349
20
16.702255
42
-0.096272
0
VERTEX
8
1
10
8.508340
20
16.787615
42
0.577239
0
VERTEX
8
1
10
8.452606
20
16.758476
42
-0.079440
0
VERTEX
8
1
10
8.440746
20
16.693314
42
0.176014
0
VERTEX
8
1
10
8.495605
20
16.584322
0
VERTEX
8
1
10
8.498004
20
16.578194
0
VERTEX
8
1
10
8.498257
20
16.571617
42
0.125456
0
VERTEX
8
1
10
8.425980
20
16.557098
42
0.173321
0
VERTEX
8
1
10
8.373992
20
16.537178
42
0.363864
0
VERTEX
8
1
10
8.395622
20
16.517319
42
-0.037668
0
VERTEX
8
1
10
8.461651
20
16.478836
0
VERTEX
8
1
10
8.463177
20
16.474869
42
-0.118067
0
VERTEX
8
1
10
8.423630
20
16.450394
42
0.013448
0
VERTEX
8
1
10
8.307564
20
16.365494
0
VERTEX
8
1
10
8.306393
20
16.359955
0
VERTEX
8
1
10
8.308270
20
16.355011
42
0.225046
0
VERTEX
8
1
10
8.387836
20
16.345085
42
-0.037008
0
VERTEX
8
1
10
8.442677
20
16.335258
42
-0.874963
0
VERTEX
8
1
10
8.463749
20
16.312637
42
-0.081651
0
VERTEX
8
1
10
8.350231
20
16.134232
42
0.033568
0
VERTEX
8
1
10
8.180283
20
15.885063
0
VERTEX
8
1
10
8.176620
20
15.873375
0
VERTEX
8
1
10
8.179913
20
15.866936
42
0.055982
0
VERTEX
8
1
10
8.303761
20
15.888123
42
0.080048
0
VERTEX
8
1
10
8.352802
20
15.941063
0
VERTEX
8
1
10
8.359524
20
15.944832
42
-0.180229
0
VERTEX
8
1
10
8.330474
20
15.843569
42
0.115800
0
VERTEX
8
1
10
8.302448
20
15.739761
0
VERTEX
8
1
10
8.307804
20
15.736687
42
0.157441
0
VERTEX
8
1
10
8.371277
20
15.771919
42
0.100404
0
VERTEX
8
1
10
8.563988
20
15.970268
42
-0.067995
0
VERTEX
8
1
10
8.519157
20
15.755341
42
-0.031307
0
VERTEX
8
1
10
8.541050
20
15.569908
42
0.117336
0
VERTEX
8
1
10
8.585621
20
15.611198
42
0.132283
0
VERTEX
8
1
10
8.624119
20
15.655968
42
-0.097463
0
VERTEX
8
1
10
8.598312
20
15.388626
42
0.080279
0
VERTEX
8
1
10
8.607227
20
15.125351
42
0.020220
0
VERTEX
8
1
10
8.625084
20
15.139748
0
VERTEX
8
1
10
8.627621
20
15.136162
42
0.260112
0
VERTEX
8
1
10
8.818855
20
14.932675
42
0.088348
0
VERTEX
8
1
10
9.023899
20
14.888512
0
VERTEX
8
1
10
9.029472
20
14.883911
42
0.006858
0
VERTEX
8
1
10
9.058839
20
14.804747
42
0.431845
0
VERTEX
8
1
10
9.079342
20
14.806953
42
0.093719
0
VERTEX
8
1
10
9.136303
20
14.882889
0
VERTEX
8
1
10
9.145267
20
14.887917
42
0.028024
0
VERTEX
8
1
10
9.299080
20
14.903091
0
VERTEX
8
1
10
9.294709
20
14.897410
42
-0.003171
0
VERTEX
8
1
10
8.814935
20
14.669047
42
-0.088000
0
VERTEX
8
1
10
8.393616
20
14.575020
42
0.096351
0
VERTEX
8
1
10
8.468269
20
14.336578
0
VERTEX
8
1
10
8.477901
20
14.331963
42
-0.135712
0
VERTEX
8
1
10
8.653137
20
14.329041
42
-0.291842
0
VERTEX
8
1
10
8.744614
20
14.190186
42
-0.099089
0
VERTEX
8
1
10
8.635424
20
13.525770
42
-0.097504
0
VERTEX
8
1
10
8.562248
20
13.429657
42
-0.117450
0
VERTEX
8
1
10
8.360020
20
13.359451
0
VERTEX
8
1
10
8.319313
20
13.353500
0
VERTEX
8
1
10
8.303642
20
13.340027
0
VERTEX
8
1
10
8.275585
20
13.197105
0
VERTEX
8
1
10
8.243296
20
13.193644
42
-0.004290
0
VERTEX
8
1
10
7.745611
20
13.255532
0
VERTEX
8
1
10
7.722801
20
13.262596
42
0.337564
0
VERTEX
8
1
10
8.133639
20
13.842842
42
0.136804
0
VERTEX
8
1
10
8.002323
20
14.345344
42
0.081944
0
VERTEX
8
1
10
7.639996
20
14.809898
0
VERTEX
8
1
10
7.632057
20
14.826126
0
VERTEX
8
1
10
8.012371
20
14.889076
42
0.033310
0
VERTEX
8
1
10
8.096706
20
15.037842
0
VERTEX
8
1
10
8.084488
20
15.046280
42
-0.013147
0
VERTEX
8
1
10
7.354321
20
15.044739
0
VERTEX
8
1
10
7.319183
20
15.066205
42
-0.000561
0
SEQEND
0
POLYLINE
8
1
66
1
70
1
0
VERTEX
8
1
10
6.954683
20
14.056426
42
-0.002692
0
VERTEX
8
1
10
7.206100
20
14.757355
42
-0.063975
0
VERTEX
8
1
10
7.363378
20
14.075931
42
-0.093841
0
VERTEX
8
1
10
7.334459
20
13.857973
42
-0.379522
0
VERTEX
8
1
10
7.202227
20
13.809613
42
-0.166641
0
VERTEX
8
1
10
7.065428
20
13.902375
42
-0.060962
0
SEQEND
0
POLYLINE
8
1
66
1
70
1
0
VERTEX
8
1
10
6.938248
20
13.624626
42
0.103183
0
VERTEX
8
1
10
7.257912
20
13.326553
42
-0.040688
0
VERTEX
8
1
10
6.876636
20
13.405314
42
-0.241207
0
VERTEX
8
1
10
6.844141
20
13.460915
42
-0.085000
0
VERTEX
8
1
10
6.853387
20
13.736679
42
0.005463
0
SEQEND
0
POLYLINE
8
1
66
1
70
1
0
VERTEX
8
1
10
10.629128
20
10.695282
0
VERTEX
8
1
10
10.631439
20
10.703163
0
VERTEX
8
1
10
10.444672
20
10.745552
42
-0.201955
0
VERTEX
8
1
10
10.291245
20
10.849556
0
VERTEX
8
1
10
10.283503
20
10.870422
42
0.010483
0
VERTEX
8
1
10
9.850609
20
12.085397
42
0.029724
0
VERTEX
8
1
10
9.570129
20
12.669121
0
VERTEX
8
1
10
9.541843
20
12.703537
42
-0.054191
0
VERTEX
8
1
10
8.803024
20
12.536942
0
VERTEX
8
1
10
8.781807
20
12.520973
42
-0.055478
0
VERTEX
8
1
10
8.643143
20
11.769180
42
-0.056075
0
VERTEX
8
1
10
8.321306
20
10.930821
42
-0.019906
0
VERTEX
8
1
10
8.240337
20
10.800423
0
VERTEX
8
1
10
8.216087
20
10.774704
42
0.014029
0
VERTEX
8
1
10
8.062435
20
10.841545
42
-0.007211
0
VERTEX
8
1
10
7.898028
20
10.617303
42
0.002391
0
VERTEX
8
1
10
8.105747
20
10.576773
42
-0.025977
0
VERTEX
8
1
10
6.254655
20
10.854796
42
-0.019537
0
VERTEX
8
1
10
6.142374
20
10.889648
0
VERTEX
8
1
10
6.152465
20
10.972778
42
-0.020342
0
VERTEX
8
1
10
6.464897
20
12.526352
42
-0.014529
0
VERTEX
8
1
10
6.661877
20
13.191817
0
VERTEX
8
1
10
6.901802
20
13.140152
0
VERTEX
8
1
10
7.221270
20
13.089867
0
VERTEX
8
1
10
7.600937
20
13.045433
0
VERTEX
8
1
10
8.028244
20
13.006592
0
VERTEX
8
1
10
8.490643
20
12.973066
42
0.014764
0
VERTEX
8
1
10
11.946448
20
12.864943
0
VERTEX
8
1
10
12.159668
20
12.867477
0
VERTEX
8
1
10
12.261413
20
12.772883
42
-0.015621
0
VERTEX
8
1
10
12.736703
20
10.810750
42
-0.043719
0
VERTEX
8
1
10
12.770090
20
10.458260
42
-0.004989
0
VERTEX
8
1
10
12.782709
20
9.984222
0
VERTEX
8
1
10
12.764130
20
9.943329
42
-0.034147
0
VERTEX
8
1
10
12.356274
20
9.923645
42
0.130445
0
VERTEX
8
1
10
12.383296
20
9.718261
42
0.075568
0
VERTEX
8
1
10
12.399723
20
9.700386
42
-0.092125
0
VERTEX
8
1
10
12.581017
20
9.664647
42
-0.207876
0
VERTEX
8
1
10
12.635872
20
9.589134
42
-0.106554
0
VERTEX
8
1
10
12.699066
20
8.326744
42
-0.018353
0
VERTEX
8
1
10
12.614250
20
7.864998
0
VERTEX
8
1
10
12.591526
20
7.796595
42
-0.004360
0
VERTEX
8
1
10
11.829206
20
7.777133
0
VERTEX
8
1
10
11.843044
20
7.787346
42
0.167373
0
VERTEX
8
1
10
12.269123
20
8.084252
42
0.123522
0
VERTEX
8
1
10
12.355690
20
8.331804
42
0.267623
0
VERTEX
8
1
10
12.248496
20
8.503992
42
0.095924
0
VERTEX
8
1
10
12.018461
20
8.596418
42
0.102962
0
VERTEX
8
1
10
11.499695
20
8.621117
42
0.145659
0
VERTEX
8
1
10
11.329432
20
8.524573
42
0.222098
0
VERTEX
8
1
10
11.303865
20
8.394279
42
0.233878
0
VERTEX
8
1
10
11.467308
20
8.155334
42
0.044649
0
VERTEX
8
1
10
11.764523
20
8.036500
42
-0.482180
0
VERTEX
8
1
10
11.761410
20
7.987663
42
-0.098768
0
VERTEX
8
1
10
11.652122
20
7.918907
42
-0.130652
0
VERTEX
8
1
10
11.337253
20
7.848409
42
-0.280680
0
VERTEX
8
1
10
11.202412
20
7.973407
42
-0.108277
0
VERTEX
8
1
10
11.151155
20
8.279258
42
-0.070130
0
VERTEX
8
1
10
11.251935
20
9.077278
0
VERTEX
8
1
10
11.257644
20
9.087178
0
VERTEX
8
1
10
11.264469
20
9.096344
42
-0.011684
0
VERTEX
8
1
10
11.699188
20
9.093040
42
-0.234834
0
VERTEX
8
1
10
11.803120
20
8.994812
42
0.031294
0
VERTEX
8
1
10
11.888760
20
8.817268
42
0.313964
0
VERTEX
8
1
10
11.946121
20
8.799896
42
0.077547
0
VERTEX
8
1
10
12.180794
20
8.894241
42
-0.076693
0
VERTEX
8
1
10
12.041004
20
9.371223
42
0.015416
0
VERTEX
8
1
10
12.047562
20
9.649859
42
0.089232
0
VERTEX
8
1
10
12.025127
20
9.723625
0
VERTEX
8
1
10
12.014862
20
9.724098
42
0.082644
0
VERTEX
8
1
10
11.690979
20
9.578491
42
-0.357399
0
VERTEX
8
1
10
11.777718
20
9.351936
0
VERTEX
8
1
10
11.773666
20
9.348083
42
-0.086193
0
VERTEX
8
1
10
11.624771
20
9.326363
42
-0.014241
0
VERTEX
8
1
10
11.329445
20
9.321014
0
VERTEX
8
1
10
11.328556
20
9.328156
42
-0.040802
0
VERTEX
8
1
10
11.569661
20
9.764565
42
0.011988
0
VERTEX
8
1
10
11.606293
20
9.832169
42
0.172379
0
VERTEX
8
1
10
11.576557
20
9.832047
42
-0.016920
0
VERTEX
8
1
10
10.633809
20
9.754449
42
0.492891
0
VERTEX
8
1
10
10.627472
20
9.735237
42
-0.043774
0
VERTEX
8
1
10
10.693336
20
9.367157
0
VERTEX
8
1
10
10.691940
20
9.352623
42
-0.083949
0
VERTEX
8
1
10
10.250843
20
9.437202
0
VERTEX
8
1
10
10.237659
20
9.432434
42
0.086460
0
VERTEX
8
1
10
10.208443
20
9.061532
42
0.410325
0
VERTEX
8
1
10
10.233597
20
9.052338
42
-0.039370
0
VERTEX
8
1
10
10.680008
20
9.121964
0
VERTEX
8
1
10
10.669796
20
9.076851
42
0.086216
0
VERTEX
8
1
10
10.477847
20
8.281637
42
0.101496
0
VERTEX
8
1
10
10.543413
20
7.938351
42
0.158727
0
VERTEX
8
1
10
10.721363
20
7.762833
0
VERTEX
8
1
10
10.706421
20
7.760862
42
-0.001009
0
VERTEX
8
1
10
9.519327
20
7.749990
0
VERTEX
8
1
10
9.541283
20
7.760590
42
0.138191
0
VERTEX
8
1
10
9.997162
20
8.005694
42
0.163608
0
VERTEX
8
1
10
10.144532
20
8.332410
42
0.267946
0
VERTEX
8
1
10
10.036218
20
8.504766
42
0.096428
0
VERTEX
8
1
10
9.804491
20
8.596810
42
0.096176
0
VERTEX
8
1
10
9.303836
20
8.625051
42
0.152087
0
VERTEX
8
1
10
9.117957
20
8.524096
42
0.222091
0
VERTEX
8
1
10
9.092896
20
8.393221
42
0.233641
0
VERTEX
8
1
10
9.257191
20
8.154686
42
0.042919
0
VERTEX
8
1
10
9.553463
20
8.036446
42
-0.481826
0
VERTEX
8
1
10
9.550026
20
7.987381
42
-0.098058
0
VERTEX
8
1
10
9.440292
20
7.918587
42
-0.117213
0
VERTEX
8
1
10
9.142387
20
7.846123
42
-0.310274
0
VERTEX
8
1
10
8.990666
20
7.974845
42
-0.091436
0
VERTEX
8
1
10
8.941841
20
8.208359
42
-0.075329
0
VERTEX
8
1
10
9.039830
20
9.075603
42
-0.090057
0
VERTEX
8
1
10
9.055622
20
9.096345
42
-0.012160
0
VERTEX
8
1
10
9.488468
20
9.092964
42
-0.233742
0
VERTEX
8
1
10
9.592331
20
8.994156
42
0.058632
0
VERTEX
8
1
10
9.686562
20
8.807991
42
0.220025
0
VERTEX
8
1
10
9.775875
20
8.808716
42
0.037673
0
VERTEX
8
1
10
9.964157
20
8.889130
0
VERTEX
8
1
10
9.969372
20
8.894859
42
-0.076750
0
VERTEX
8
1
10
9.829857
20
9.371590
42
0.015823
0
VERTEX
8
1
10
9.836380
20
9.650277
42
0.089606
0
VERTEX
8
1
10
9.813850
20
9.723885
0
VERTEX
8
1
10
9.803181
20
9.724030
42
0.076316
0
VERTEX
8
1
10
9.499519
20
9.594025
0
VERTEX
8
1
10
9.480431
20
9.578049
42
-0.357350
0
VERTEX
8
1
10
9.566486
20
9.351776
0
VERTEX
8
1
10
9.562298
20
9.347923
0
VERTEX
8
1
10
9.554871
20
9.344330
42
-0.058798
0
VERTEX
8
1
10
9.227674
20
9.321110
42
-0.004829
0
VERTEX
8
1
10
9.118065
20
9.321014
0
VERTEX
8
1
10
9.117798
20
9.328987
42
-0.041368
0
VERTEX
8
1
10
9.372768
20
9.786821
0
VERTEX
8
1
10
9.384185
20
9.809392
0
VERTEX
8
1
10
9.394020
20
9.832695
42
0.081879
0
VERTEX
8
1
10
9.314340
20
9.825913
42
-0.013775
0
VERTEX
8
1
10
8.419457
20
9.752913
42
0.405069
0
VERTEX
8
1
10
8.416367
20
9.735107
42
-0.043973
0
VERTEX
8
1
10
8.482243
20
9.366501
0
VERTEX
8
1
10
8.479202
20
9.352707
42
-0.084721
0
VERTEX
8
1
10
8.038692
20
9.437630
0
VERTEX
8
1
10
8.026325
20
9.431763
42
0.086705
0
VERTEX
8
1
10
7.997521
20
9.061193
42
0.423145
0
VERTEX
8
1
10
8.024078
20
9.052711
42
-0.039466
0
VERTEX
8
1
10
8.469940
20
9.122017
0
VERTEX
8
1
10
8.457508
20
9.073997
42
0.086419
0
VERTEX
8
1
10
8.266674
20
8.279460
42
0.103143
0
VERTEX
8
1
10
8.334118
20
7.935009
42
0.180976
0
VERTEX
8
1
10
8.546371
20
7.746559
0
VERTEX
8
1
10
8.541565
20
7.744232
0
VERTEX
8
1
10
8.010284
20
7.742256
0
VERTEX
8
1
10
8.002045
20
7.762703
42
0.040928
0
VERTEX
8
1
10
7.980087
20
8.056877
42
0.457558
0
VERTEX
8
1
10
7.955986
20
8.064972
42
-0.150009
0
VERTEX
8
1
10
7.765427
20
8.031624
42
-0.285498
0
VERTEX
8
1
10
7.676128
20
8.134064
42
-0.076040
0
VERTEX
8
1
10
7.653488
20
8.426147
42
-0.039447
0
VERTEX
8
1
10
7.749083
20
9.207757
42
-0.002631
0
VERTEX
8
1
10
7.828613
20
9.509186
42
0.167264
0
VERTEX
8
1
10
7.982841
20
9.611969
42
0.337035
0
VERTEX
8
1
10
7.911116
20
9.803909
42
0.153548
0
VERTEX
8
1
10
7.563394
20
9.946499
42
0.101833
0
VERTEX
8
1
10
7.058430
20
9.913940
42
0.146487
0
VERTEX
8
1
10
6.943260
20
9.827324
0
VERTEX
8
1
10
6.932270
20
9.803696
42
0.371284
0
VERTEX
8
1
10
7.090904
20
9.497162
42
0.117880
0
VERTEX
8
1
10
7.363415
20
9.436371
42
0.051386
0
VERTEX
8
1
10
7.644642
20
9.459885
42
0.001995
0
VERTEX
8
1
10
7.139770
20
9.217289
42
-0.086020
0
VERTEX
8
1
10
6.699184
20
9.115273
42
0.090736
0
VERTEX
8
1
10
6.771290
20
8.887024
0
VERTEX
8
1
10
6.779207
20
8.881027
42
-0.159402
0
VERTEX
8
1
10
6.965105
20
8.874840
42
-0.257957
0
VERTEX
8
1
10
7.048355
20
8.746048
42
-0.113259
0
VERTEX
8
1
10
6.924860
20
8.035826
42
-0.202195
0
VERTEX
8
1
10
6.781593
20
7.928879
42
-0.047559
0
VERTEX
8
1
10
6.632242
20
7.896141
0
VERTEX
8
1
10
6.610832
20
7.890106
0
VERTEX
8
1
10
6.582253
20
7.744370
0
VERTEX
8
1
10
6.563065
20
7.742821
42
-0.005580
0
VERTEX
8
1
10
6.298260
20
7.746239
42
0.190977
0
VERTEX
8
1
10
6.490957
20
8.678206
42
0.130417
0
VERTEX
8
1
10
6.399992
20
8.837051
42
0.220330
0
VERTEX
8
1
10
6.154810
20
8.896516
42
0.032090
0
VERTEX
8
1
10
6.054214
20
8.878508
42
-0.010170
0
VERTEX
8
1
10
6.056942
20
9.217070
42
-0.034515
0
VERTEX
8
1
10
6.109045
20
10.638647
0
VERTEX
8
1
10
6.233829
20
10.610519
42
0.026517
0
VERTEX
8
1
10
7.262068
20
10.475967
42
0.011340
0
VERTEX
8
1
10
8.845875
20
10.379738
0
VERTEX
8
1
10
8.938541
20
10.349396
0
VERTEX
8
1
10
8.938830
20
10.376405
42
0.014697
0
VERTEX
8
1
10
10.539533
20
10.356549
0
VERTEX
8
1
10
10.563865
20
10.359466
0
VERTEX
8
1
10
10.588020
20
10.363586
42
0.401190
0
VERTEX
8
1
10
10.602673
20
10.449112
42
0.074338
0
VERTEX
8
1
10
10.544102
20
10.528809
0
VERTEX
8
1
10
10.544155
20
10.543144
42
0.004043
0
SEQEND
0
POLYLINE
8
1
66
1
70
1
0
VERTEX
8
1
10
8.836082
20
10.679535
42
-0.031227
0
VERTEX
8
1
10
8.552608
20
10.706917
0
VERTEX
8
1
10
8.552101
20
10.717278
42
0.059216
0
VERTEX
8
1
10
8.746162
20
11.180746
42
0.008949
0
VERTEX
8
1
10
8.792927
20
11.334221
0
VERTEX
8
1
10
8.828732
20
11.341627
42
0.003247
0
VERTEX
8
1
10
9.500225
20
11.269928
42
-0.074045
0
VERTEX
8
1
10
9.542543
20
10.851803
42
-0.028843
0
VERTEX
8
1
10
9.518665
20
10.485550
42
-0.010758
0
VERTEX
8
1
10
8.965530
20
10.505829
0
VERTEX
8
1
10
8.945816
20
10.512459
42
-0.015481
0
VERTEX
8
1
10
8.964569
20
10.672623
42
-0.002731
0
SEQEND
0
POLYLINE
8
1
66
1
70
1
0
VERTEX
8
1
10
8.841274
20
11.780922
42
-0.225051
0
VERTEX
8
1
10
8.941223
20
11.975571
42
-0.258446
0
VERTEX
8
1
10
9.490250
20
12.089327
42
-0.317522
0
VERTEX
8
1
10
9.586536
20
11.928879
42
-0.382655
0
VERTEX
8
1
10
9.354456
20
11.628566
42
-0.142921
0
VERTEX
8
1
10
8.934182
20
11.637424
42
-0.305657
0
SEQEND
0
POLYLINE
8
1
66
1
70
1
0
VERTEX
8
1
10
5.899668
20
2.074165
42
-0.043591
0
VERTEX
8
1
10
6.004505
20
2.092346
42
0.107310
0
VERTEX
8
1
10
6.249147
20
1.702507
42
-0.179196
0
VERTEX
8
1
10
6.016359
20
1.591225
42
-0.099813
0
VERTEX
8
1
10
5.688849
20
1.605298
42
-0.176319
0
VERTEX
8
1
10
5.585087
20
1.691261
42
-0.323557
0
VERTEX
8
1
10
5.660158
20
1.943192
42
-0.123927
0
SEQEND
0
POLYLINE
8
1
66
1
70
1
0
VERTEX
8
1
10
10.380310
20
1.045349
42
-0.552417
0
VERTEX
8
1
10
10.416443
20
1.024429
42
-0.273248
0
VERTEX
8
1
10
10.342063
20
0.816797
42
-0.148935
0
VERTEX
8
1
10
10.072639
20
0.676509
42
-0.093496
0
VERTEX
8
1
10
9.653365
20
0.654750
42
-0.283581
0
VERTEX
8
1
10
9.345466
20
0.944750
42
-0.046603
0
VERTEX
8
1
10
9.322019
20
1.046976
42
-0.001667
0
VERTEX
8
1
10
9.613987
20
1.047791
42
0.252554
0
VERTEX
8
1
10
9.970126
20
0.898617
42
0.150062
0
SEQEND
0
POLYLINE
8
1
66
1
70
1
0
VERTEX
8
1
10
11.058323
20
1.117165
0
VERTEX
8
1
10
11.244507
20
1.139442
42
0.048949
0
VERTEX
8
1
10
12.212788
20
1.341934
0
VERTEX
8
1
10
12.245628
20
1.345512
42
-0.189730
0
VERTEX
8
1
10
12.360977
20
1.243073
42
-0.276352
0
VERTEX
8
1
10
12.322964
20
1.085793
42
-0.097046
0
VERTEX
8
1
10
12.161795
20
0.960851
42
-0.216393
0
VERTEX
8
1
10
11.145556
20
0.858440
42
-0.097771
0
VERTEX
8
1
10
11.031384
20
0.936111
42
-0.352350
0
VERTEX
8
1
10
11.041662
20
1.094934
42
-0.027039
0
SEQEND
0
POLYLINE
8
1
66
1
70
1
0
VERTEX
8
1
10
12.690735
20
2.142433
42
0.079151
0
VERTEX
8
1
10
12.655807
20
1.948219
42
-0.088799
0
VERTEX
8
1
10
12.527458
20
1.749680
0
VERTEX
8
1
10
12.519516
20
1.744667
42
0.189075
0
VERTEX
8
1
10
12.269854
20
1.914778
42
0.084962
0
VERTEX
8
1
10
11.889854
20
1.954773
42
0.107544
0
VERTEX
8
1
10
11.253863
20
1.828911
42
0.168480
0
VERTEX
8
1
10
10.776718
20
1.355530
0
VERTEX
8
1
10
10.766273
20
1.344849
42
-0.003535
0
VERTEX
8
1
10
10.585083
20
1.320404
42
0.137954
0
VERTEX
8
1
10
10.496593
20
1.523964
42
0.235514
0
VERTEX
8
1
10
10.258137
20
1.600227
42
0.131946
0
VERTEX
8
1
10
9.701052
20
1.384213
42
0.108046
0
VERTEX
8
1
10
9.586658
20
1.239662
0
VERTEX
8
1
10
9.572533
20
1.235489
42
-0.006968
0
VERTEX
8
1
10
9.301910
20
1.228470
42
-0.061721
0
VERTEX
8
1
10
9.366093
20
1.765221
42
-0.052996
0
VERTEX
8
1
10
9.606663
20
2.521141
0
VERTEX
8
1
10
9.554783
20
2.547338
42
-0.009761
0
VERTEX
8
1
10
8.384483
20
2.664627
0
VERTEX
8
1
10
8.383018
20
2.661888
42
0.160499
0
VERTEX
8
1
10
8.402526
20
2.481993
42
0.101085
0
VERTEX
8
1
10
8.413497
20
2.475005
42
0.001081
0
VERTEX
8
1
10
8.588903
20
2.443356
42
-0.358190
0
VERTEX
8
1
10
8.679508
20
2.306366
0
VERTEX
8
1
10
8.679234
20
2.271676
42
0.039799
0
VERTEX
8
1
10
8.712685
20
1.243772
0
VERTEX
8
1
10
8.562984
20
1.245636
42
-0.058048
0
VERTEX
8
1
10
7.087727
20
1.496041
42
-0.029902
0
VERTEX
8
1
10
6.743276
20
1.629951
42
0.043068
0
VERTEX
8
1
10
6.298729
20
2.649070
0
VERTEX
8
1
10
6.277475
20
2.683975
0
VERTEX
8
1
10
6.232252
20
2.669083
42
-0.008313
0
VERTEX
8
1
10
6.173841
20
3.933289
42
0.004762
0
VERTEX
8
1
10
6.768551
20
3.921829
42
0.067262
0
VERTEX
8
1
10
7.160204
20
3.923381
42
0.001057
0
VERTEX
8
1
10
7.730337
20
3.925235
0
VERTEX
8
1
10
7.740124
20
3.921219
42
0.016501
0
VERTEX
8
1
10
7.726006
20
3.842621
42
-0.053563
0
VERTEX
8
1
10
7.902000
20
3.924217
0
VERTEX
8
1
10
7.951816
20
3.926545
42
0.000416
0
VERTEX
8
1
10
8.998577
20
3.934731
42
0.222772
0
VERTEX
8
1
10
9.564106
20
3.940544
42
-0.014615
0
VERTEX
8
1
10
9.968376
20
3.943756
42
0.075731
0
VERTEX
8
1
10
9.944057
20
3.812927
42
0.386411
0
VERTEX
8
1
10
9.959583
20
3.816673
42
-0.026564
0
VERTEX
8
1
10
10.208023
20
3.948792
0
VERTEX
8
1
10
10.880497
20
3.957451
0
VERTEX
8
1
10
10.901337
20
3.955139
42
0.153330
0
VERTEX
8
1
10
10.902401
20
3.779945
42
0.230624
0
VERTEX
8
1
10
11.151664
20
3.444882
42
0.111085
0
VERTEX
8
1
10
11.579767
20
3.311912
42
0.098998
0
VERTEX
8
1
10
12.455545
20
3.374556
42
0.184920
0
VERTEX
8
1
10
12.790878
20
3.652565
0
VERTEX
8
1
10
12.798194
20
3.653788
42
0.011917
0
VERTEX
8
1
10
12.811199
20
2.705673
42
-0.071289
0
VERTEX
8
1
10
12.724472
20
2.128952
42
-0.011997
0
SEQEND
0
POLYLINE
8
1
66
1
70
1
0
VERTEX
8
1
10
13.094547
20
6.073334
42
-0.194098
0
VERTEX
8
1
10
13.205051
20
6.020050
42
-0.172810
0
VERTEX
8
1
10
13.225994
20
5.909424
42
0.048934
0
VERTEX
8
1
10
13.410353
20
4.394921
42
0.010613
0
VERTEX
8
1
10
13.445049
20
4.271599
42
0.181520
0
VERTEX
8
1
10
13.105409
20
4.307180
42
0.009864
0
VERTEX
8
1
10
13.058384
20
4.298157
0
VERTEX
8
1
10
13.053606
20
4.347191
42
0.000213
0
VERTEX
8
1
10
13.050831
20
6.080986
42
-0.006815
0
SEQEND
0
POLYLINE
8
1
66
1
70
1
0
VERTEX
8
1
10
14.880047
20
9.055000
42
-0.165619
0
VERTEX
8
1
10
15.033794
20
8.963310
42
-0.511106
0
VERTEX
8
1
10
14.959410
20
8.784166
42
-0.096152
0
VERTEX
8
1
10
14.797501
20
8.754692
42
-0.070209
0
VERTEX
8
1
10
14.314629
20
8.801892
42
-0.149840
0
VERTEX
8
1
10
14.199923
20
8.883873
0
VERTEX
8
1
10
14.194808
20
8.895925
42
-0.347112
0
VERTEX
8
1
10
14.220089
20
8.986053
42
-0.122454
0
VERTEX
8
1
10
14.275913
20
9.016769
42
-0.121858
0
VERTEX
8
1
10
14.841469
20
9.063303
0
SEQEND
0
POLYLINE
8
1
66
1
0
VERTEX
8
1
10
11.189240
20
1.320618
42
-0.251216
0
VERTEX
8
1
10
11.699729
20
1.601430
42
-0.111491
0
VERTEX
8
1
10
11.983353
20
1.534126
0
VERTEX
8
1
10
12.050350
20
1.501175
0
SEQEND
0
POLYLINE
8
1
66
1
0
VERTEX
8
1
10
12.869793
20
4.737282
42
-0.119237
0
VERTEX
8
1
10
12.908805
20
4.052448
42
-0.057166
0
VERTEX
8
1
10
12.842014
20
3.862282
0
SEQEND
0
POLYLINE
8
1
66
1
0
VERTEX
8
1
10
6.675348
20
13.959503
42
-0.166777
0
VERTEX
8
1
10
6.695172
20
13.667645
42
-0.122690
0
VERTEX
8
1
10
6.527178
20
13.321823
0
VERTEX
8
1
10
6.480906
20
13.265060
0
SEQEND
0
POLYLINE
8
1
66
1
0
VERTEX
8
1
10
6.141197
20
2.107498
42
-0.251370
0
VERTEX
8
1
10
6.317714
20
1.999668
42
-0.163220
0
VERTEX
8
1
10
6.335642
20
1.866753
0
SEQEND
0
POLYLINE
8
1
66
1
0
VERTEX
8
1
10
5.943098
20
4.327766
42
0.187834
0
VERTEX
8
1
10
6.070544
20
4.460954
42
0.221699
0
VERTEX
8
1
10
6.050619
20
4.564720
0
VERTEX
8
1
10
6.026676
20
4.596283
0
SEQEND
0
POLYLINE
8
1
66
1
0
VERTEX
8
1
10
10.916462
20
19.608566
42
0.057760
0
VERTEX
8
1
10
11.221920
20
19.119743
42
0.119106
0
VERTEX
8
1
10
11.257792
20
19.195723
42
-0.336817
0
VERTEX
8
1
10
11.299965
20
19.216820
42
0.175231
0
VERTEX
8
1
10
11.387209
20
19.074579
42
-0.118938
0
VERTEX
8
1
10
11.434927
20
18.982101
42
0.088167
0
VERTEX
8
1
10
11.482899
20
18.893875
0
VERTEX
8
1
10
11.493519
20
18.888466
42
0.093505
0
VERTEX
8
1
10
11.496754
20
18.977402
42
-0.102685
0
VERTEX
8
1
10
11.524590
20
19.066055
42
0.137655
0
VERTEX
8
1
10
11.527573
20
19.108566
0
SEQEND
0
POLYLINE
8
1
66
1
0
VERTEX
8
1
10
13.638683
20
20.525238
42
-0.358483
0
VERTEX
8
1
10
13.696369
20
20.460655
0
VERTEX
8
1
10
13.691677
20
20.447914
0
VERTEX
8
1
10
13.683941
20
20.446732
0
VERTEX
8
1
10
13.677307
20
20.450073
42
0.185590
0
VERTEX
8
1
10
13.600330
20
20.488724
42
-0.080045
0
VERTEX
8
1
10
13.471748
20
20.469311
42
0.174748
0
VERTEX
8
1
10
13.428375
20
20.442543
42
0.084478
0
VERTEX
8
1
10
13.453827
20
20.395775
42
-0.146288
0
VERTEX
8
1
10
13.519062
20
20.351517
42
0.191489
0
VERTEX
8
1
10
13.482775
20
20.340254
42
-0.285337
0
VERTEX
8
1
10
13.387058
20
20.351189
42
0.200539
0
VERTEX
8
1
10
13.260947
20
20.344673
42
-0.045599
0
VERTEX
8
1
10
13.189419
20
20.331985
0
VERTEX
8
1
10
13.183388
20
20.325211
42
-0.062066
0
VERTEX
8
1
10
13.288605
20
20.211594
0
VERTEX
8
1
10
13.301331
20
20.186432
0
VERTEX
8
1
10
13.305599
20
20.163063
0
VERTEX
8
1
10
13.299004
20
20.148735
42
0.158582
0
VERTEX
8
1
10
13.164482
20
20.166107
42
0.354378
0
VERTEX
8
1
10
13.136826
20
20.099777
42
-0.022908
0
VERTEX
8
1
10
13.141052
20
19.934425
42
-0.019059
0
VERTEX
8
1
10
13.110493
20
19.851738
42
0.128229
0
VERTEX
8
1
10
13.052261
20
19.980509
42
-0.161272
0
VERTEX
8
1
10
13.027573
20
20.080788
0
SEQEND
0
POLYLINE
8
1
66
1
0
VERTEX
8
1
10
12.610909
20
19.969681
42
-0.035024
0
VERTEX
8
1
10
12.797793
20
19.880293
42
-0.071637
0
VERTEX
8
1
10
12.826794
20
19.848511
0
VERTEX
8
1
10
12.825768
20
19.834801
42
-0.048179
0
VERTEX
8
1
10
12.711826
20
19.828884
0
VERTEX
8
1
10
12.701637
20
19.826675
0
VERTEX
8
1
10
12.701572
20
19.812592
42
0.090083
0
VERTEX
8
1
10
12.796732
20
19.727318
42
-0.092581
0
VERTEX
8
1
10
12.828373
20
19.688171
0
VERTEX
8
1
10
12.824860
20
19.674286
0
VERTEX
8
1
10
12.807236
20
19.662048
0
VERTEX
8
1
10
12.794544
20
19.658203
42
-0.060578
0
VERTEX
8
1
10
12.647820
20
19.663887
42
0.055315
0
VERTEX
8
1
10
12.480034
20
19.660042
0
VERTEX
8
1
10
12.477104
20
19.650162
0
VERTEX
8
1
10
12.483570
20
19.636993
42
0.037390
0
VERTEX
8
1
10
12.570072
20
19.547554
42
-0.124388
0
VERTEX
8
1
10
12.477997
20
19.571640
42
0.048674
0
VERTEX
8
1
10
12.268761
20
19.635971
0
VERTEX
8
1
10
12.249798
20
19.636345
0
SEQEND
0
POLYLINE
8
1
66
1
0
VERTEX
8
1
10
8.805351
20
15.303009
42
0.062819
0
VERTEX
8
1
10
8.878712
20
15.112915
0
VERTEX
8
1
10
8.884811
20
15.122902
42
-0.064360
0
VERTEX
8
1
10
8.934155
20
15.242615
0
VERTEX
8
1
10
8.941547
20
15.264038
42
-0.159255
0
VERTEX
8
1
10
8.999106
20
15.384050
42
0.112159
0
VERTEX
8
1
10
9.005978
20
15.410622
42
-0.382588
0
VERTEX
8
1
10
9.043365
20
15.372337
42
0.218694
0
VERTEX
8
1
10
9.071942
20
15.337853
42
0.060396
0
VERTEX
8
1
10
9.133049
20
15.305779
42
0.087730
0
VERTEX
8
1
10
9.138683
20
15.403419
0
VERTEX
8
1
10
9.138683
20
15.386345
0
SEQEND
0
POLYLINE
8
1
66
1
0
VERTEX
8
1
10
9.583130
20
15.358566
42
0.103207
0
VERTEX
8
1
10
9.558044
20
15.254478
0
VERTEX
8
1
10
9.555168
20
15.199219
0
VERTEX
8
1
10
9.554729
20
15.175888
42
-0.070831
0
VERTEX
8
1
10
9.696508
20
15.257819
42
0.129807
0
VERTEX
8
1
10
9.724701
20
15.290070
42
0.558395
0
VERTEX
8
1
10
9.736237
20
15.296127
0
VERTEX
8
1
10
9.722019
20
15.303009
0
SEQEND
0
POLYLINE
8
1
66
1
70
1
0
VERTEX
8
1
10
28.891926
20
10.247620
0
VERTEX
8
1
10
28.879810
20
10.296211
42
0.013546
0
VERTEX
8
1
10
28.862473
20
10.990677
0
VERTEX
8
1
10
28.855209
20
11.059326
42
0.042252
0
VERTEX
8
1
10
28.630028
20
12.537888
0
VERTEX
8
1
10
28.553513
20
12.845215
0
VERTEX
8
1
10
28.460087
20
13.181564
0
VERTEX
8
1
10
28.412952
20
13.373116
42
0.083518
0
VERTEX
8
1
10
28.775200
20
13.332924
42
0.093230
0
VERTEX
8
1
10
29.272451
20
13.420557
42
0.214092
0
VERTEX
8
1
10
29.565313
20
13.758976
42
0.316041
0
VERTEX
8
1
10
29.459267
20
14.003883
0
VERTEX
8
1
10
29.422169
20
14.025902
0
VERTEX
8
1
10
29.379734
20
14.045700
42
0.136174
0
VERTEX
8
1
10
28.774233
20
14.095329
42
0.152929
0
VERTEX
8
1
10
28.620193
20
13.997214
42
0.221130
0
VERTEX
8
1
10
28.603697
20
13.860992
42
0.224229
0
VERTEX
8
1
10
28.780931
20
13.630131
42
0.087973
0
VERTEX
8
1
10
29.015570
20
13.542646
42
-0.656551
0
VERTEX
8
1
10
29.010933
20
13.519875
42
-0.450976
0
VERTEX
8
1
10
28.444605
20
13.759586
0
VERTEX
8
1
10
28.432083
20
13.794597
0
VERTEX
8
1
10
28.421566
20
13.830260
42
-0.092550
0
VERTEX
8
1
10
28.409403
20
14.340637
42
-0.382992
0
VERTEX
8
1
10
28.438168
20
14.351289
42
-0.014097
0
VERTEX
8
1
10
29.687408
20
14.138649
42
0.335078
0
VERTEX
8
1
10
29.693336
20
14.148460
42
0.092343
0
VERTEX
8
1
10
29.654959
20
14.634121
42
0.239386
0
VERTEX
8
1
10
29.334805
20
14.940344
42
0.075482
0
VERTEX
8
1
10
29.040867
20
15.002011
42
0.086449
0
VERTEX
8
1
10
28.222441
20
14.936026
42
0.100511
0
VERTEX
8
1
10
27.911873
20
14.768631
0
VERTEX
8
1
10
27.892647
20
14.797517
42
0.009022
0
VERTEX
8
1
10
27.468136
20
15.785217
42
-0.026039
0
VERTEX
8
1
10
27.576900
20
15.820412
0
VERTEX
8
1
10
27.583160
20
15.825081
0
VERTEX
8
1
10
27.581791
20
15.832817
42
0.153390
0
VERTEX
8
1
10
27.468515
20
15.952019
42
-0.045533
0
VERTEX
8
1
10
27.455181
20
15.967224
0
VERTEX
8
1
10
27.459187
20
15.974678
42
-0.186154
0
VERTEX
8
1
10
27.692404
20
15.946803
42
-0.029411
0
VERTEX
8
1
10
27.743870
20
15.921272
42
0.246050
0
VERTEX
8
1
10
27.853542
20
15.948006
42
-0.133840
0
VERTEX
8
1
10
27.844788
20
15.993950
0
VERTEX
8
1
10
27.850742
20
15.997856
0
VERTEX
8
1
10
27.871239
20
16.000824
42
-0.034476
0
VERTEX
8
1
10
28.159639
20
15.999563
0
VERTEX
8
1
10
28.170715
20
16.002411
42
0.002739
0
VERTEX
8
1
10
28.163544
20
16.023232
0
VERTEX
8
1
10
28.170208
20
16.026688
42
0.090966
0
VERTEX
8
1
10
28.048630
20
16.140633
42
-0.044301
0
VERTEX
8
1
10
27.942291
20
16.255508
0
VERTEX
8
1
10
27.943039
20
16.260483
42
-0.126312
0
VERTEX
8
1
10
27.980999
20
16.287636
42
0.344234
0
VERTEX
8
1
10
27.892159
20
16.392426
42
-0.160060
0
VERTEX
8
1
10
27.689268
20
16.525936
0
VERTEX
8
1
10
27.683556
20
16.535654
0
VERTEX
8
1
10
27.678379
20
16.545670
42
-0.224751
0
VERTEX
8
1
10
27.710545
20
16.551689
42
0.179520
0
VERTEX
8
1
10
27.874176
20
16.564087
42
-0.013562
0
VERTEX
8
1
10
27.814346
20
16.681419
42
-0.162940
0
VERTEX
8
1
10
27.837196
20
16.692680
42
0.131690
0
VERTEX
8
1
10
27.980000
20
16.741127
0
VERTEX
8
1
10
27.983315
20
16.747459
42
0.081195
0
VERTEX
8
1
10
27.920969
20
16.791504
42
-0.053695
0
VERTEX
8
1
10
27.801472
20
16.886734
42
0.119979
0
VERTEX
8
1
10
27.671677
20
17.034992
42
-0.111713
0
VERTEX
8
1
10
27.640228
20
17.083107
0
VERTEX
8
1
10
27.641708
20
17.091141
42
0.030397
0
VERTEX
8
1
10
27.722782
20
17.143967
0
VERTEX
8
1
10
27.707748
20
17.163086
42
0.133228
0
VERTEX
8
1
10
27.417686
20
17.288185
0
VERTEX
8
1
10
27.395420
20
17.296127
42
-0.190323
0
VERTEX
8
1
10
27.419041
20
17.380768
42
0.246396
0
VERTEX
8
1
10
27.419643
20
17.472984
42
0.329458
0
VERTEX
8
1
10
27.354000
20
17.462143
42
-0.035050
0
VERTEX
8
1
10
26.981230
20
17.203333
42
-0.119178
0
VERTEX
8
1
10
26.959953
20
17.201767
42
0.122537
0
VERTEX
8
1
10
26.932983
20
17.328873
0
VERTEX
8
1
10
26.924301
20
17.331085
42
0.146811
0
VERTEX
8
1
10
26.835766
20
17.283371
0
VERTEX
8
1
10
26.828560
20
17.281334
42
-0.005386
0
VERTEX
8
1
10
26.778004
20
17.427849
0
VERTEX
8
1
10
26.785275
20
17.430862
42
0.063306
0
VERTEX
8
1
10
26.909103
20
17.426941
0
VERTEX
8
1
10
26.910091
20
17.436020
42
0.125527
0
VERTEX
8
1
10
26.858940
20
17.514259
0
VERTEX
8
1
10
26.854244
20
17.522163
0
VERTEX
8
1
10
26.862587
20
17.526482
42
-0.101202
0
VERTEX
8
1
10
27.085201
20
17.521322
42
0.189221
0
VERTEX
8
1
10
27.164013
20
17.544838
0
VERTEX
8
1
10
27.162430
20
17.550575
42
-0.077474
0
VERTEX
8
1
10
27.085476
20
17.599625
42
-0.473506
0
VERTEX
8
1
10
27.101097
20
17.639351
42
-0.134710
0
VERTEX
8
1
10
27.353409
20
17.784134
0
VERTEX
8
1
10
27.381626
20
17.744324
42
0.191474
0
VERTEX
8
1
10
27.745737
20
17.456507
42
0.296643
0
VERTEX
8
1
10
28.153820
20
17.612356
42
0.067026
0
VERTEX
8
1
10
28.237484
20
17.748238
0
VERTEX
8
1
10
28.250439
20
17.752411
42
0.053920
0
VERTEX
8
1
10
28.359715
20
17.643219
0
VERTEX
8
1
10
28.357479
20
17.632439
42
0.164086
0
VERTEX
8
1
10
28.160801
20
17.480743
0
VERTEX
8
1
10
28.124813
20
17.422112
0
VERTEX
8
1
10
28.094906
20
17.356834
42
0.275407
0
VERTEX
8
1
10
28.265574
20
16.487633
42
0.166007
0
VERTEX
8
1
10
28.535833
20
16.355892
42
0.131587
0
VERTEX
8
1
10
28.701118
20
16.390259
42
0.298496
0
VERTEX
8
1
10
28.875696
20
15.670070
42
0.224616
0
VERTEX
8
1
10
29.164490
20
15.597060
42
0.185699
0
VERTEX
8
1
10
29.352261
20
15.731102
0
VERTEX
8
1
10
29.384388
20
15.782616
42
0.239338
0
VERTEX
8
1
10
29.369122
20
16.396576
0
VERTEX
8
1
10
29.374874
20
16.400223
42
0.272614
0
VERTEX
8
1
10
29.765533
20
16.527519
0
VERTEX
8
1
10
29.809235
20
16.581764
42
0.401178
0
VERTEX
8
1
10
29.636906
20
17.491274
42
0.451942
0
VERTEX
8
1
10
29.029669
20
17.326069
42
0.097845
0
VERTEX
8
1
10
28.956871
20
17.107018
0
VERTEX
8
1
10
28.948097
20
17.118126
42
0.146075
0
VERTEX
8
1
10
28.743256
20
17.516792
0
VERTEX
8
1
10
28.724575
20
17.541107
42
0.217129
0
VERTEX
8
1
10
29.025045
20
17.777702
42
0.028999
0
VERTEX
8
1
10
29.060783
20
17.847549
0
VERTEX
8
1
10
29.090420
20
17.832977
42
0.194319
0
VERTEX
8
1
10
29.462053
20
17.603197
42
0.121568
0
VERTEX
8
1
10
29.650364
20
17.630157
0
VERTEX
8
1
10
29.721333
20
17.667610
0
VERTEX
8
1
10
29.785831
20
17.718735
0
VERTEX
8
1
10
29.843296
20
17.782280
0
VERTEX
8
1
10
29.893131
20
17.857056
42
0.152633
0
VERTEX
8
1
10
30.003340
20
18.438091
42
0.155415
0
VERTEX
8
1
10
29.738764
20
19.075285
42
0.132061
0
VERTEX
8
1
10
29.471437
20
19.242491
42
0.321702
0
VERTEX
8
1
10
29.017727
20
19.061367
42
0.058317
0
VERTEX
8
1
10
28.939587
20
18.922806
0
VERTEX
8
1
10
28.918659
20
18.922646
42
0.128126
0
VERTEX
8
1
10
28.671719
20
19.118027
0
VERTEX
8
1
10
28.651745
20
19.130905
42
0.153238
0
VERTEX
8
1
10
28.846603
20
19.582237
0
VERTEX
8
1
10
28.855671
20
19.593941
42
0.203626
0
VERTEX
8
1
10
29.618105
20
19.278955
42
0.155313
0
VERTEX
8
1
10
29.999241
20
19.420097
0
VERTEX
8
1
10
30.067532
20
19.487701
0
VERTEX
8
1
10
30.123379
20
19.567345
0
VERTEX
8
1
10
30.163593
20
19.654312
0
VERTEX
8
1
10
30.188286
20
19.746803
0
VERTEX
8
1
10
30.197868
20
19.843391
0
VERTEX
8
1
10
30.192745
20
19.942627
0
VERTEX
8
1
10
30.173321
20
20.043083
42
0.172221
0
VERTEX
8
1
10
29.774769
20
20.593292
42
0.071151
0
VERTEX
8
1
10
29.846554
20
20.615128
42
0.128258
0
VERTEX
8
1
10
29.717150
20
20.725275
42
-0.133744
0
VERTEX
8
1
10
29.711346
20
20.737930
42
-0.014009
0
VERTEX
8
1
10
29.806385
20
20.819069
0
VERTEX
8
1
10
29.807781
20
20.826019
0
VERTEX
8
1
10
29.803219
20
20.832512
42
0.145973
0
VERTEX
8
1
10
29.651594
20
20.897301
42
-0.048033
0
VERTEX
8
1
10
29.633610
20
20.906509
0
VERTEX
8
1
10
29.639767
20
20.916985
0
VERTEX
8
1
10
29.655796
20
20.929443
42
-0.156909
0
VERTEX
8
1
10
29.911716
20
20.975487
42
0.282605
0
VERTEX
8
1
10
30.009563
20
21.044182
42
-0.161906
0
VERTEX
8
1
10
29.983334
20
21.083031
0
VERTEX
8
1
10
29.990780
20
21.089996
42
-0.037841
0
VERTEX
8
1
10
30.235729
20
21.198624
42
0.179382
0
VERTEX
8
1
10
30.280090
20
21.217400
42
0.027367
0
VERTEX
8
1
10
30.265289
20
21.232986
0
VERTEX
8
1
10
30.270557
20
21.239342
42
0.086704
0
VERTEX
8
1
10
30.111000
20
21.297783
42
-0.046723
0
VERTEX
8
1
10
29.969185
20
21.362450
42
-0.161440
0
VERTEX
8
1
10
29.993408
20
21.402618
0
VERTEX
8
1
10
29.993908
20
21.406815
42
0.345976
0
VERTEX
8
1
10
29.869503
20
21.467117
42
-0.148073
0
VERTEX
8
1
10
29.638643
20
21.507181
42
-0.042922
0
VERTEX
8
1
10
29.612263
20
21.527924
42
-0.102269
0
VERTEX
8
1
10
29.697083
20
21.557579
42
0.165110
0
VERTEX
8
1
10
29.788528
20
21.619980
42
-0.013454
0
VERTEX
8
1
10
29.691059
20
21.698036
0
VERTEX
8
1
10
29.687595
20
21.704208
42
-0.148862
0
VERTEX
8
1
10
29.742916
20
21.746208
42
0.097962
0
VERTEX
8
1
10
29.817593
20
21.824547
0
VERTEX
8
1
10
29.814735
20
21.830803
42
0.080293
0
VERTEX
8
1
10
29.744469
20
21.845818
42
-0.048636
0
VERTEX
8
1
10
29.595444
20
21.886993
42
0.119916
0
VERTEX
8
1
10
29.415354
20
21.973877
42
-0.121643
0
VERTEX
8
1
10
29.369095
20
22.006691
0
VERTEX
8
1
10
29.369335
20
22.014717
42
0.042447
0
VERTEX
8
1
10
29.423080
20
22.095238
0
VERTEX
8
1
10
29.394600
20
22.107368
42
0.132925
0
VERTEX
8
1
10
29.078564
20
22.105690
0
VERTEX
8
1
10
29.060081
20
22.107613
42
-0.189198
0
VERTEX
8
1
10
29.050079
20
22.187416
42
0.248506
0
VERTEX
8
1
10
29.013683
20
22.278244
42
0.313240
0
VERTEX
8
1
10
28.957798
20
22.240845
42
-0.024892
0
VERTEX
8
1
10
28.730625
20
21.873571
0
VERTEX
8
1
10
28.717308
20
21.859924
0
VERTEX
8
1
10
28.702557
20
21.847839
0
VERTEX
8
1
10
28.696491
20
21.851250
42
0.122470
0
VERTEX
8
1
10
28.620983
20
21.957024
42
0.113397
0
VERTEX
8
1
10
28.587078
20
21.931015
42
0.048793
0
VERTEX
8
1
10
28.500462
20
21.770973
42
-0.186563
0
VERTEX
8
1
10
28.317556
20
21.618216
42
-0.311997
0
VERTEX
8
1
10
28.127266
20
21.699699
42
-0.367851
0
VERTEX
8
1
10
28.195084
20
21.872810
42
-0.044778
0
VERTEX
8
1
10
28.562244
20
22.033516
42
0.298193
0
VERTEX
8
1
10
28.511986
20
22.080860
42
-0.034393
0
VERTEX
8
1
10
28.477169
20
22.100731
0
VERTEX
8
1
10
28.477985
20
22.107330
42
-0.097924
0
VERTEX
8
1
10
28.695217
20
22.194334
42
0.176515
0
VERTEX
8
1
10
28.750050
20
22.240318
0
VERTEX
8
1
10
28.749847
20
22.248505
42
-0.059798
0
VERTEX
8
1
10
28.659580
20
22.262413
42
-0.497647
0
VERTEX
8
1
10
28.655861
20
22.305046
42
-0.205606
0
VERTEX
8
1
10
28.971527
20
22.617432
42
0.070226
0
VERTEX
8
1
10
29.081947
20
22.655617
0
VERTEX
8
1
10
29.078346
20
22.662506
42
0.183687
0
VERTEX
8
1
10
28.776085
20
22.708893
42
-0.026901
0
VERTEX
8
1
10
28.619530
20
22.691353
0
VERTEX
8
1
10
28.604786
20
22.696365
42
-0.271949
0
VERTEX
8
1
10
28.638523
20
22.760977
42
0.061603
0
VERTEX
8
1
10
28.663342
20
22.793411
42
0.280090
0
VERTEX
8
1
10
28.541473
20
22.828201
42
0.013386
0
VERTEX
8
1
10
28.355415
20
22.781334
42
-0.131171
0
VERTEX
8
1
10
28.261429
20
22.758593
42
-0.405222
0
VERTEX
8
1
10
28.239552
20
22.799149
42
-0.045994
0
VERTEX
8
1
10
28.254150
20
22.921982
42
0.147179
0
VERTEX
8
1
10
28.194309
20
22.896156
42
0.173187
0
VERTEX
8
1
10
28.107327
20
22.831573
42
-0.035699
0
VERTEX
8
1
10
28.000450
20
22.708382
42
0.032000
0
VERTEX
8
1
10
27.957409
20
22.841896
0
VERTEX
8
1
10
27.950329
20
22.846573
0
VERTEX
8
1
10
27.938560
20
22.837044
42
0.118757
0
VERTEX
8
1
10
27.776909
20
22.524239
42
0.205153
0
VERTEX
8
1
10
27.717331
20
22.651199
0
VERTEX
8
1
10
27.709988
20
22.647888
42
0.152222
0
VERTEX
8
1
10
27.684898
20
22.560730
42
0.015866
0
VERTEX
8
1
10
27.620777
20
22.184759
42
-0.177237
0
VERTEX
8
1
10
27.507252
20
22.009602
42
-0.706374
0
VERTEX
8
1
10
27.400112
20
22.105064
42
0.054397
0
VERTEX
8
1
10
27.476097
20
22.366028
42
-0.143537
0
VERTEX
8
1
10
27.389954
20
22.369324
42
-0.133895
0
VERTEX
8
1
10
27.441315
20
22.429291
42
0.022018
0
VERTEX
8
1
10
27.586868
20
22.639431
42
0.105782
0
VERTEX
8
1
10
27.608471
20
22.720894
0
VERTEX
8
1
10
27.605282
20
22.725105
42
-0.196171
0
VERTEX
8
1
10
27.505783
20
22.685631
0
VERTEX
8
1
10
27.497162
20
22.689384
42
0.114501
0
VERTEX
8
1
10
27.566956
20
22.880302
42
0.083414
0
VERTEX
8
1
10
27.610466
20
23.183479
42
0.094806
0
VERTEX
8
1
10
27.579918
20
23.275620
42
0.490963
0
VERTEX
8
1
10
27.549259
20
23.263390
42
-0.105497
0
VERTEX
8
1
10
27.394608
20
23.125412
42
0.060318
0
VERTEX
8
1
10
27.292553
20
23.003704
42
-0.047371
0
VERTEX
8
1
10
27.265705
20
22.981033
0
VERTEX
8
1
10
27.262375
20
22.985909
42
0.124413
0
VERTEX
8
1
10
27.227102
20
23.114021
42
0.326361
0
VERTEX
8
1
10
27.206062
20
23.112236
42
-0.043721
0
VERTEX
8
1
10
27.102654
20
22.986084
0
VERTEX
8
1
10
27.094990
20
22.994720
42
0.028910
0
VERTEX
8
1
10
27.028257
20
23.144035
42
0.040126
0
VERTEX
8
1
10
26.939474
20
22.960991
42
0.065495
0
VERTEX
8
1
10
26.914993
20
22.833702
42
-0.072345
0
VERTEX
8
1
10
26.851658
20
22.643250
42
0.185915
0
VERTEX
8
1
10
26.841059
20
22.677795
42
0.035461
0
VERTEX
8
1
10
26.807035
20
22.752577
0
VERTEX
8
1
10
26.804325
20
22.754356
0
VERTEX
8
1
10
26.799137
20
22.738756
42
-0.002792
0
VERTEX
8
1
10
26.715946
20
22.581772
42
-0.075489
0
VERTEX
8
1
10
26.680084
20
22.369934
0
VERTEX
8
1
10
26.676516
20
22.396908
42
0.116292
0
VERTEX
8
1
10
26.535658
20
22.678480
0
VERTEX
8
1
10
26.529991
20
22.681484
0
VERTEX
8
1
10
26.523857
20
22.683357
42
0.204077
0
VERTEX
8
1
10
26.513214
20
22.573296
42
-0.090299
0
VERTEX
8
1
10
26.505901
20
22.481834
0
VERTEX
8
1
10
26.498283
20
22.469765
42
0.011160
0
VERTEX
8
1
10
26.473232
20
22.537407
42
0.093602
0
VERTEX
8
1
10
26.366982
20
22.604713
0
VERTEX
8
1
10
26.361176
20
22.616882
42
0.005582
0
VERTEX
8
1
10
26.431152
20
23.110245
0
VERTEX
8
1
10
26.455097
20
23.124107
42
0.062293
0
VERTEX
8
1
10
26.650795
20
23.154251
0
VERTEX
8
1
10
26.656239
20
23.161667
42
0.117107
0
VERTEX
8
1
10
26.686243
20
23.648636
42
0.118421
0
VERTEX
8
1
10
26.639275
20
23.738182
42
0.020993
0
VERTEX
8
1
10
26.487488
20
23.907677
0
VERTEX
8
1
10
26.445950
20
24.447670
0
VERTEX
8
1
10
26.437859
20
24.450768
42
0.051854
0
VERTEX
8
1
10
25.385828
20
24.545931
42
0.023239
0
VERTEX
8
1
10
24.703049
20
24.516983
0
VERTEX
8
1
10
24.444958
20
24.482874
42
0.018979
0
VERTEX
8
1
10
24.372675
20
24.048613
42
0.054995
0
VERTEX
8
1
10
24.380192
20
23.920044
0
VERTEX
8
1
10
24.368046
20
23.892883
42
-0.030747
0
VERTEX
8
1
10
24.158264
20
23.752419
42
0.183480
0
VERTEX
8
1
10
24.100094
20
23.663391
42
0.084371
0
VERTEX
8
1
10
24.076092
20
23.254257
0
VERTEX
8
1
10
24.086845
20
23.204506
0
VERTEX
8
1
10
24.102863
20
23.165810
0
VERTEX
8
1
10
24.124729
20
23.141113
0
VERTEX
8
1
10
24.137806
20
23.135086
42
0.035882
0
VERTEX
8
1
10
24.381161
20
23.116524
0
VERTEX
8
1
10
24.415646
20
23.100128
42
-0.036465
0
VERTEX
8
1
10
24.420113
20
21.220055
0
VERTEX
8
1
10
24.399315
20
20.929398
0
VERTEX
8
1
10
24.202831
20
20.755455
42
0.036947
0
VERTEX
8
1
10
23.314243
20
20.355381
42
0.059545
0
VERTEX
8
1
10
23.086353
20
20.185272
42
0.002099
0
VERTEX
8
1
10
23.029068
20
20.110435
42
0.122391
0
VERTEX
8
1
10
22.228697
20
19.750652
42
0.042335
0
VERTEX
8
1
10
22.081932
20
19.603889
0
VERTEX
8
1
10
22.066547
20
19.595474
42
-0.081928
0
VERTEX
8
1
10
21.396351
20
20.362402
42
-0.131201
0
VERTEX
8
1
10
21.227879
20
21.016060
0
VERTEX
8
1
10
21.248516
20
21.013451
42
0.260310
0
VERTEX
8
1
10
22.453665
20
20.932814
42
0.119019
0
VERTEX
8
1
10
22.633450
20
21.099823
0
VERTEX
8
1
10
22.665234
20
21.166862
42
0.158296
0
VERTEX
8
1
10
22.668720
20
21.365868
0
VERTEX
8
1
10
22.645031
20
21.429329
0
VERTEX
8
1
10
22.611797
20
21.490303
0
VERTEX
8
1
10
22.570751
20
21.548111
42
0.194470
0
VERTEX
8
1
10
21.918209
20
21.891907
42
0.106814
0
VERTEX
8
1
10
21.896696
20
21.977835
0
VERTEX
8
1
10
21.894939
20
21.987499
0
VERTEX
8
1
10
21.895302
20
21.997314
42
0.103665
0
VERTEX
8
1
10
21.994522
20
21.980812
42
0.171649
0
VERTEX
8
1
10
22.075974
20
21.979782
42
0.343156
0
VERTEX
8
1
10
22.061501
20
22.011864
42
-0.049813
0
VERTEX
8
1
10
21.992218
20
22.099030
0
VERTEX
8
1
10
21.991997
20
22.104332
42
-0.106453
0
VERTEX
8
1
10
22.059296
20
22.116760
42
0.009973
0
VERTEX
8
1
10
22.245953
20
22.164185
42
0.484675
0
VERTEX
8
1
10
22.247379
20
22.189529
42
0.180019
0
VERTEX
8
1
10
22.151085
20
22.234276
42
-0.006703
0
VERTEX
8
1
10
22.086823
20
22.274193
42
-0.812169
0
VERTEX
8
1
10
22.071949
20
22.310692
42
-0.084483
0
VERTEX
8
1
10
22.308746
20
22.483459
42
-0.012939
0
VERTEX
8
1
10
22.482286
20
22.591448
42
0.014330
0
VERTEX
8
1
10
22.657209
20
22.719572
42
0.047829
0
VERTEX
8
1
10
22.671093
20
22.739716
42
0.058229
0
VERTEX
8
1
10
22.494289
20
22.777184
42
0.113958
0
VERTEX
8
1
10
22.415298
20
22.738762
0
VERTEX
8
1
10
22.405018
20
22.733940
0
VERTEX
8
1
10
22.395409
20
22.732300
0
VERTEX
8
1
10
22.403679
20
22.757118
42
-0.095899
0
VERTEX
8
1
10
22.525414
20
22.889130
42
0.099047
0
VERTEX
8
1
10
22.570797
20
22.958908
0
VERTEX
8
1
10
22.570953
20
22.972366
0
VERTEX
8
1
10
22.564190
20
22.975578
42
0.091390
0
VERTEX
8
1
10
22.451714
20
22.957642
42
0.082428
0
VERTEX
8
1
10
22.265537
20
22.890663
42
0.097135
0
VERTEX
8
1
10
22.117409
20
22.799423
42
-0.058230
0
VERTEX
8
1
10
22.277170
20
23.043074
42
0.125367
0
VERTEX
8
1
10
22.298149
20
23.111553
42
-0.006276
0
VERTEX
8
1
10
22.347765
20
23.290619
0
VERTEX
8
1
10
22.355011
20
23.304306
0
VERTEX
8
1
10
22.354103
20
23.307640
42
0.163869
0
VERTEX
8
1
10
22.287033
20
23.282547
42
0.100985
0
VERTEX
8
1
10
22.203094
20
23.238731
42
-0.094486
0
VERTEX
8
1
10
22.368977
20
23.564896
42
0.077510
0
VERTEX
8
1
10
22.464611
20
23.791580
42
0.078890
0
VERTEX
8
1
10
22.495556
20
23.913048
42
0.034009
0
VERTEX
8
1
10
22.281757
20
23.821877
0
VERTEX
8
1
10
22.271183
20
23.828171
42
-0.064290
0
VERTEX
8
1
10
22.286221
20
24.031441
0
VERTEX
8
1
10
22.285061
20
24.053574
0
VERTEX
8
1
10
22.276989
20
24.065697
0
VERTEX
8
1
10
22.263302
20
24.069313
0
VERTEX
8
1
10
22.245293
20
24.065903
42
0.088153
0
VERTEX
8
1
10
22.107132
20
23.970009
0
VERTEX
8
1
10
22.100857
20
23.977913
42
-0.088499
0
VERTEX
8
1
10
22.107864
20
24.130310
42
0.129419
0
VERTEX
8
1
10
22.090206
20
24.311424
42
-0.071849
0
VERTEX
8
1
10
22.081373
20
24.551910
42
0.471726
0
VERTEX
8
1
10
22.049683
20
24.563110
0
VERTEX
8
1
10
22.038021
20
24.558914
42
0.146594
0
VERTEX
8
1
10
21.788839
20
24.306816
42
0.001229
0
VERTEX
8
1
10
21.628401
20
24.019964
42
0.075860
0
VERTEX
8
1
10
21.596931
20
23.907303
0
VERTEX
8
1
10
21.589462
20
23.895493
0
VERTEX
8
1
10
21.577576
20
23.900978
0
VERTEX
8
1
10
21.566803
20
23.909599
42
-0.140396
0
VERTEX
8
1
10
21.517235
20
24.035561
42
0.185844
0
VERTEX
8
1
10
21.475895
20
23.976391
42
0.089945
0
VERTEX
8
1
10
21.428989
20
23.770271
42
0.082874
0
VERTEX
8
1
10
21.410913
20
23.514240
42
-0.107532
0
VERTEX
8
1
10
21.398842
20
23.467789
42
-0.117926
0
VERTEX
8
1
10
21.314255
20
23.543587
0
VERTEX
8
1
10
21.308712
20
23.545853
42
0.086279
0
VERTEX
8
1
10
21.264881
20
23.468178
42
0.044614
0
VERTEX
8
1
10
21.132586
20
23.194662
42
-0.726158
0
VERTEX
8
1
10
20.938057
20
23.239990
42
-0.163758
0
VERTEX
8
1
10
20.996990
20
23.503525
42
-0.036468
0
VERTEX
8
1
10
21.112581
20
23.677216
42
0.023535
0
VERTEX
8
1
10
21.276676
20
23.933350
42
0.113415
0
VERTEX
8
1
10
21.339500
20
24.045235
0
VERTEX
8
1
10
21.338612
20
24.057304
0
VERTEX
8
1
10
21.330036
20
24.064072
42
0.204278
0
VERTEX
8
1
10
21.152569
20
23.987457
42
0.111926
0
VERTEX
8
1
10
21.286987
20
24.430084
0
VERTEX
8
1
10
21.285479
20
24.459040
0
VERTEX
8
1
10
21.281616
20
24.487778
42
0.027206
0
VERTEX
8
1
10
21.109962
20
24.392059
0
VERTEX
8
1
10
21.101563
20
24.390610
0
VERTEX
8
1
10
21.099789
20
24.398552
42
-0.028700
0
VERTEX
8
1
10
21.112194
20
24.649628
42
0.129028
0
VERTEX
8
1
10
21.081974
20
24.763718
42
0.124188
0
VERTEX
8
1
10
21.050205
20
24.841995
0
VERTEX
8
1
10
21.045174
20
24.840576
0
VERTEX
8
1
10
20.993389
20
24.767723
42
-0.088175
0
VERTEX
8
1
10
20.925591
20
24.686134
42
-0.412562
0
VERTEX
8
1
10
20.859535
20
24.707146
42
-0.064690
0
VERTEX
8
1
10
20.803822
20
24.812469
42
0.030928
0
VERTEX
8
1
10
20.635122
20
25.056896
42
0.195871
0
VERTEX
8
1
10
20.517719
20
25.099724
0
VERTEX
8
1
10
20.510456
20
25.092728
42
0.024591
0
VERTEX
8
1
10
20.505692
20
24.990341
42
-0.196317
0
VERTEX
8
1
10
20.474457
20
24.940987
42
-0.026845
0
VERTEX
8
1
10
20.263290
20
25.184692
42
0.156434
0
VERTEX
8
1
10
19.959377
20
25.359299
0
VERTEX
8
1
10
19.958973
20
25.349998
42
0.096695
0
VERTEX
8
1
10
20.013187
20
25.245865
42
-0.128788
0
VERTEX
8
1
10
20.103653
20
24.974174
42
-0.135072
0
VERTEX
8
1
10
20.049118
20
24.569931
42
-0.408915
0
VERTEX
8
1
10
20.002186
20
24.563080
42
-0.035166
0
VERTEX
8
1
10
19.908245
20
24.631096
42
0.249549
0
VERTEX
8
1
10
19.920010
20
24.517090
0
VERTEX
8
1
10
19.930405
20
24.497879
42
-0.102328
0
VERTEX
8
1
10
20.054802
20
24.222908
0
VERTEX
8
1
10
20.042912
20
24.223373
42
0.050736
0
VERTEX
8
1
10
19.927578
20
24.248199
0
VERTEX
8
1
10
19.914970
20
24.245758
0
VERTEX
8
1
10
19.903645
20
24.240364
0
VERTEX
8
1
10
19.901791
20
24.227089
0
VERTEX
8
1
10
19.912304
20
24.202728
42
-0.065196
0
VERTEX
8
1
10
20.127361
20
23.684822
42
-0.328594
0
VERTEX
8
1
10
20.017414
20
23.484947
42
-0.445378
0
VERTEX
8
1
10
19.710888
20
23.700718
42
-0.138921
0
VERTEX
8
1
10
19.730051
20
23.962870
42
0.042050
0
VERTEX
8
1
10
19.777201
20
24.157675
42
0.060904
0
VERTEX
8
1
10
19.771259
20
24.202721
0
VERTEX
8
1
10
19.759888
20
24.213127
42
0.122602
0
VERTEX
8
1
10
19.584618
20
24.173981
42
-0.126948
0
VERTEX
8
1
10
19.581272
20
24.260147
42
-0.021418
0
VERTEX
8
1
10
19.696095
20
24.826035
42
0.166865
0
VERTEX
8
1
10
19.683506
20
24.899605
42
0.309227
0
VERTEX
8
1
10
19.633282
20
24.906868
42
0.181807
0
VERTEX
8
1
10
19.518291
20
24.810207
42
-0.170326
0
VERTEX
8
1
10
19.457790
20
24.777802
42
0.089814
0
VERTEX
8
1
10
19.174580
20
25.069263
42
0.039733
0
VERTEX
8
1
10
19.108631
20
25.101135
0
VERTEX
8
1
10
19.083721
20
25.103287
42
0.034992
0
VERTEX
8
1
10
19.063148
20
24.971153
42
-0.195233
0
VERTEX
8
1
10
19.022625
20
24.967499
42
-0.042644
0
VERTEX
8
1
10
18.868855
20
25.028778
42
0.071117
0
VERTEX
8
1
10
18.712914
20
25.061111
0
VERTEX
8
1
10
18.699783
20
25.064835
42
-0.045087
0
VERTEX
8
1
10
18.467348
20
25.198206
42
0.031280
0
VERTEX
8
1
10
18.434349
20
25.212723
42
0.144949
0
VERTEX
8
1
10
18.452023
20
24.992918
42
-0.127212
0
VERTEX
8
1
10
18.448776
20
24.959602
42
-0.018006
0
VERTEX
8
1
10
18.277386
20
24.971649
0
VERTEX
8
1
10
18.267124
20
24.968109
0
VERTEX
8
1
10
18.265049
20
24.957405
42
0.151418
0
VERTEX
8
1
10
18.350908
20
24.744528
42
-0.044435
0
VERTEX
8
1
10
18.359337
20
24.719795
0
VERTEX
8
1
10
18.348137
20
24.713234
42
-0.162298
0
VERTEX
8
1
10
18.117401
20
24.821480
42
-0.040815
0
VERTEX
8
1
10
18.011299
20
24.928009
42
0.241394
0
VERTEX
8
1
10
17.857162
20
24.948792
42
-0.153596
0
VERTEX
8
1
10
17.845272
20
24.885124
0
VERTEX
8
1
10
17.835468
20
24.883659
42
-0.047818
0
VERTEX
8
1
10
17.630753
20
24.954102
42
0.102745
0
VERTEX
8
1
10
17.469688
20
25.026825
42
0.135143
0
VERTEX
8
1
10
17.422890
20
25.041283
0
VERTEX
8
1
10
17.422295
20
25.030937
42
-0.003944
0
VERTEX
8
1
10
17.391312
20
25.028427
42
0.157209
0
VERTEX
8
1
10
17.420792
20
24.966049
42
-0.028981
0
VERTEX
8
1
10
17.560499
20
24.643965
0
VERTEX
8
1
10
17.568039
20
24.616371
42
-0.208466
0
VERTEX
8
1
10
17.506329
20
24.598259
0
VERTEX
8
1
10
17.501343
20
24.595650
42
0.333211
0
VERTEX
8
1
10
17.567293
20
24.414457
42
-0.146706
0
VERTEX
8
1
10
17.751381
20
24.156113
42
-0.042713
0
VERTEX
8
1
10
17.758709
20
24.107086
0
VERTEX
8
1
10
17.747807
20
24.106087
42
-0.045117
0
VERTEX
8
1
10
17.636467
20
24.162514
42
0.147259
0
VERTEX
8
1
10
17.496861
20
24.185989
42
-0.003289
0
VERTEX
8
1
10
17.515854
20
24.015549
0
VERTEX
8
1
10
17.514202
20
24.004623
0
VERTEX
8
1
10
17.507118
20
24.001991
42
-0.088614
0
VERTEX
8
1
10
17.411983
20
24.017845
42
0.092110
0
VERTEX
8
1
10
17.270454
20
24.012596
0
VERTEX
8
1
10
17.264969
20
24.004959
42
0.043615
0
VERTEX
8
1
10
17.354855
20
23.868500
0
VERTEX
8
1
10
17.392338
20
23.808144
42
-0.135666
0
VERTEX
8
1
10
17.434265
20
23.686195
42
0.098637
0
VERTEX
8
1
10
17.511015
20
23.492256
42
-0.112412
0
VERTEX
8
1
10
17.533295
20
23.398209
0
VERTEX
8
1
10
17.526241
20
23.389626
42
0.038390
0
VERTEX
8
1
10
17.395271
20
23.362915
42
0.131779
0
VERTEX
8
1
10
17.542988
20
23.153969
42
0.032400
0
VERTEX
8
1
10
17.718796
20
23.019424
0
VERTEX
8
1
10
17.738987
20
22.998741
42
-0.226469
0
VERTEX
8
1
10
17.680796
20
22.919668
42
0.221010
0
VERTEX
8
1
10
17.615913
20
22.792534
42
0.402734
0
VERTEX
8
1
10
17.688213
20
22.762871
0
VERTEX
8
1
10
17.698652
20
22.764380
42
-0.005039
0
VERTEX
8
1
10
18.215151
20
22.893826
42
-0.061832
0
VERTEX
8
1
10
18.341019
20
22.905190
0
VERTEX
8
1
10
18.345337
20
22.897148
42
0.122363
0
VERTEX
8
1
10
18.316196
20
22.719772
0
VERTEX
8
1
10
18.333214
20
22.713219
42
0.124876
0
VERTEX
8
1
10
18.475048
20
22.734673
42
-0.040934
0
VERTEX
8
1
10
18.674232
20
22.798460
42
-0.121949
0
VERTEX
8
1
10
18.916706
20
22.771517
42
-0.330641
0
VERTEX
8
1
10
19.056482
20
22.510509
42
-0.318112
0
VERTEX
8
1
10
18.914034
20
22.384054
42
-0.147099
0
VERTEX
8
1
10
18.783550
20
22.395447
42
-0.047643
0
VERTEX
8
1
10
18.320602
20
22.578339
0
VERTEX
8
1
10
18.301277
20
22.585327
0
VERTEX
8
1
10
18.292614
20
22.576927
42
0.212173
0
VERTEX
8
1
10
18.302902
20
22.491383
42
-0.031857
0
VERTEX
8
1
10
18.318089
20
22.437851
0
VERTEX
8
1
10
18.312317
20
22.431053
42
-0.105925
0
VERTEX
8
1
10
18.033714
20
22.546970
42
0.129326
0
VERTEX
8
1
10
17.934071
20
22.570396
0
VERTEX
8
1
10
17.915859
20
22.565514
0
VERTEX
8
1
10
17.906521
20
22.557297
42
-0.049018
0
VERTEX
8
1
10
17.981932
20
22.457489
42
-0.460531
0
VERTEX
8
1
10
17.954838
20
22.412910
42
-0.181920
0
VERTEX
8
1
10
17.385695
20
22.384956
42
-0.055682
0
VERTEX
8
1
10
17.255079
20
22.453352
42
0.058234
0
VERTEX
8
1
10
17.186134
20
22.479233
0
VERTEX
8
1
10
17.182102
20
22.470306
42
0.176373
0
VERTEX
8
1
10
17.413788
20
22.145035
42
-0.022631
0
VERTEX
8
1
10
17.604099
20
21.995529
0
VERTEX
8
1
10
17.615528
20
21.975792
42
-0.272811
0
VERTEX
8
1
10
17.519871
20
21.944347
42
0.060047
0
VERTEX
8
1
10
17.464027
20
21.936806
42
0.279757
0
VERTEX
8
1
10
17.548855
20
21.784126
0
VERTEX
8
1
10
17.573284
20
21.767948
0
VERTEX
8
1
10
17.598621
20
21.753235
0
VERTEX
8
1
10
17.751766
20
21.662041
42
-0.045249
0
VERTEX
8
1
10
17.880371
20
21.596113
42
-0.481600
0
VERTEX
8
1
10
17.874432
20
21.519073
42
-0.023225
0
VERTEX
8
1
10
17.740879
20
21.412331
0
VERTEX
8
1
10
17.743408
20
21.407249
42
0.075504
0
VERTEX
8
1
10
17.831165
20
21.376831
42
0.179394
0
VERTEX
8
1
10
17.987331
20
21.360374
42
-0.046888
0
VERTEX
8
1
10
18.196949
20
21.375603
42
0.030126
0
VERTEX
8
1
10
18.110157
20
21.202789
0
VERTEX
8
1
10
18.111778
20
21.190941
42
0.100813
0
VERTEX
8
1
10
18.306614
20
21.217354
42
0.079590
0
VERTEX
8
1
10
18.595753
20
21.339516
42
0.205127
0
VERTEX
8
1
10
18.530792
20
21.156761
42
0.274080
0
VERTEX
8
1
10
18.591789
20
21.169350
42
-0.028355
0
VERTEX
8
1
10
18.808632
20
21.321548
42
-0.024785
0
VERTEX
8
1
10
19.099928
20
21.533381
42
-0.151170
0
VERTEX
8
1
10
19.351542
20
21.586098
42
-0.537492
0
VERTEX
8
1
10
19.414242
20
21.416206
42
-0.101027
0
VERTEX
8
1
10
19.294247
20
21.349243
42
0.031571
0
VERTEX
8
1
10
19.044601
20
21.202446
42
-0.142614
0
VERTEX
8
1
10
19.126053
20
21.115410
0
VERTEX
8
1
10
19.118450
20
21.110901
42
-0.086619
0
VERTEX
8
1
10
19.006897
20
21.105591
42
0.029020
0
VERTEX
8
1
10
18.672785
20
21.041376
42
0.081359
0
VERTEX
8
1
10
18.576464
20
20.989223
0
VERTEX
8
1
10
18.572235
20
20.982338
0
VERTEX
8
1
10
18.569321
20
20.974800
42
-0.152529
0
VERTEX
8
1
10
18.697300
20
20.927635
0
VERTEX
8
1
10
18.705383
20
20.916801
0
VERTEX
8
1
10
18.710194
20
20.904716
42
0.115166
0
VERTEX
8
1
10
18.500156
20
20.813538
0
VERTEX
8
1
10
18.450066
20
20.780914
0
VERTEX
8
1
10
18.425610
20
20.765511
42
0.104674
0
VERTEX
8
1
10
18.104742
20
20.507015
42
0.099284
0
VERTEX
8
1
10
18.060034
20
20.404875
42
0.470196
0
VERTEX
8
1
10
18.089760
20
20.389549
42
-0.106177
0
VERTEX
8
1
10
18.388214
20
20.376045
42
0.104025
0
VERTEX
8
1
10
18.528267
20
20.387972
42
-0.083935
0
VERTEX
8
1
10
18.655067
20
20.392693
0
VERTEX
8
1
10
18.653042
20
20.384514
42
0.096950
0
VERTEX
8
1
10
18.562996
20
20.232870
42
0.432509
0
VERTEX
8
1
10
18.586407
20
20.205658
0
VERTEX
8
1
10
18.608536
20
20.207359
42
-0.065391
0
VERTEX
8
1
10
18.810387
20
20.229187
0
VERTEX
8
1
10
18.809021
20
20.212852
42
0.031520
0
VERTEX
8
1
10
18.729973
20
20.001549
0
VERTEX
8
1
10
18.733711
20
20.003532
42
0.082572
0
VERTEX
8
1
10
18.882679
20
20.051193
42
0.112416
0
VERTEX
8
1
10
19.127789
20
20.185936
42
-0.082917
0
VERTEX
8
1
10
19.389694
20
20.322617
42
0.109893
0
VERTEX
8
1
10
19.351967
20
20.242393
42
0.152370
0
VERTEX
8
1
10
19.328049
20
20.166885
42
-0.078507
0
VERTEX
8
1
10
19.366528
20
20.184486
0
VERTEX
8
1
10
19.369728
20
20.176888
42
0.134375
0
VERTEX
8
1
10
19.472427
20
19.920126
42
-0.000442
0
VERTEX
8
1
10
19.608315
20
19.725655
42
0.079746
0
VERTEX
8
1
10
19.688660
20
19.652397
42
-0.269689
0
VERTEX
8
1
10
19.593794
20
19.638735
42
-0.033550
0
VERTEX
8
1
10
19.564060
20
19.646889
42
0.268092
0
VERTEX
8
1
10
19.570808
20
19.621605
42
0.110562
0
VERTEX
8
1
10
19.727036
20
19.488426
42
0.079019
0
VERTEX
8
1
10
19.913635
20
19.380861
42
-0.083576
0
VERTEX
8
1
10
19.925133
20
19.368172
42
-0.117952
0
VERTEX
8
1
10
19.838402
20
19.330811
0
VERTEX
8
1
10
19.840485
20
19.325424
42
0.006364
0
VERTEX
8
1
10
19.964355
20
19.155617
42
-0.085037
0
VERTEX
8
1
10
20.039698
20
19.058632
42
-0.628320
0
VERTEX
8
1
10
19.917885
20
18.963074
42
-0.177086
0
VERTEX
8
1
10
19.728210
20
19.143311
42
0.026503
0
VERTEX
8
1
10
19.548100
20
19.447418
42
0.173142
0
VERTEX
8
1
10
19.487415
20
19.526817
0
VERTEX
8
1
10
19.478859
20
19.526199
42
0.205607
0
VERTEX
8
1
10
19.469269
20
19.372986
42
0.124399
0
VERTEX
8
1
10
19.178749
20
19.629868
0
VERTEX
8
1
10
19.162914
20
19.634819
0
VERTEX
8
1
10
19.159184
20
19.625435
42
0.026739
0
VERTEX
8
1
10
19.167336
20
19.473640
0
VERTEX
8
1
10
19.162270
20
19.474701
42
-0.022863
0
VERTEX
8
1
10
18.977715
20
19.574448
42
0.103641
0
VERTEX
8
1
10
18.883453
20
19.590347
42
0.102021
0
VERTEX
8
1
10
18.827854
20
19.593910
0
VERTEX
8
1
10
18.824993
20
19.590767
0
VERTEX
8
1
10
18.859001
20
19.528679
42
-0.108166
0
VERTEX
8
1
10
18.894909
20
19.443703
0
VERTEX
8
1
10
18.890450
20
19.431908
42
-0.265606
0
VERTEX
8
1
10
18.800871
20
19.407852
42
0.031926
0
VERTEX
8
1
10
18.753078
20
19.406418
0
VERTEX
8
1
10
18.613365
20
19.388725
42
0.109260
0
VERTEX
8
1
10
18.506374
20
19.360641
42
0.130956
0
VERTEX
8
1
10
18.458965
20
19.297562
0
VERTEX
8
1
10
18.468842
20
19.290146
42
-0.085042
0
VERTEX
8
1
10
18.546185
20
19.243332
0
VERTEX
8
1
10
18.552074
20
19.233276
0
VERTEX
8
1
10
18.556335
20
19.221008
0
VERTEX
8
1
10
18.539879
20
19.210640
42
-0.012852
0
VERTEX
8
1
10
18.290258
20
19.144329
42
0.142474
0
VERTEX
8
1
10
18.084442
20
18.999092
0
VERTEX
8
1
10
18.085903
20
18.992233
42
0.108645
0
VERTEX
8
1
10
18.178677
20
18.993896
42
-0.153481
0
VERTEX
8
1
10
18.457611
20
18.943420
42
-0.115745
0
VERTEX
8
1
10
18.675060
20
18.785566
42
-0.370840
0
VERTEX
8
1
10
18.665031
20
18.751755
42
-0.047168
0
VERTEX
8
1
10
18.583843
20
18.707741
0
VERTEX
8
1
10
18.589241
20
18.698349
0
VERTEX
8
1
10
18.601082
20
18.689247
42
0.150938
0
VERTEX
8
1
10
18.730251
20
18.681290
42
-0.093161
0
VERTEX
8
1
10
18.919922
20
18.671028
0
VERTEX
8
1
10
18.920624
20
18.663948
42
0.029288
0
VERTEX
8
1
10
18.860331
20
18.586246
42
0.188978
0
VERTEX
8
1
10
18.863453
20
18.562759
0
VERTEX
8
1
10
18.884825
20
18.561630
42
-0.059770
0
VERTEX
8
1
10
19.331921
20
18.535696
42
-0.317631
0
VERTEX
8
1
10
19.436653
20
18.391914
42
-0.451727
0
VERTEX
8
1
10
19.182259
20
18.243843
42
-0.172578
0
VERTEX
8
1
10
18.969833
20
18.374411
42
0.073676
0
VERTEX
8
1
10
18.855658
20
18.456942
42
0.074191
0
VERTEX
8
1
10
18.830402
20
18.459862
42
0.122037
0
VERTEX
8
1
10
18.796032
20
18.321915
0
VERTEX
8
1
10
18.789871
20
18.318283
42
-0.121189
0
VERTEX
8
1
10
18.703217
20
18.366974
0
VERTEX
8
1
10
18.686773
20
18.377914
42
-0.008487
0
VERTEX
8
1
10
18.352966
20
18.633757
42
0.320031
0
VERTEX
8
1
10
18.298832
20
18.629028
42
0.248902
0
VERTEX
8
1
10
18.313858
20
18.503723
42
-0.194021
0
VERTEX
8
1
10
18.323318
20
18.440308
0
VERTEX
8
1
10
18.301243
20
18.431877
42
0.106537
0
VERTEX
8
1
10
17.998991
20
18.322821
42
0.047915
0
VERTEX
8
1
10
17.959057
20
18.284920
42
0.031554
0
VERTEX
8
1
10
18.044605
20
18.222652
42
-0.248788
0
VERTEX
8
1
10
18.044777
20
18.205650
42
-0.092425
0
VERTEX
8
1
10
17.950974
20
18.113472
42
0.091688
0
VERTEX
8
1
10
17.865288
20
18.006393
42
-0.068326
0
VERTEX
8
1
10
17.684111
20
17.878542
42
0.025653
0
VERTEX
8
1
10
17.661789
20
17.860428
0
VERTEX
8
1
10
17.663483
20
17.853180
42
0.125981
0
VERTEX
8
1
10
17.829945
20
17.791105
42
-0.087291
0
VERTEX
8
1
10
17.843063
20
17.781937
0
VERTEX
8
1
10
17.840836
20
17.773491
42
-0.008112
0
VERTEX
8
1
10
17.773262
20
17.655846
0
VERTEX
8
1
10
17.779758
20
17.650383
42
0.164834
0
VERTEX
8
1
10
17.953329
20
17.636368
42
-0.099409
0
VERTEX
8
1
10
17.988594
20
17.630547
42
-0.190682
0
VERTEX
8
1
10
17.798786
20
17.484940
42
-0.018782
0
VERTEX
8
1
10
17.709431
20
17.454842
42
0.212777
0
VERTEX
8
1
10
17.647449
20
17.357315
0
VERTEX
8
1
10
17.650127
20
17.353737
42
-0.176844
0
VERTEX
8
1
10
17.689800
20
17.321579
42
-0.086727
0
VERTEX
8
1
10
17.508472
20
17.157089
42
0.043060
0
VERTEX
8
1
10
17.431332
20
17.077782
0
VERTEX
8
1
10
17.439156
20
17.073334
42
0.030014
0
VERTEX
8
1
10
17.430126
20
17.051476
0
VERTEX
8
1
10
17.432217
20
17.049744
42
0.149567
0
VERTEX
8
1
10
17.483280
20
17.050133
42
-0.038978
0
VERTEX
8
1
10
17.775272
20
17.034895
0
VERTEX
8
1
10
17.786156
20
17.031303
42
-0.161319
0
VERTEX
8
1
10
17.774498
20
16.981361
42
0.343410
0
VERTEX
8
1
10
17.929115
20
16.964113
42
-0.147019
0
VERTEX
8
1
10
18.182732
20
17.003906
0
VERTEX
8
1
10
18.204006
20
16.997345
0
VERTEX
8
1
10
18.212303
20
16.989044
42
-0.086862
0
VERTEX
8
1
10
18.142426
20
16.934639
42
0.148831
0
VERTEX
8
1
10
18.066681
20
16.838142
0
VERTEX
8
1
10
18.071838
20
16.831917
42
-0.014402
0
VERTEX
8
1
10
18.200829
20
16.786606
42
-0.200899
0
VERTEX
8
1
10
18.192703
20
16.761009
42
0.135181
0
VERTEX
8
1
10
18.110348
20
16.607513
42
0.053161
0
VERTEX
8
1
10
18.250275
20
16.624458
0
VERTEX
8
1
10
18.305386
20
16.630013
42
-0.133780
0
VERTEX
8
1
10
18.406185
20
16.615524
42
0.090319
0
VERTEX
8
1
10
18.575405
20
16.604807
42
-0.132150
0
VERTEX
8
1
10
18.643715
20
16.584473
42
0.008291
0
VERTEX
8
1
10
18.617378
20
16.482353
0
VERTEX
8
1
10
18.631947
20
16.475029
0
VERTEX
8
1
10
18.665993
20
16.474617
42
0.121571
0
VERTEX
8
1
10
18.989037
20
16.598114
42
-0.288343
0
VERTEX
8
1
10
19.030539
20
16.530499
42
0.209561
0
VERTEX
8
1
10
19.096760
20
16.438520
42
0.439829
0
VERTEX
8
1
10
19.144562
20
16.475128
0
VERTEX
8
1
10
19.147308
20
16.483101
0
VERTEX
8
1
10
19.168325
20
16.588041
42
-0.014376
0
VERTEX
8
1
10
19.249323
20
16.953808
42
-0.101125
0
VERTEX
8
1
10
19.273151
20
16.996719
42
0.110929
0
VERTEX
8
1
10
19.387291
20
16.913986
0
VERTEX
8
1
10
19.399200
20
16.915245
42
0.149643
0
VERTEX
8
1
10
19.438671
20
17.038216
42
-0.100979
0
VERTEX
8
1
10
19.487465
20
17.254776
42
-0.086479
0
VERTEX
8
1
10
19.574013
20
17.364830
42
-0.337548
0
VERTEX
8
1
10
19.814068
20
17.351913
42
-0.362490
0
VERTEX
8
1
10
19.799831
20
17.148376
42
-0.046669
0
VERTEX
8
1
10
19.490139
20
16.860306
0
VERTEX
8
1
10
19.484127
20
16.849564
0
VERTEX
8
1
10
19.490265
20
16.841721
42
0.116994
0
VERTEX
8
1
10
19.589748
20
16.816750
0
VERTEX
8
1
10
19.599236
20
16.813736
42
-0.117369
0
VERTEX
8
1
10
19.420992
20
16.651867
42
0.140823
0
VERTEX
8
1
10
19.366150
20
16.580765
0
VERTEX
8
1
10
19.364971
20
16.565712
0
VERTEX
8
1
10
19.371243
20
16.563965
42
-0.077776
0
VERTEX
8
1
10
19.469463
20
16.581160
42
-0.430285
0
VERTEX
8
1
10
19.486897
20
16.545876
42
-0.207479
0
VERTEX
8
1
10
19.273170
20
16.101709
42
-0.012597
0
VERTEX
8
1
10
19.196270
20
16.048077
42
0.072005
0
VERTEX
8
1
10
19.173195
20
16.019966
42
0.190020
0
VERTEX
8
1
10
19.500988
20
16.074699
42
-0.031835
0
VERTEX
8
1
10
19.673664
20
16.157364
0
VERTEX
8
1
10
19.683617
20
16.149605
42
-0.265855
0
VERTEX
8
1
10
19.671309
20
16.080294
42
0.108165
0
VERTEX
8
1
10
19.658630
20
16.030830
42
0.267908
0
VERTEX
8
1
10
19.794189
20
16.040794
42
0.015256
0
VERTEX
8
1
10
19.973404
20
16.160408
42
-0.151647
0
VERTEX
8
1
10
20.062208
20
16.214941
42
-0.369297
0
VERTEX
8
1
10
20.095039
20
16.183884
42
-0.018914
0
VERTEX
8
1
10
20.127323
20
16.048553
0
VERTEX
8
1
10
20.132454
20
16.050285
0
VERTEX
8
1
10
20.137596
20
16.053238
42
-0.012565
0
VERTEX
8
1
10
20.216526
20
16.136131
42
0.045677
0
VERTEX
8
1
10
20.283476
20
16.308004
42
-0.020584
0
VERTEX
8
1
10
20.307171
20
16.358810
0
VERTEX
8
1
10
20.311848
20
16.359756
42
0.041221
0
VERTEX
8
1
10
20.406025
20
16.235817
0
VERTEX
8
1
10
20.415165
20
16.242455
0
VERTEX
8
1
10
20.423367
20
16.256737
42
0.113996
0
VERTEX
8
1
10
20.474186
20
16.629250
42
0.180952
0
VERTEX
8
1
10
20.573963
20
16.525909
0
VERTEX
8
1
10
20.583836
20
16.524841
0
VERTEX
8
1
10
20.588886
20
16.532883
42
0.144834
0
VERTEX
8
1
10
20.580212
20
16.633713
42
0.023195
0
VERTEX
8
1
10
20.517284
20
16.991753
0
VERTEX
8
1
10
20.512821
20
17.026367
42
-0.200573
0
VERTEX
8
1
10
20.566456
20
17.264980
42
-0.698938
0
VERTEX
8
1
10
20.708961
20
17.198769
42
0.044139
0
VERTEX
8
1
10
20.722954
20
16.917297
0
VERTEX
8
1
10
20.727283
20
16.905624
42
-0.142905
0
VERTEX
8
1
10
20.812153
20
16.935043
0
VERTEX
8
1
10
20.816189
20
16.931419
42
-0.128467
0
VERTEX
8
1
10
20.786674
20
16.857376
42
0.050603
0
VERTEX
8
1
10
20.710752
20
16.565052
42
0.109981
0
VERTEX
8
1
10
20.720371
20
16.488930
0
VERTEX
8
1
10
20.725166
20
16.490952
42
-0.161949
0
VERTEX
8
1
10
20.804787
20
16.564178
0
VERTEX
8
1
10
20.815231
20
16.565369
0
VERTEX
8
1
10
20.823261
20
16.561607
42
0.126306
0
VERTEX
8
1
10
20.818550
20
16.352356
42
0.062840
0
VERTEX
8
1
10
20.875805
20
16.035721
42
0.106986
0
VERTEX
8
1
10
20.951735
20
15.929285
42
0.526673
0
VERTEX
8
1
10
20.975098
20
15.945274
42
-0.107076
0
VERTEX
8
1
10
21.088791
20
16.154320
42
0.060186
0
VERTEX
8
1
10
21.144934
20
16.307613
42
-0.072179
0
VERTEX
8
1
10
21.170261
20
16.350441
42
0.126841
0
VERTEX
8
1
10
21.254248
20
16.226128
42
0.388831
0
VERTEX
8
1
10
21.279575
20
16.239037
42
-0.051827
0
VERTEX
8
1
10
21.332657
20
16.393822
0
VERTEX
8
1
10
21.340445
20
16.403984
42
0.021215
0
VERTEX
8
1
10
21.472202
20
16.267296
42
-0.105886
0
VERTEX
8
1
10
21.482185
20
16.307465
42
0.009337
0
VERTEX
8
1
10
21.496895
20
16.494576
42
0.055463
0
VERTEX
8
1
10
21.477577
20
16.617485
42
-0.080718
0
VERTEX
8
1
10
21.472385
20
16.844353
42
0.055130
0
VERTEX
8
1
10
21.550735
20
16.755079
0
VERTEX
8
1
10
21.562027
20
16.749725
42
-0.118484
0
VERTEX
8
1
10
21.567341
20
16.811638
42
-0.032868
0
VERTEX
8
1
10
21.589626
20
16.955437
42
-0.075202
0
VERTEX
8
1
10
21.549881
20
17.187714
42
0.112501
0
VERTEX
8
1
10
21.593365
20
17.120573
42
0.106953
0
VERTEX
8
1
10
21.815214
20
16.924706
42
0.101413
0
VERTEX
8
1
10
21.825848
20
16.925522
42
0.152916
0
VERTEX
8
1
10
21.795582
20
17.045013
42
-0.123540
0
VERTEX
8
1
10
21.769726
20
17.144936
0
VERTEX
8
1
10
21.774612
20
17.152916
42
0.029027
0
VERTEX
8
1
10
21.825317
20
17.092575
42
0.083649
0
VERTEX
8
1
10
21.964127
20
17.062332
0
VERTEX
8
1
10
21.968964
20
17.067047
42
0.092480
0
VERTEX
8
1
10
21.911804
20
17.173218
42
0.021838
0
VERTEX
8
1
10
21.730274
20
17.438881
42
-0.061481
0
VERTEX
8
1
10
21.667297
20
17.572777
42
-0.569703
0
VERTEX
8
1
10
21.692741
20
17.583755
42
0.029072
0
VERTEX
8
1
10
21.749298
20
17.593048
42
0.216996
0
VERTEX
8
1
10
21.841345
20
17.600719
42
0.527050
0
VERTEX
8
1
10
21.832455
20
17.623199
42
0.005709
0
VERTEX
8
1
10
21.711281
20
17.713089
42
-0.185198
0
VERTEX
8
1
10
21.675106
20
17.739449
42
-0.031330
0
VERTEX
8
1
10
21.775337
20
17.794682
42
0.514937
0
VERTEX
8
1
10
21.767761
20
17.809875
0
VERTEX
8
1
10
21.762764
20
17.813026
42
0.034570
0
VERTEX
8
1
10
21.644245
20
17.844591
0
VERTEX
8
1
10
21.639793
20
17.843834
42
-0.244689
0
VERTEX
8
1
10
21.663174
20
17.872742
42
0.132866
0
VERTEX
8
1
10
21.708084
20
17.978424
42
-0.043588
0
VERTEX
8
1
10
21.693760
20
18.063759
42
0.465210
0
VERTEX
8
1
10
21.637321
20
18.079086
42
0.042468
0
VERTEX
8
1
10
21.574190
20
18.023331
42
-0.029740
0
VERTEX
8
1
10
21.427393
20
17.945074
42
-0.059897
0
VERTEX
8
1
10
21.382755
20
17.938286
42
-0.124939
0
VERTEX
8
1
10
21.171932
20
17.908142
42
-0.065466
0
VERTEX
8
1
10
21.035122
20
17.966141
42
-0.237747
0
VERTEX
8
1
10
20.786591
20
18.197533
42
-0.045915
0
VERTEX
8
1
10
20.726585
20
18.369339
42
-0.089617
0
VERTEX
8
1
10
21.140919
20
18.526138
42
-0.152194
0
VERTEX
8
1
10
21.479879
20
18.440340
42
-0.065328
0
VERTEX
8
1
10
21.624432
20
18.333458
42
0.156224
0
VERTEX
8
1
10
21.783218
20
18.279839
42
0.032973
0
VERTEX
8
1
10
21.892551
20
18.276062
42
0.103570
0
VERTEX
8
1
10
22.349651
20
17.545273
42
-0.017505
0
VERTEX
8
1
10
23.051289
20
16.779427
0
VERTEX
8
1
10
23.115971
20
16.698402
42
-0.064294
0
VERTEX
8
1
10
23.220364
20
16.545219
42
-0.008439
0
VERTEX
8
1
10
23.342003
20
16.427734
42
-0.005693
0
VERTEX
8
1
10
22.859890
20
15.275336
42
0.001836
0
VERTEX
8
1
10
22.648016
20
14.715234
0
VERTEX
8
1
10
22.635708
20
14.714989
42
-0.043598
0
VERTEX
8
1
10
22.561867
20
15.042763
42
-0.062635
0
VERTEX
8
1
10
22.620520
20
15.431170
42
-0.033490
0
VERTEX
8
1
10
22.638306
20
15.468750
0
VERTEX
8
1
10
22.660522
20
15.480202
42
-0.006364
0
VERTEX
8
1
10
22.917084
20
15.550850
42
-0.002119
0
VERTEX
8
1
10
22.878819
20
15.703839
0
VERTEX
8
1
10
22.816971
20
15.696884
42
-0.015136
0
VERTEX
8
1
10
22.042889
20
15.578598
0
VERTEX
8
1
10
21.995258
20
15.569756
42
-0.067765
0
VERTEX
8
1
10
22.050129
20
14.997833
42
-0.072404
0
VERTEX
8
1
10
21.882500
20
13.884178
42
-0.081004
0
VERTEX
8
1
10
21.777836
20
13.698711
42
-0.410696
0
VERTEX
8
1
10
21.584545
20
13.702263
42
-0.204687
0
VERTEX
8
1
10
21.424208
20
14.106020
42
-0.085672
0
VERTEX
8
1
10
21.499636
20
14.619557
42
-0.053591
0
VERTEX
8
1
10
21.756325
20
15.249519
0
VERTEX
8
1
10
21.817333
20
15.365211
42
-0.108126
0
VERTEX
8
1
10
20.880289
20
15.523126
42
-0.032209
0
VERTEX
8
1
10
20.768120
20
15.584389
0
VERTEX
8
1
10
20.693123
20
15.216225
42
0.174499
0
VERTEX
8
1
10
21.140980
20
15.192825
0
VERTEX
8
1
10
21.104370
20
15.141663
42
0.082306
0
VERTEX
8
1
10
20.724215
20
14.490378
42
0.075277
0
VERTEX
8
1
10
20.668121
20
14.167877
0
VERTEX
8
1
10
20.675644
20
14.063416
0
VERTEX
8
1
10
20.697495
20
13.965446
0
VERTEX
8
1
10
20.733658
20
13.873985
0
VERTEX
8
1
10
20.784149
20
13.789024
0
VERTEX
8
1
10
20.848961
20
13.710548
0
VERTEX
8
1
10
20.928101
20
13.638580
0
VERTEX
8
1
10
21.021557
20
13.573105
0
VERTEX
8
1
10
21.129337
20
13.514145
42
0.097465
0
VERTEX
8
1
10
21.917093
20
13.325119
42
0.088913
0
VERTEX
8
1
10
22.180080
20
13.376755
0
VERTEX
8
1
10
22.162266
20
13.286941
42
0.033629
0
VERTEX
8
1
10
21.695702
20
11.135284
0
VERTEX
8
1
10
21.654421
20
10.866035
42
0.004985
0
VERTEX
8
1
10
21.636797
20
9.174062
0
VERTEX
8
1
10
21.628326
20
9.059990
42
0.149866
0
VERTEX
8
1
10
21.358990
20
8.828313
42
0.346370
0
VERTEX
8
1
10
21.409084
20
8.592529
42
0.159098
0
VERTEX
8
1
10
21.623657
20
8.481300
0
VERTEX
8
1
10
21.637123
20
8.468712
0
VERTEX
8
1
10
21.638130
20
8.223625
42
-0.125031
0
VERTEX
8
1
10
21.324200
20
8.263929
42
-0.205521
0
VERTEX
8
1
10
21.116716
20
8.508249
42
-0.055531
0
VERTEX
8
1
10
21.083881
20
8.639977
0
VERTEX
8
1
10
21.072838
20
8.733398
0
VERTEX
8
1
10
21.068958
20
8.836189
42
-0.060197
0
VERTEX
8
1
10
21.170216
20
9.495316
42
-0.050438
0
VERTEX
8
1
10
21.382963
20
10.115324
42
-0.003326
0
VERTEX
8
1
10
20.150661
20
10.238724
42
0.118743
0
VERTEX
8
1
10
20.162325
20
10.067863
42
0.233110
0
VERTEX
8
1
10
20.189579
20
10.049103
42
-0.028956
0
VERTEX
8
1
10
20.372143
20
10.013162
42
-0.321530
0
VERTEX
8
1
10
20.446980
20
9.882431
42
0.048041
0
VERTEX
8
1
10
20.501564
20
8.670299
42
0.046597
0
VERTEX
8
1
10
20.625977
20
8.211792
0
VERTEX
8
1
10
20.617275
20
8.206154
42
0.187716
0
VERTEX
8
1
10
20.304554
20
8.171745
0
VERTEX
8
1
10
20.304195
20
8.164932
0
VERTEX
8
1
10
20.364277
20
7.828438
42
-0.158606
0
VERTEX
8
1
10
20.579422
20
7.942533
42
-0.061157
0
VERTEX
8
1
10
20.899193
20
7.985298
42
-0.037338
0
VERTEX
8
1
10
21.608887
20
7.967668
0
VERTEX
8
1
10
21.640266
20
7.889492
42
0.005028
0
VERTEX
8
1
10
21.682758
20
5.451994
0
VERTEX
8
1
10
21.673176
20
5.418823
42
0.123036
0
VERTEX
8
1
10
21.182228
20
5.198805
42
0.117650
0
VERTEX
8
1
10
21.077511
20
5.046269
42
0.292160
0
VERTEX
8
1
10
21.142063
20
4.845970
42
0.229598
0
VERTEX
8
1
10
21.489647
20
4.729907
42
0.078978
0
VERTEX
8
1
10
21.699951
20
4.778130
0
VERTEX
8
1
10
21.704166
20
4.763420
0
VERTEX
8
1
10
21.711048
20
4.569221
0
VERTEX
8
1
10
21.701973
20
4.551590
42
-0.120523
0
VERTEX
8
1
10
21.209213
20
4.478096
0
VERTEX
8
1
10
21.136292
20
4.490501
42
-0.225043
0
VERTEX
8
1
10
20.879105
20
4.693169
0
VERTEX
8
1
10
20.849155
20
4.761826
42
-0.102880
0
VERTEX
8
1
10
20.804815
20
5.182958
42
-0.050725
0
VERTEX
8
1
10
20.904049
20
5.758751
42
-0.045590
0
VERTEX
8
1
10
21.101719
20
6.343216
0
VERTEX
8
1
10
21.052292
20
6.378147
42
-0.007983
0
VERTEX
8
1
10
19.883976
20
6.495171
42
0.149295
0
VERTEX
8
1
10
19.898888
20
6.315635
42
0.118415
0
VERTEX
8
1
10
19.912884
20
6.305588
42
-0.011276
0
VERTEX
8
1
10
20.095558
20
6.271024
42
-0.327002
0
VERTEX
8
1
10
20.178585
20
6.146622
42
0.025650
0
VERTEX
8
1
10
20.192083
20
5.244871
42
0.057003
0
VERTEX
8
1
10
20.341528
20
4.504531
0
VERTEX
8
1
10
20.357357
20
4.459213
42
0.185367
0
VERTEX
8
1
10
20.043880
20
4.431134
0
VERTEX
8
1
10
20.034870
20
4.425117
0
VERTEX
8
1
10
20.096336
20
4.080872
42
-0.137103
0
VERTEX
8
1
10
20.226711
20
4.170715
0
VERTEX
8
1
10
20.278736
20
4.188896
42
-0.065803
0
VERTEX
8
1
10
20.743484
20
4.245415
42
-0.038768
0
VERTEX
8
1
10
21.704136
20
4.180672
0
VERTEX
8
1
10
21.729542
20
4.093998
42
0.002975
0
VERTEX
8
1
10
21.788593
20
2.863152
42
-0.025775
0
VERTEX
8
1
10
21.389168
20
2.793610
0
VERTEX
8
1
10
21.360928
20
2.776367
42
-0.059028
0
VERTEX
8
1
10
21.181156
20
1.884346
42
-0.062884
0
VERTEX
8
1
10
20.856730
20
1.113326
42
-0.025702
0
VERTEX
8
1
10
20.795979
20
1.030174
42
0.014909
0
VERTEX
8
1
10
20.641491
20
1.097214
42
-0.006985
0
VERTEX
8
1
10
20.478596
20
0.874931
0
VERTEX
8
1
10
20.509739
20
0.866188
42
-0.039500
0
VERTEX
8
1
10
21.500248
20
0.610916
0
VERTEX
8
1
10
21.517769
20
0.622452
42
-0.032771
0
VERTEX
8
1
10
21.540089
20
0.903107
0
VERTEX
8
1
10
21.533726
20
0.928886
42
-0.028182
0
VERTEX
8
1
10
21.130779
20
0.962921
0
VERTEX
8
1
10
21.134869
20
0.979271
42
0.057673
0
VERTEX
8
1
10
21.328787
20
1.447353
42
0.008275
0
VERTEX
8
1
10
21.372471
20
1.591438
0
VERTEX
8
1
10
21.428774
20
1.595085
42
0.002801
0
VERTEX
8
1
10
22.044533
20
1.529137
0
VERTEX
8
1
10
22.080452
20
1.522018
42
-0.070708
0
VERTEX
8
1
10
22.121223
20
1.070831
42
-0.028924
0
VERTEX
8
1
10
22.092522
20
0.699287
0
VERTEX
8
1
10
22.096325
20
0.665466
42
-0.061835
0
VERTEX
8
1
10
23.041988
20
0.716301
0
VERTEX
8
1
10
23.077370
20
0.718269
42
0.004889
0
VERTEX
8
1
10
23.209385
20
0.953125
0
VERTEX
8
1
10
23.201973
20
0.960907
0
VERTEX
8
1
10
23.034111
20
0.999023
42
-0.212502
0
VERTEX
8
1
10
22.868401
20
1.108864
42
-0.056349
0
VERTEX
8
1
10
22.857071
20
1.142296
0
VERTEX
8
1
10
22.708347
20
1.572151
0
VERTEX
8
1
10
22.706112
20
1.603043
42
0.055219
0
VERTEX
8
1
10
23.597282
20
1.406535
42
0.024088
0
VERTEX
8
1
10
24.491528
20
1.335907
0
VERTEX
8
1
10
24.596516
20
1.307465
42
0.043576
0
VERTEX
8
1
10
24.709835
20
0.905388
42
0.195296
0
VERTEX
8
1
10
24.385029
20
0.872185
0
VERTEX
8
1
10
24.446423
20
0.528381
42
-0.127593
0
VERTEX
8
1
10
24.568886
20
0.614037
0
VERTEX
8
1
10
24.619694
20
0.632645
0
VERTEX
8
1
10
24.677761
20
0.648743
42
-0.060283
0
VERTEX
8
1
10
25.196476
20
0.691433
42
-0.034382
0
VERTEX
8
1
10
26.147774
20
0.615616
42
0.245782
0
VERTEX
8
1
10
26.170521
20
0.630470
0
VERTEX
8
1
10
26.189007
20
0.660713
42
0.134146
0
VERTEX
8
1
10
26.439846
20
1.344421
0
VERTEX
8
1
10
26.446915
20
1.357452
0
VERTEX
8
1
10
26.558342
20
1.364983
0
VERTEX
8
1
10
26.568901
20
1.363579
42
0.219145
0
VERTEX
8
1
10
26.825411
20
0.824112
42
0.276298
0
VERTEX
8
1
10
27.868147
20
0.603217
42
0.205492
0
VERTEX
8
1
10
28.329620
20
1.061500
42
0.083645
0
VERTEX
8
1
10
28.436649
20
1.457222
42
0.064874
0
VERTEX
8
1
10
28.446632
20
1.794876
42
0.104432
0
VERTEX
8
1
10
28.730263
20
2.070663
42
-0.027786
0
VERTEX
8
1
10
28.976849
20
2.100616
0
VERTEX
8
1
10
28.969414
20
2.059006
42
0.081773
0
VERTEX
8
1
10
28.776911
20
1.288807
42
0.098631
0
VERTEX
8
1
10
28.831263
20
0.939404
42
0.254105
0
VERTEX
8
1
10
29.150505
20
0.696450
42
0.075715
0
VERTEX
8
1
10
29.526417
20
0.670242
42
0.073094
0
VERTEX
8
1
10
30.187616
20
0.781047
42
0.124483
0
VERTEX
8
1
10
30.534983
20
1.018087
42
0.138658
0
VERTEX
8
1
10
30.654083
20
1.301684
42
0.250061
0
VERTEX
8
1
10
30.570934
20
1.466042
0
VERTEX
8
1
10
30.537670
20
1.489616
0
VERTEX
8
1
10
30.498817
20
1.511444
42
0.141170
0
VERTEX
8
1
10
29.801464
20
1.600573
42
0.139733
0
VERTEX
8
1
10
29.630651
20
1.507249
42
0.225088
0
VERTEX
8
1
10
29.601341
20
1.379134
42
0.248631
0
VERTEX
8
1
10
29.778931
20
1.125740
42
0.032898
0
VERTEX
8
1
10
30.064575
20
1.013771
42
-0.450006
0
VERTEX
8
1
10
30.063774
20
0.971512
42
-0.120444
0
VERTEX
8
1
10
30.015705
20
0.933575
42
-0.134652
0
VERTEX
8
1
10
29.649965
20
0.824904
42
-0.294520
0
VERTEX
8
1
10
29.505600
20
0.940123
42
-0.086434
0
VERTEX
8
1
10
29.458271
20
1.116219
0
VERTEX
8
1
10
29.451305
20
1.185501
42
-0.079423
0
VERTEX
8
1
10
29.554708
20
2.064669
0
VERTEX
8
1
10
29.559303
20
2.072250
0
VERTEX
8
1
10
29.588120
20
2.075073
42
-0.017565
0
VERTEX
8
1
10
30.002888
20
2.070778
42
-0.221863
0
VERTEX
8
1
10
30.102177
20
1.972015
42
0.036987
0
VERTEX
8
1
10
30.190033
20
1.792145
42
0.286126
0
VERTEX
8
1
10
30.250641
20
1.779465
42
0.067605
0
VERTEX
8
1
10
30.473515
20
1.867859
0
VERTEX
8
1
10
30.476913
20
1.877350
42
-0.079945
0
VERTEX
8
1
10
30.339039
20
2.354927
42
0.028950
0
VERTEX
8
1
10
30.343819
20
2.640993
42
0.077983
0
VERTEX
8
1
10
30.323246
20
2.702530
0
VERTEX
8
1
10
30.309265
20
2.702240
42
0.068393
0
VERTEX
8
1
10
30.014622
20
2.575836
0
VERTEX
8
1
10
29.990974
20
2.555862
0
VERTEX
8
1
10
30.007339
20
2.542564
42
-0.339036
0
VERTEX
8
1
10
30.075764
20
2.330391
0
VERTEX
8
1
10
30.069843
20
2.325592
0
VERTEX
8
1
10
30.058807
20
2.321198
42
-0.046886
0
VERTEX
8
1
10
29.728939
20
2.299850
0
VERTEX
8
1
10
29.629169
20
2.299744
0
VERTEX
8
1
10
29.626900
20
2.307152
42
-0.040819
0
VERTEX
8
1
10
29.886898
20
2.773342
0
VERTEX
8
1
10
29.895983
20
2.792036
0
VERTEX
8
1
10
29.903431
20
2.811440
42
0.080951
0
VERTEX
8
1
10
29.832478
20
2.805649
42
-0.018103
0
VERTEX
8
1
10
28.932274
20
2.733519
42
0.459198
0
VERTEX
8
1
10
28.925247
20
2.717270
42
-0.044276
0
VERTEX
8
1
10
28.992031
20
2.336197
0
VERTEX
8
1
10
28.983192
20
2.331711
42
-0.014269
0
VERTEX
8
1
10
28.867168
20
2.341057
0
VERTEX
8
1
10
28.860783
20
2.349037
42
0.069230
0
VERTEX
8
1
10
28.904053
20
2.671501
42
0.000231
0
VERTEX
8
1
10
28.903351
20
4.122520
0
VERTEX
8
1
10
28.908501
20
4.303268
42
-0.081455
0
VERTEX
8
1
10
29.028097
20
4.322126
42
-0.103312
0
VERTEX
8
1
10
29.730488
20
4.248836
0
VERTEX
8
1
10
29.780342
20
4.230512
0
VERTEX
8
1
10
29.829491
20
4.210373
0
VERTEX
8
1
10
29.865143
20
4.206474
42
-0.055643
0
VERTEX
8
1
10
29.742584
20
4.687279
42
-0.176107
0
VERTEX
8
1
10
30.016247
20
5.177648
42
-0.179799
0
VERTEX
8
1
10
30.180607
20
5.224580
42
-0.301793
0
VERTEX
8
1
10
30.257072
20
5.144669
42
-0.065571
0
VERTEX
8
1
10
30.284855
20
4.838371
42
-0.107736
0
VERTEX
8
1
10
30.174938
20
4.230988
0
VERTEX
8
1
10
30.174660
20
4.191597
42
-0.001808
0
VERTEX
8
1
10
30.945511
20
4.016677
0
VERTEX
8
1
10
30.963936
20
4.023880
42
-0.003604
0
VERTEX
8
1
10
31.005779
20
4.143486
0
VERTEX
8
1
10
31.005047
20
4.150848
42
-0.046840
0
VERTEX
8
1
10
30.805882
20
4.209511
0
VERTEX
8
1
10
30.795681
20
4.221298
42
-0.093008
0
VERTEX
8
1
10
30.761642
20
4.471435
42
-0.021794
0
VERTEX
8
1
10
30.809921
20
5.094635
42
0.085742
0
VERTEX
8
1
10
30.756790
20
5.720259
42
0.097825
0
VERTEX
8
1
10
30.655613
20
5.896866
42
0.321908
0
VERTEX
8
1
10
30.400555
20
5.927597
42
0.111742
0
VERTEX
8
1
10
30.093622
20
5.683692
42
0.107912
0
VERTEX
8
1
10
29.707886
20
4.991257
0
VERTEX
8
1
10
29.700699
20
4.979086
42
-0.105181
0
VERTEX
8
1
10
29.931049
20
6.418274
0
VERTEX
8
1
10
29.943037
20
6.461700
42
-0.005835
0
VERTEX
8
1
10
28.910017
20
6.534980
0
VERTEX
8
1
10
28.899458
20
6.613075
42
0.000198
0
VERTEX
8
1
10
28.895397
20
8.006653
42
-0.119240
0
VERTEX
8
1
10
29.299717
20
7.928337
0
VERTEX
8
1
10
29.299717
20
8.003685
0
VERTEX
8
1
10
29.304234
20
8.004105
0
VERTEX
8
1
10
29.909824
20
8.021423
0
VERTEX
8
1
10
29.924034
20
8.020058
42
0.151850
0
VERTEX
8
1
10
30.475826
20
7.882004
42
0.088221
0
VERTEX
8
1
10
30.982969
20
7.962242
42
0.216804
0
VERTEX
8
1
10
31.290258
20
8.300458
42
0.351055
0
VERTEX
8
1
10
31.164513
20
8.566986
0
VERTEX
8
1
10
31.124207
20
8.587662
42
0.140452
0
VERTEX
8
1
10
30.504005
20
8.645647
42
0.141067
0
VERTEX
8
1
10
30.350868
20
8.552383
42
0.224790
0
VERTEX
8
1
10
30.328859
20
8.420077
42
0.229663
0
VERTEX
8
1
10
30.500114
20
8.184973
42
0.088170
0
VERTEX
8
1
10
30.743502
20
8.091395
42
-0.605494
0
VERTEX
8
1
10
30.739094
20
8.070320
42
-0.452184
0
VERTEX
8
1
10
30.171352
20
8.308607
42
-0.111560
0
VERTEX
8
1
10
30.130672
20
8.861876
42
-0.060675
0
VERTEX
8
1
10
30.145130
20
8.900352
0
VERTEX
8
1
10
30.150364
20
8.902374
0
VERTEX
8
1
10
30.157463
20
8.901825
42
-0.012189
0
VERTEX
8
1
10
31.416040
20
8.688972
42
0.280358
0
VERTEX
8
1
10
31.420185
20
8.696976
42
0.097510
0
VERTEX
8
1
10
31.376230
20
9.198894
42
0.217794
0
VERTEX
8
1
10
31.091898
20
9.478445
42
0.087112
0
VERTEX
8
1
10
30.780378
20
9.549630
42
0.081110
0
VERTEX
8
1
10
29.996914
20
9.498665
0
VERTEX
8
1
10
29.871178
20
9.457695
0
VERTEX
8
1
10
29.762180
20
9.406494
0
VERTEX
8
1
10
29.669945
20
9.345024
0
VERTEX
8
1
10
29.594456
20
9.273315
0
VERTEX
8
1
10
29.535713
20
9.191353
0
VERTEX
8
1
10
29.493729
20
9.099144
0
VERTEX
8
1
10
29.468491
20
8.996689
42
0.235898
0
VERTEX
8
1
10
29.778084
20
8.135490
42
-0.009454
0
VERTEX
8
1
10
29.299713
20
8.111809
0
VERTEX
8
1
10
29.299717
20
8.294113
42
0.213366
0
VERTEX
8
1
10
28.965893
20
8.271049
42
0.104312
0
VERTEX
8
1
10
29.236689
20
9.351286
42
0.071707
0
VERTEX
8
1
10
29.163876
20
10.214851
0
VERTEX
8
1
10
29.148186
20
10.273216
42
0.009766
0
SEQEND
0
POLYLINE
8
1
66
1
70
1
0
VERTEX
8
1
10
29.483402
20
17.208351
0
VERTEX
8
1
10
29.496780
20
17.208267
0
VERTEX
8
1
10
29.510368
20
17.204079
42
-0.161383
0
VERTEX
8
1
10
29.589996
20
17.104652
42
-0.153994
0
VERTEX
8
1
10
29.646936
20
16.586086
42
-0.148120
0
VERTEX
8
1
10
29.598431
20
16.522039
42
-0.323527
0
VERTEX
8
1
10
29.541519
20
16.536949
42
-0.130632
0
VERTEX
8
1
10
29.443817
20
16.727524
42
-0.116685
0
VERTEX
8
1
10
29.421440
20
17.124472
42
-0.112958
0
VERTEX
8
1
10
29.458950
20
17.196198
0
VERTEX
8
1
10
29.470661
20
17.204262
0
SEQEND
0
POLYLINE
8
1
66
1
70
1
0
VERTEX
8
1
10
29.303701
20
16.018280
42
-0.561934
0
VERTEX
8
1
10
29.049681
20
15.833591
42
-0.727750
0
VERTEX
8
1
10
29.055761
20
16.146463
42
-0.461765
0
SEQEND
0
POLYLINE
8
1
66
1
70
1
0
VERTEX
8
1
10
29.049225
20
16.640343
42
0.122984
0
VERTEX
8
1
10
28.909706
20
16.619659
0
VERTEX
8
1
10
28.906750
20
16.623283
42
0.084815
0
VERTEX
8
1
10
28.965023
20
16.867943
42
0.087510
0
VERTEX
8
1
10
29.052200
20
16.645081
0
SEQEND
0
POLYLINE
8
1
66
1
70
1
0
VERTEX
8
1
10
29.377289
20
18.446068
42
-0.229003
0
VERTEX
8
1
10
29.413403
20
18.433342
42
-0.143637
0
VERTEX
8
1
10
29.496262
20
18.260689
42
-0.132406
0
VERTEX
8
1
10
29.497688
20
17.981796
0
VERTEX
8
1
10
29.490299
20
17.965485
42
-0.621087
0
VERTEX
8
1
10
29.413364
20
17.953690
0
VERTEX
8
1
10
29.401428
20
17.967041
42
-0.193186
0
VERTEX
8
1
10
29.333422
20
18.397055
42
-0.123934
0
VERTEX
8
1
10
29.366005
20
18.442223
0
SEQEND
0
POLYLINE
8
1
66
1
70
1
0
VERTEX
8
1
10
21.543201
20
22.026451
0
VERTEX
8
1
10
21.552380
20
22.019089
42
-0.148517
0
VERTEX
8
1
10
21.672318
20
21.905273
0
VERTEX
8
1
10
21.664242
20
21.897552
42
0.105139
0
VERTEX
8
1
10
21.188648
20
21.759583
42
-0.084328
0
VERTEX
8
1
10
21.077698
20
22.176704
0
VERTEX
8
1
10
21.084400
20
22.189743
42
-0.124187
0
VERTEX
8
1
10
21.222691
20
22.166992
42
-0.211681
0
VERTEX
8
1
10
21.494713
20
22.069853
42
-0.026305
0
SEQEND
0
POLYLINE
8
1
66
1
70
1
0
VERTEX
8
1
10
19.634552
20
20.667809
42
-0.106568
0
VERTEX
8
1
10
19.078983
20
20.438036
42
-0.032077
0
VERTEX
8
1
10
19.001316
20
20.434639
42
0.068413
0
VERTEX
8
1
10
19.176399
20
20.572258
42
-0.009471
0
VERTEX
8
1
10
19.512691
20
20.836098
0
VERTEX
8
1
10
19.504917
20
20.851944
42
0.186542
0
VERTEX
8
1
10
19.392340
20
20.884052
42
-0.112049
0
VERTEX
8
1
10
19.283127
20
20.914780
0
VERTEX
8
1
10
19.288094
20
20.931175
42
-0.207812
0
VERTEX
8
1
10
19.448574
20
20.994614
42
0.145075
0
VERTEX
8
1
10
19.707130
20
21.110809
42
0.088263
0
VERTEX
8
1
10
20.011648
20
21.458353
42
0.128445
0
VERTEX
8
1
10
20.086819
20
21.784927
0
VERTEX
8
1
10
20.084885
20
21.877846
42
0.129436
0
VERTEX
8
1
10
20.045517
20
22.065580
42
0.378417
0
VERTEX
8
1
10
19.892956
20
22.098610
42
0.026143
0
VERTEX
8
1
10
19.566811
20
21.902962
42
-0.094435
0
VERTEX
8
1
10
19.289450
20
21.738111
42
-0.088646
0
VERTEX
8
1
10
19.194454
20
21.731544
0
VERTEX
8
1
10
19.198109
20
21.879265
42
0.355315
0
VERTEX
8
1
10
19.093678
20
21.889153
42
0.006391
0
VERTEX
8
1
10
18.976776
20
21.816780
42
-0.078505
0
VERTEX
8
1
10
18.738268
20
21.775944
0
VERTEX
8
1
10
18.726635
20
21.774544
0
VERTEX
8
1
10
18.715012
20
21.773056
42
0.171857
0
VERTEX
8
1
10
18.902561
20
21.927658
0
VERTEX
8
1
10
18.899204
20
21.936874
42
0.026949
0
VERTEX
8
1
10
18.757076
20
21.953087
42
-0.131949
0
VERTEX
8
1
10
18.516233
20
22.075224
42
-0.057648
0
VERTEX
8
1
10
18.496498
20
22.104950
0
VERTEX
8
1
10
18.506020
20
22.113892
0
VERTEX
8
1
10
18.539169
20
22.109032
42
0.032628
0
VERTEX
8
1
10
18.832382
20
22.060936
0
VERTEX
8
1
10
18.865608
20
22.061539
42
0.080870
0
VERTEX
8
1
10
19.438576
20
22.228317
0
VERTEX
8
1
10
19.474218
20
22.249054
42
0.110531
0
VERTEX
8
1
10
19.684029
20
22.438839
42
0.300393
0
VERTEX
8
1
10
19.670731
20
22.619408
42
0.041685
0
VERTEX
8
1
10
19.469315
20
22.793579
42
0.052287
0
VERTEX
8
1
10
19.167133
20
23.027855
42
0.154108
0
VERTEX
8
1
10
18.929764
20
23.136375
42
0.022182
0
VERTEX
8
1
10
18.635517
20
23.162918
0
VERTEX
8
1
10
18.644981
20
23.176826
42
-0.097000
0
VERTEX
8
1
10
19.065929
20
23.340111
0
VERTEX
8
1
10
19.061237
20
23.352905
42
0.042058
0
VERTEX
8
1
10
18.737928
20
23.556200
42
0.127591
0
VERTEX
8
1
10
18.477978
20
23.596298
42
-0.034879
0
VERTEX
8
1
10
18.253223
20
23.606987
0
VERTEX
8
1
10
18.213726
20
23.616325
0
VERTEX
8
1
10
18.198406
20
23.630547
42
-0.082975
0
VERTEX
8
1
10
18.451551
20
23.795298
42
0.026871
0
VERTEX
8
1
10
18.512394
20
23.813087
42
0.078066
0
VERTEX
8
1
10
18.362049
20
24.016914
0
VERTEX
8
1
10
18.333317
20
24.039810
42
-0.029334
0
VERTEX
8
1
10
18.019375
20
24.264629
42
-0.064035
0
VERTEX
8
1
10
17.946514
20
24.355354
0
VERTEX
8
1
10
17.935383
20
24.386192
42
-0.113440
0
VERTEX
8
1
10
18.099052
20
24.325272
42
0.045474
0
VERTEX
8
1
10
18.285858
20
24.230122
42
-0.001873
0
VERTEX
8
1
10
18.583473
20
24.094191
0
VERTEX
8
1
10
18.581345
20
24.121040
42
0.063940
0
VERTEX
8
1
10
18.496710
20
24.307281
42
-0.054904
0
VERTEX
8
1
10
18.417530
20
24.502991
0
VERTEX
8
1
10
18.415012
20
24.534622
0
VERTEX
8
1
10
18.419590
20
24.562538
0
VERTEX
8
1
10
18.440365
20
24.558510
42
-0.152103
0
VERTEX
8
1
10
18.762785
20
24.157845
42
0.082173
0
VERTEX
8
1
10
18.899109
20
23.943285
42
0.051156
0
VERTEX
8
1
10
18.944603
20
23.910027
0
VERTEX
8
1
10
18.963734
20
23.911591
42
0.145444
0
VERTEX
8
1
10
18.989414
20
23.993752
42
0.083291
0
VERTEX
8
1
10
18.936893
20
24.337845
42
-0.100142
0
VERTEX
8
1
10
18.923401
20
24.567398
42
0.022225
0
VERTEX
8
1
10
18.921791
20
24.595261
0
VERTEX
8
1
10
18.930946
20
24.598495
42
-0.241879
0
VERTEX
8
1
10
19.245220
20
24.137611
42
0.096114
0
VERTEX
8
1
10
19.351387
20
23.827637
42
-0.155859
0
VERTEX
8
1
10
19.372231
20
23.688797
42
0.153050
0
VERTEX
8
1
10
19.401016
20
23.614120
42
-0.040208
0
VERTEX
8
1
10
19.438396
20
23.433197
0
VERTEX
8
1
10
19.443848
20
23.410357
42
0.040431
0
VERTEX
8
1
10
19.586342
20
23.059298
42
0.339171
0
VERTEX
8
1
10
20.051836
20
22.847645
42
0.226743
0
VERTEX
8
1
10
20.186386
20
22.981239
42
0.054017
0
VERTEX
8
1
10
20.256489
20
23.298615
0
VERTEX
8
1
10
20.262756
20
23.330788
42
0.088679
0
VERTEX
8
1
10
20.297974
20
23.630539
42
-0.015085
0
VERTEX
8
1
10
20.323143
20
23.831818
42
0.045694
0
VERTEX
8
1
10
20.291485
20
24.151672
42
0.020499
0
VERTEX
8
1
10
20.248114
20
24.428478
42
-0.115579
0
VERTEX
8
1
10
20.267628
20
24.565002
0
VERTEX
8
1
10
20.283283
20
24.587517
0
VERTEX
8
1
10
20.304577
20
24.606194
42
-0.127836
0
VERTEX
8
1
10
20.402222
20
24.428986
42
0.039629
0
VERTEX
8
1
10
20.499035
20
24.183508
42
-0.186917
0
VERTEX
8
1
10
20.504780
20
23.882042
0
VERTEX
8
1
10
20.521183
20
23.898285
42
0.056310
0
VERTEX
8
1
10
20.650795
20
24.142090
42
-0.048353
0
VERTEX
8
1
10
20.747364
20
24.315178
0
VERTEX
8
1
10
20.754337
20
24.315369
42
0.034826
0
VERTEX
8
1
10
20.787987
20
24.147675
42
-0.074476
0
VERTEX
8
1
10
20.778606
20
23.932396
42
-0.092272
0
VERTEX
8
1
10
20.721184
20
23.708260
42
0.051364
0
VERTEX
8
1
10
20.613918
20
23.293617
42
0.124652
0
VERTEX
8
1
10
20.705580
20
22.829176
42
0.294522
0
VERTEX
8
1
10
20.809513
20
22.780739
42
0.144101
0
VERTEX
8
1
10
21.253309
20
22.978636
42
0.078048
0
VERTEX
8
1
10
21.399807
20
23.160194
42
-0.044189
0
VERTEX
8
1
10
21.488766
20
23.340599
42
0.053025
0
VERTEX
8
1
10
21.529736
20
23.500229
42
-0.075722
0
VERTEX
8
1
10
21.596958
20
23.636086
42
0.114062
0
VERTEX
8
1
10
21.636030
20
23.806597
42
-0.177295
0
VERTEX
8
1
10
21.750294
20
24.020294
42
-0.083167
0
VERTEX
8
1
10
21.875370
20
24.141121
0
VERTEX
8
1
10
21.887581
20
24.139641
42
-0.349403
0
VERTEX
8
1
10
21.885490
20
24.049568
42
0.105482
0
VERTEX
8
1
10
21.803459
20
23.892982
42
0.027622
0
VERTEX
8
1
10
21.719481
20
23.523911
42
-0.072474
0
VERTEX
8
1
10
21.624493
20
23.289124
42
0.155675
0
VERTEX
8
1
10
21.713074
20
23.301590
42
-0.067141
0
VERTEX
8
1
10
21.883293
20
23.314674
42
0.126376
0
VERTEX
8
1
10
21.773899
20
23.246521
42
0.056944
0
VERTEX
8
1
10
21.517502
20
22.952721
0
VERTEX
8
1
10
21.522793
20
22.940819
42
0.238654
0
VERTEX
8
1
10
21.606514
20
22.919449
42
-0.233870
0
VERTEX
8
1
10
21.711102
20
22.868401
42
-0.034190
0
VERTEX
8
1
10
21.855904
20
22.717440
42
-0.204376
0
VERTEX
8
1
10
21.865280
20
22.633652
0
VERTEX
8
1
10
21.853176
20
22.629730
42
0.219040
0
VERTEX
8
1
10
21.723537
20
22.649796
42
-0.117335
0
VERTEX
8
1
10
21.556625
20
22.671669
42
0.176128
0
VERTEX
8
1
10
21.392342
20
22.662643
42
-0.107596
0
VERTEX
8
1
10
21.225990
20
22.649460
42
0.163142
0
VERTEX
8
1
10
21.109451
20
22.618927
42
-0.129191
0
VERTEX
8
1
10
21.028843
20
22.614525
42
0.221932
0
VERTEX
8
1
10
20.900223
20
22.547089
42
-0.108208
0
VERTEX
8
1
10
20.797306
20
22.473587
42
-0.017485
0
VERTEX
8
1
10
20.565666
20
22.359383
42
0.151637
0
VERTEX
8
1
10
20.364906
20
22.146011
42
0.034394
0
VERTEX
8
1
10
20.215321
20
21.798870
42
0.126072
0
VERTEX
8
1
10
20.202110
20
21.356998
42
0.039136
0
VERTEX
8
1
10
20.306503
20
20.967789
0
VERTEX
8
1
10
20.307529
20
20.930901
42
-0.090616
0
VERTEX
8
1
10
20.212662
20
20.969500
42
-0.015987
0
VERTEX
8
1
10
20.050713
20
21.066528
0
VERTEX
8
1
10
20.036770
20
21.059151
42
-0.027259
0
VERTEX
8
1
10
20.026232
20
20.695927
42
-0.080671
0
VERTEX
8
1
10
19.978687
20
20.556549
0
VERTEX
8
1
10
19.961079
20
20.538956
42
0.061704
0
VERTEX
8
1
10
19.857954
20
20.732920
42
0.232577
0
VERTEX
8
1
10
19.777477
20
20.763779
42
0.095792
0
SEQEND
0
POLYLINE
8
1
66
1
70
1
0
VERTEX
8
1
10
20.591324
20
21.008347
42
0.076431
0
VERTEX
8
1
10
20.543716
20
21.061607
42
-0.144452
0
VERTEX
8
1
10
20.424236
20
21.273209
42
-0.049539
0
VERTEX
8
1
10
20.421047
20
21.424675
42
-0.246415
0
VERTEX
8
1
10
20.553463
20
21.854181
42
-0.008642
0
VERTEX
8
1
10
20.585114
20
21.890213
0
VERTEX
8
1
10
20.592678
20
21.892174
42
0.089980
0
VERTEX
8
1
10
20.807678
20
21.431519
0
VERTEX
8
1
10
20.824142
20
21.403732
42
0.127944
0
VERTEX
8
1
10
20.706226
20
20.904411
42
-0.130337
0
SEQEND
0
POLYLINE
8
1
66
1
70
1
0
VERTEX
8
1
10
19.897964
20
20.149246
0
VERTEX
8
1
10
19.905418
20
20.151726
0
VERTEX
8
1
10
19.903603
20
20.145660
0
SEQEND
0
POLYLINE
8
1
66
1
70
1
0
VERTEX
8
1
10
19.624447
20
20.288536
42
-0.047858
0
VERTEX
8
1
10
19.817234
20
20.422096
0
VERTEX
8
1
10
19.815605
20
20.417015
0
VERTEX
8
1
10
19.798759
20
20.395859
42
0.067450
0
VERTEX
8
1
10
19.685871
20
20.113022
0
VERTEX
8
1
10
19.680767
20
20.112259
42
0.113591
0
VERTEX
8
1
10
19.562759
20
20.151131
42
-0.072679
0
VERTEX
8
1
10
19.432556
20
20.204636
42
-0.032337
0
VERTEX
8
1
10
19.574932
20
20.246429
42
0.045631
0
SEQEND
0
POLYLINE
8
1
66
1
70
1
0
VERTEX
8
1
10
19.813923
20
20.041229
42
-0.053036
0
VERTEX
8
1
10
19.782703
20
20.050713
0
VERTEX
8
1
10
19.803925
20
20.076370
42
0.023133
0
SEQEND
0
POLYLINE
8
1
66
1
70
1
0
VERTEX
8
1
10
21.190205
20
17.589752
0
VERTEX
8
1
10
21.172649
20
17.577576
0
VERTEX
8
1
10
21.169224
20
17.563896
42
-0.042107
0
VERTEX
8
1
10
21.448980
20
17.412861
42
-0.080436
0
VERTEX
8
1
10
21.512371
20
17.341209
0
VERTEX
8
1
10
21.509727
20
17.329330
42
0.100665
0
VERTEX
8
1
10
21.319469
20
17.314125
42
0.310106
0
VERTEX
8
1
10
21.289417
20
17.249191
42
0.028920
0
VERTEX
8
1
10
21.315773
20
17.114510
42
-0.083360
0
VERTEX
8
1
10
21.293724
20
16.703751
0
VERTEX
8
1
10
21.281288
20
16.663795
0
VERTEX
8
1
10
21.266186
20
16.626709
0
VERTEX
8
1
10
21.257301
20
16.617691
42
0.062229
0
VERTEX
8
1
10
21.219803
20
16.782707
42
-0.011781
0
VERTEX
8
1
10
21.152843
20
17.092911
0
VERTEX
8
1
10
21.145275
20
17.116890
42
0.220000
0
VERTEX
8
1
10
21.071611
20
17.042517
42
-0.086759
0
VERTEX
8
1
10
21.018177
20
16.979523
0
VERTEX
8
1
10
21.004845
20
16.981277
42
-0.201987
0
VERTEX
8
1
10
21.007427
20
17.107277
42
0.164627
0
VERTEX
8
1
10
21.014709
20
17.368240
42
0.097605
0
VERTEX
8
1
10
20.856430
20
17.710146
42
0.109366
0
VERTEX
8
1
10
20.677784
20
17.846466
0
VERTEX
8
1
10
20.600636
20
17.882133
42
0.148177
0
VERTEX
8
1
10
20.450045
20
17.915777
42
0.352411
0
VERTEX
8
1
10
20.380669
20
17.822151
42
0.024974
0
VERTEX
8
1
10
20.406994
20
17.521248
42
-0.111824
0
VERTEX
8
1
10
20.423553
20
17.244549
42
-0.052108
0
VERTEX
8
1
10
20.407135
20
17.205345
0
VERTEX
8
1
10
20.396194
20
17.197823
0
VERTEX
8
1
10
20.297718
20
17.248672
42
0.361582
0
VERTEX
8
1
10
20.253849
20
17.186440
42
0.012494
0
VERTEX
8
1
10
20.264511
20
17.065529
42
-0.071388
0
VERTEX
8
1
10
20.204655
20
16.870216
42
0.178665
0
VERTEX
8
1
10
20.159565
20
17.056122
0
VERTEX
8
1
10
20.151283
20
17.054810
42
0.005063
0
VERTEX
8
1
10
20.082005
20
16.947800
42
-0.130060
0
VERTEX
8
1
10
19.914036
20
16.829178
0
VERTEX
8
1
10
19.896420
20
16.827248
0
VERTEX
8
1
10
19.889641
20
16.835747
0
VERTEX
8
1
10
19.906326
20
16.860313
42
0.037453
0
VERTEX
8
1
10
20.041161
20
17.051712
0
VERTEX
8
1
10
20.053410
20
17.078537
42
0.086788
0
VERTEX
8
1
10
20.129572
20
17.568623
42
0.088475
0
VERTEX
8
1
10
20.073172
20
17.778646
42
0.228415
0
VERTEX
8
1
10
19.966228
20
17.846191
42
0.097065
0
VERTEX
8
1
10
19.827869
20
17.801224
0
VERTEX
8
1
10
19.754917
20
17.765907
42
0.050877
0
VERTEX
8
1
10
19.465584
20
17.622978
42
0.167719
0
VERTEX
8
1
10
19.297096
20
17.475700
42
0.020524
0
VERTEX
8
1
10
19.192295
20
17.299118
0
VERTEX
8
1
10
19.182693
20
17.297417
42
-0.101284
0
VERTEX
8
1
10
19.211163
20
17.661621
0
VERTEX
8
1
10
19.195797
20
17.658813
42
0.050916
0
VERTEX
8
1
10
18.930733
20
17.489708
42
0.119937
0
VERTEX
8
1
10
18.812681
20
17.302025
42
-0.052867
0
VERTEX
8
1
10
18.723511
20
17.152832
0
VERTEX
8
1
10
18.704506
20
17.141113
42
-0.079427
0
VERTEX
8
1
10
18.673519
20
17.373856
0
VERTEX
8
1
10
18.677536
20
17.398224
0
VERTEX
8
1
10
18.684158
20
17.421181
0
VERTEX
8
1
10
18.676571
20
17.428528
42
0.149004
0
VERTEX
8
1
10
18.399044
20
17.346214
42
-0.049364
0
VERTEX
8
1
10
18.172943
20
17.228241
0
VERTEX
8
1
10
18.136120
20
17.218155
0
VERTEX
8
1
10
18.100861
20
17.213539
0
VERTEX
8
1
10
18.076534
20
17.218475
42
-0.116723
0
VERTEX
8
1
10
18.209587
20
17.334816
0
VERTEX
8
1
10
18.228092
20
17.347404
42
0.002427
0
VERTEX
8
1
10
18.504826
20
17.575165
0
VERTEX
8
1
10
18.487278
20
17.584831
42
0.055906
0
VERTEX
8
1
10
18.271904
20
17.588552
42
-0.057509
0
VERTEX
8
1
10
18.156719
20
17.600761
0
VERTEX
8
1
10
18.131229
20
17.611526
0
VERTEX
8
1
10
18.115570
20
17.626831
0
VERTEX
8
1
10
18.134663
20
17.641068
42
-0.148391
0
VERTEX
8
1
10
18.526972
20
17.726244
42
0.071160
0
VERTEX
8
1
10
18.711838
20
17.745506
0
VERTEX
8
1
10
18.739239
20
17.756721
0
VERTEX
8
1
10
18.764233
20
17.771690
0
VERTEX
8
1
10
18.767262
20
17.787277
42
0.173464
0
VERTEX
8
1
10
18.689289
20
17.845156
42
0.075480
0
VERTEX
8
1
10
18.450775
20
17.914108
42
-0.091190
0
VERTEX
8
1
10
18.276260
20
17.987841
0
VERTEX
8
1
10
18.270502
20
17.990112
0
VERTEX
8
1
10
18.264690
20
17.992241
0
VERTEX
8
1
10
18.277180
20
18.005608
42
-0.214915
0
VERTEX
8
1
10
18.659519
20
18.074883
0
VERTEX
8
1
10
18.754406
20
18.051170
42
0.089147
0
VERTEX
8
1
10
18.964514
20
18.033154
42
-0.149241
0
VERTEX
8
1
10
19.065502
20
18.000267
42
0.127667
0
VERTEX
8
1
10
19.136616
20
17.993202
42
-0.013632
0
VERTEX
8
1
10
19.294750
20
17.952995
42
0.062874
0
VERTEX
8
1
10
19.643419
20
17.940081
42
0.305173
0
VERTEX
8
1
10
19.902315
20
18.199333
42
0.231347
0
VERTEX
8
1
10
19.842712
20
18.346230
42
0.044729
0
VERTEX
8
1
10
19.637119
20
18.504837
42
0.089798
0
VERTEX
8
1
10
19.426929
20
18.639771
42
-0.004073
0
VERTEX
8
1
10
19.287151
20
18.730263
42
0.036855
0
VERTEX
8
1
10
18.984917
20
18.837292
42
0.004391
0
VERTEX
8
1
10
18.825020
20
18.887281
42
-0.111853
0
VERTEX
8
1
10
18.749668
20
18.945633
0
VERTEX
8
1
10
18.739658
20
18.967934
0
VERTEX
8
1
10
18.747307
20
18.984306
42
-0.108943
0
VERTEX
8
1
10
18.881893
20
18.990692
0
VERTEX
8
1
10
18.950157
20
18.981583
42
-0.026345
0
VERTEX
8
1
10
19.171114
20
18.961643
42
-0.149015
0
VERTEX
8
1
10
19.325035
20
18.870934
42
0.070353
0
VERTEX
8
1
10
19.184151
20
19.070244
42
-0.043935
0
VERTEX
8
1
10
19.102711
20
19.185028
0
VERTEX
8
1
10
19.096947
20
19.201599
42
0.042828
0
VERTEX
8
1
10
19.231617
20
19.166046
42
-0.082586
0
VERTEX
8
1
10
19.371124
20
19.091225
42
-0.090173
0
VERTEX
8
1
10
19.527981
20
18.959183
42
0.053848
0
VERTEX
8
1
10
19.781364
20
18.745361
42
0.120984
0
VERTEX
8
1
10
20.140074
20
18.650625
42
0.293151
0
VERTEX
8
1
10
20.212570
20
18.711807
42
0.204011
0
VERTEX
8
1
10
20.171938
20
19.217751
0
VERTEX
8
1
10
20.154560
20
19.245056
42
-0.028508
0
VERTEX
8
1
10
20.046532
20
19.387589
42
0.035858
0
VERTEX
8
1
10
19.933445
20
19.483864
0
VERTEX
8
1
10
19.922516
20
19.495178
42
0.039612
0
VERTEX
8
1
10
19.845860
20
19.597931
42
-0.011031
0
VERTEX
8
1
10
19.724594
20
19.687645
42
-0.125509
0
VERTEX
8
1
10
19.655338
20
19.803726
42
-0.076181
0
VERTEX
8
1
10
19.610931
20
19.936729
0
VERTEX
8
1
10
19.615040
20
19.946983
42
-0.374734
0
VERTEX
8
1
10
19.683823
20
19.907150
42
0.113501
0
VERTEX
8
1
10
19.782635
20
19.782730
42
0.014360
0
VERTEX
8
1
10
20.001274
20
19.609818
42
-0.070335
0
VERTEX
8
1
10
20.131367
20
19.466026
0
VERTEX
8
1
10
20.135765
20
19.470871
42
0.060424
0
VERTEX
8
1
10
20.159321
20
19.563042
42
-0.017925
0
VERTEX
8
1
10
20.201660
20
19.657959
42
0.124725
0
VERTEX
8
1
10
20.216290
20
19.545013
42
0.061327
0
VERTEX
8
1
10
20.336517
20
19.270569
42
0.283364
0
VERTEX
8
1
10
20.386353
20
19.323648
42
-0.245740
0
VERTEX
8
1
10
20.468292
20
19.384331
42
-0.041955
0
VERTEX
8
1
10
20.621359
20
19.433123
42
-0.257113
0
VERTEX
8
1
10
20.685535
20
19.403885
42
0.234788
0
VERTEX
8
1
10
20.618874
20
19.310867
42
-0.107508
0
VERTEX
8
1
10
20.537865
20
19.192497
42
0.154093
0
VERTEX
8
1
10
20.494450
20
19.070770
42
-0.103508
0
VERTEX
8
1
10
20.442596
20
18.949066
42
0.116733
0
VERTEX
8
1
10
20.428204
20
18.853760
0
VERTEX
8
1
10
20.418739
20
18.834997
42
0.266294
0
VERTEX
8
1
10
20.417934
20
18.667343
42
-0.000426
0
VERTEX
8
1
10
20.444733
20
18.443827
0
VERTEX
8
1
10
20.449766
20
18.432081
0
VERTEX
8
1
10
20.456406
20
18.421165
0
VERTEX
8
1
10
20.464493
20
18.425140
42
0.195536
0
VERTEX
8
1
10
20.470337
20
18.265518
0
VERTEX
8
1
10
20.487820
20
18.226875
42
0.072425
0
VERTEX
8
1
10
20.717529
20
17.934669
0
VERTEX
8
1
10
20.771927
20
17.892670
42
0.113089
0
VERTEX
8
1
10
21.204136
20
17.742538
42
0.009470
0
VERTEX
8
1
10
21.360851
20
17.719284
0
VERTEX
8
1
10
21.347771
20
17.702438
42
-0.066350
0
SEQEND
0
POLYLINE
8
1
66
1
70
1
0
VERTEX
8
1
10
21.032127
20
18.988998
0
VERTEX
8
1
10
21.037338
20
18.992561
42
-0.119936
0
VERTEX
8
1
10
21.287254
20
19.031853
42
0.683826
0
VERTEX
8
1
10
21.317341
20
19.100754
42
-0.098245
0
VERTEX
8
1
10
21.282787
20
19.156242
42
0.187900
0
VERTEX
8
1
10
21.152250
20
19.207737
0
VERTEX
8
1
10
21.145172
20
19.211220
42
0.085143
0
VERTEX
8
1
10
21.193890
20
19.281685
42
0.162020
0
VERTEX
8
1
10
21.219769
20
19.332375
42
0.506009
0
VERTEX
8
1
10
21.202587
20
19.338768
42
-0.058057
0
VERTEX
8
1
10
21.105408
20
19.316101
0
VERTEX
8
1
10
21.101135
20
19.319473
42
-0.151514
0
VERTEX
8
1
10
21.115166
20
19.366829
42
0.013031
0
VERTEX
8
1
10
21.146172
20
19.520784
42
0.530373
0
VERTEX
8
1
10
21.121925
20
19.527237
42
0.124502
0
VERTEX
8
1
10
21.060993
20
19.473145
42
-0.003272
0
VERTEX
8
1
10
21.014437
20
19.445618
42
-0.843647
0
VERTEX
8
1
10
20.981770
20
19.446945
42
-0.081620
0
VERTEX
8
1
10
20.938744
20
19.691010
42
0.032078
0
VERTEX
8
1
10
20.898228
20
19.990570
0
VERTEX
8
1
10
20.892529
20
20.006248
0
VERTEX
8
1
10
20.884853
20
20.020973
42
0.056644
0
VERTEX
8
1
10
20.797859
20
19.913277
42
0.121953
0
VERTEX
8
1
10
20.795906
20
19.840363
0
VERTEX
8
1
10
20.795704
20
19.827766
0
VERTEX
8
1
10
20.784050
20
19.831123
42
-0.130082
0
VERTEX
8
1
10
20.732594
20
19.955173
42
0.147762
0
VERTEX
8
1
10
20.684235
20
20.030907
0
VERTEX
8
1
10
20.677776
20
20.025673
0
VERTEX
8
1
10
20.672394
20
20.017120
42
0.108842
0
VERTEX
8
1
10
20.641647
20
19.672585
0
VERTEX
8
1
10
20.647591
20
19.653214
0
VERTEX
8
1
10
20.643845
20
19.655525
42
-0.060544
0
VERTEX
8
1
10
20.521961
20
19.860390
42
-0.046953
0
VERTEX
8
1
10
20.372807
20
19.990555
0
VERTEX
8
1
10
20.369076
20
19.991066
0
VERTEX
8
1
10
20.366222
20
19.985474
0
VERTEX
8
1
10
20.364449
20
19.978775
42
-0.016827
0
VERTEX
8
1
10
20.362213
20
19.872681
0
VERTEX
8
1
10
20.364594
20
19.864258
0
VERTEX
8
1
10
20.366508
20
19.860268
42
-0.098292
0
VERTEX
8
1
10
20.191292
20
20.092010
42
0.081908
0
VERTEX
8
1
10
20.118858
20
20.184029
0
VERTEX
8
1
10
20.115150
20
20.191719
42
0.024868
0
VERTEX
8
1
10
20.199303
20
20.346375
42
-0.070123
0
VERTEX
8
1
10
20.320936
20
20.499704
42
-0.612477
0
VERTEX
8
1
10
20.348167
20
20.477364
42
0.171887
0
VERTEX
8
1
10
20.367741
20
20.451715
42
-0.160853
0
VERTEX
8
1
10
20.402088
20
20.374260
42
0.204432
0
VERTEX
8
1
10
20.450237
20
20.317146
0
VERTEX
8
1
10
20.459007
20
20.318924
0
VERTEX
8
1
10
20.466087
20
20.327469
42
0.009948
0
VERTEX
8
1
10
20.505146
20
20.524193
42
-0.110180
0
VERTEX
8
1
10
20.511532
20
20.578133
0
VERTEX
8
1
10
20.517265
20
20.581970
42
-0.044337
0
VERTEX
8
1
10
20.629955
20
20.499432
42
0.514768
0
VERTEX
8
1
10
20.645557
20
20.510979
42
0.092421
0
VERTEX
8
1
10
20.635456
20
20.592705
42
0.111168
0
VERTEX
8
1
10
20.616295
20
20.681992
42
-0.278132
0
VERTEX
8
1
10
20.645372
20
20.675526
42
0.110484
0
VERTEX
8
1
10
20.735725
20
20.663467
42
0.075983
0
VERTEX
8
1
10
20.934444
20
20.196869
0
VERTEX
8
1
10
21.011978
20
20.077599
42
0.083955
0
VERTEX
8
1
10
21.820175
20
19.285530
0
VERTEX
8
1
10
21.874050
20
19.242256
42
0.092113
0
VERTEX
8
1
10
21.801723
20
18.768402
0
VERTEX
8
1
10
21.718700
20
18.777237
0
VERTEX
8
1
10
21.611179
20
18.791611
0
VERTEX
8
1
10
21.502403
20
18.799248
42
0.069303
0
VERTEX
8
1
10
20.743240
20
18.708405
0
VERTEX
8
1
10
20.730686
20
18.709099
42
-0.117551
0
VERTEX
8
1
10
20.790852
20
18.790543
42
-0.220420
0
VERTEX
8
1
10
20.962568
20
18.954514
42
0.023964
0
SEQEND
0
POLYLINE
8
1
66
1
70
1
0
VERTEX
8
1
10
28.136440
20
5.695961
42
-0.077554
0
VERTEX
8
1
10
28.153122
20
5.584454
42
-0.640751
0
VERTEX
8
1
10
28.140152
20
5.586594
42
0.124049
0
VERTEX
8
1
10
27.813480
20
5.734512
42
0.080112
0
VERTEX
8
1
10
27.272453
20
5.770525
42
0.167177
0
VERTEX
8
1
10
27.060514
20
5.660043
42
0.163896
0
VERTEX
8
1
10
26.995819
20
5.483070
42
0.065030
0
VERTEX
8
1
10
27.024834
20
5.132240
42
0.210041
0
VERTEX
8
1
10
27.310539
20
4.647139
42
0.157130
0
VERTEX
8
1
10
27.650837
20
4.557228
42
0.136457
0
VERTEX
8
1
10
28.116394
20
4.676665
42
0.119089
0
VERTEX
8
1
10
28.208111
20
4.783943
42
-0.065020
0
VERTEX
8
1
10
28.192841
20
4.402359
0
VERTEX
8
1
10
28.185734
20
4.385774
42
-0.002934
0
VERTEX
8
1
10
27.736549
20
4.375642
42
0.135722
0
VERTEX
8
1
10
27.454697
20
4.458107
42
0.120282
0
VERTEX
8
1
10
26.861221
20
4.361291
42
-0.000553
0
VERTEX
8
1
10
26.377335
20
4.355593
0
VERTEX
8
1
10
26.358231
20
4.358078
42
-0.094958
0
VERTEX
8
1
10
26.748970
20
4.439522
0
VERTEX
8
1
10
26.729935
20
4.662498
42
0.191299
0
VERTEX
8
1
10
26.403759
20
4.651718
42
-0.040349
0
VERTEX
8
1
10
26.491936
20
5.608856
42
-0.302618
0
VERTEX
8
1
10
26.561962
20
5.653854
42
-0.083915
0
VERTEX
8
1
10
26.808914
20
5.634743
0
VERTEX
8
1
10
26.816576
20
5.648962
42
0.073540
0
VERTEX
8
1
10
26.828415
20
5.764923
0
VERTEX
8
1
10
26.794674
20
5.782121
42
-0.003946
0
VERTEX
8
1
10
26.058262
20
5.940949
0
VERTEX
8
1
10
26.047489
20
5.940407
42
-0.100450
0
VERTEX
8
1
10
25.782946
20
4.772635
42
-0.055569
0
VERTEX
8
1
10
25.643036
20
4.558769
42
-0.451576
0
VERTEX
8
1
10
25.439035
20
4.567024
42
-0.142942
0
VERTEX
8
1
10
25.392609
20
4.671033
42
-0.110665
0
VERTEX
8
1
10
25.390079
20
4.845558
42
-0.085747
0
VERTEX
8
1
10
25.582754
20
5.367465
42
-0.043752
0
VERTEX
8
1
10
25.800060
20
5.698577
0
VERTEX
8
1
10
25.786961
20
5.712578
42
-0.033313
0
VERTEX
8
1
10
24.733566
20
5.725418
0
VERTEX
8
1
10
24.705540
20
5.714172
42
-0.003226
0
VERTEX
8
1
10
24.603355
20
5.507277
0
VERTEX
8
1
10
24.619987
20
5.506463
42
-0.029449
0
VERTEX
8
1
10
25.213497
20
5.521576
42
0.143202
0
VERTEX
8
1
10
24.691019
20
4.801635
42
0.108159
0
VERTEX
8
1
10
24.663609
20
4.440551
42
0.074481
0
VERTEX
8
1
10
24.701038
20
4.346771
0
VERTEX
8
1
10
24.696087
20
4.342339
0
VERTEX
8
1
10
24.521152
20
4.341446
0
VERTEX
8
1
10
24.516239
20
4.342911
0
VERTEX
8
1
10
24.485859
20
4.640144
42
0.192342
0
VERTEX
8
1
10
24.152985
20
4.602150
0
VERTEX
8
1
10
24.158386
20
4.624878
42
0.099324
0
VERTEX
8
1
10
24.255579
20
5.479162
42
-0.008158
0
VERTEX
8
1
10
24.253353
20
5.625404
42
-0.205996
0
VERTEX
8
1
10
24.318245
20
5.686996
42
-0.034320
0
VERTEX
8
1
10
24.455833
20
5.745209
42
0.144971
0
VERTEX
8
1
10
24.469955
20
5.802704
42
0.081204
0
VERTEX
8
1
10
24.446918
20
6.002213
42
-0.038012
0
VERTEX
8
1
10
23.636307
20
5.826890
0
VERTEX
8
1
10
23.536392
20
5.811241
0
VERTEX
8
1
10
23.519855
20
5.799339
42
-0.106792
0
VERTEX
8
1
10
23.648746
20
5.400299
0
VERTEX
8
1
10
23.571350
20
5.468712
42
0.180942
0
VERTEX
8
1
10
22.964647
20
5.714584
42
0.279578
0
VERTEX
8
1
10
22.373373
20
5.346463
42
0.106573
0
VERTEX
8
1
10
22.233025
20
4.898766
42
0.104247
0
VERTEX
8
1
10
22.249090
20
4.469946
42
0.087283
0
VERTEX
8
1
10
22.319122
20
4.343239
0
VERTEX
8
1
10
22.296730
20
4.340940
42
-0.007381
0
VERTEX
8
1
10
22.019123
20
4.346250
0
VERTEX
8
1
10
22.017220
20
4.357208
0
VERTEX
8
1
10
22.010704
20
4.538185
0
VERTEX
8
1
10
22.011887
20
4.543289
42
0.136370
0
VERTEX
8
1
10
22.072565
20
5.207470
42
0.126222
0
VERTEX
8
1
10
21.984936
20
5.365318
0
VERTEX
8
1
10
21.978729
20
5.523391
42
-0.002569
0
VERTEX
8
1
10
21.920383
20
7.879523
0
VERTEX
8
1
10
22.097466
20
7.887024
0
VERTEX
8
1
10
22.373528
20
7.883087
0
VERTEX
8
1
10
22.723516
20
7.881340
42
0.003570
0
VERTEX
8
1
10
28.395456
20
7.939025
0
VERTEX
8
1
10
28.415890
20
7.936813
42
0.102358
0
VERTEX
8
1
10
28.405060
20
7.875694
42
0.459866
0
VERTEX
8
1
10
28.427551
20
7.876633
42
-0.028194
0
VERTEX
8
1
10
28.582363
20
7.941818
0
VERTEX
8
1
10
28.648197
20
7.942947
42
-0.000690
0
VERTEX
8
1
10
28.647808
20
5.652565
42
-0.126629
0
VERTEX
8
1
10
28.101234
20
5.836319
42
-0.006931
0
SEQEND
0
POLYLINE
8
1
66
1
70
1
0
VERTEX
8
1
10
28.564220
20
5.421120
42
0.042220
0
VERTEX
8
1
10
28.647533
20
5.385178
0
VERTEX
8
1
10
28.647388
20
5.234016
42
0.030039
0
VERTEX
8
1
10
28.553234
20
5.427048
0
SEQEND
0
POLYLINE
8
1
66
1
70
1
0
VERTEX
8
1
10
27.598324
20
5.317223
42
-0.206788
0
VERTEX
8
1
10
28.242624
20
5.142550
42
-0.154882
0
VERTEX
8
1
10
28.280613
20
5.061256
42
-0.279368
0
VERTEX
8
1
10
28.235558
20
5.003113
42
-0.106506
0
VERTEX
8
1
10
28.014832
20
4.951134
42
-0.162868
0
VERTEX
8
1
10
27.367977
20
5.098796
42
-0.135963
0
VERTEX
8
1
10
27.314754
20
5.172470
42
-0.327423
0
VERTEX
8
1
10
27.357697
20
5.253990
42
-0.109205
0
SEQEND
0
POLYLINE
8
1
66
1
70
1
0
VERTEX
8
1
10
27.803444
20
4.249855
0
VERTEX
8
1
10
28.165417
20
4.255272
42
-0.130684
0
VERTEX
8
1
10
28.007866
20
3.923831
42
-0.118309
0
VERTEX
8
1
10
27.871773
20
3.842163
42
-0.128755
0
VERTEX
8
1
10
27.293688
20
3.788418
42
-0.157360
0
VERTEX
8
1
10
27.255791
20
3.816696
42
-0.320679
0
VERTEX
8
1
10
27.285362
20
3.869644
42
-0.075196
0
VERTEX
8
1
10
27.397858
20
3.918442
42
0.054944
0
VERTEX
8
1
10
27.681515
20
4.034912
42
0.235014
0
SEQEND
0
POLYLINE
8
1
66
1
70
1
0
VERTEX
8
1
10
25.728287
20
4.417976
42
0.034133
0
VERTEX
8
1
10
25.870842
20
4.562599
42
-0.019414
0
VERTEX
8
1
10
25.842934
20
4.350388
0
VERTEX
8
1
10
25.642483
20
4.348694
42
0.021421
0
SEQEND
0
POLYLINE
8
1
66
1
70
1
0
VERTEX
8
1
10
23.558792
20
5.142448
42
-0.138973
0
VERTEX
8
1
10
23.712337
20
5.071219
42
-0.330720
0
VERTEX
8
1
10
23.716709
20
4.983765
42
-0.138239
0
VERTEX
8
1
10
23.582535
20
4.858986
42
-0.163397
0
VERTEX
8
1
10
22.968819
20
4.720985
42
-0.101243
0
VERTEX
8
1
10
22.625111
20
4.802007
42
-0.604897
0
VERTEX
8
1
10
22.623560
20
4.970475
42
-0.092812
0
VERTEX
8
1
10
22.784916
20
5.065024
42
-0.149798
0
SEQEND
0
POLYLINE
8
1
66
1
70
1
0
VERTEX
8
1
10
23.620708
20
4.405785
42
-0.018537
0
VERTEX
8
1
10
23.613468
20
4.338287
0
VERTEX
8
1
10
23.451759
20
4.338036
42
0.028925
0
VERTEX
8
1
10
23.611431
20
4.446953
42
-0.610333
0
VERTEX
8
1
10
23.620686
20
4.436890
42
-0.041329
0
SEQEND
0
POLYLINE
8
1
66
1
70
1
0
VERTEX
8
1
10
21.997799
20
8.310425
42
-0.037191
0
VERTEX
8
1
10
21.913288
20
8.273483
0
VERTEX
8
1
10
21.909813
20
8.494934
0
VERTEX
8
1
10
21.926685
20
8.508186
42
0.064361
0
VERTEX
8
1
10
22.154495
20
8.623871
42
-0.442841
0
VERTEX
8
1
10
22.184364
20
8.598801
42
-0.276304
0
VERTEX
8
1
10
22.100796
20
8.383781
42
-0.066709
0
SEQEND
0
POLYLINE
8
1
66
1
70
1
0
VERTEX
8
1
10
22.973576
20
8.018463
42
-0.052951
0
VERTEX
8
1
10
23.595261
20
8.019653
0
VERTEX
8
1
10
23.572153
20
8.018876
42
-0.000677
0
SEQEND
0
POLYLINE
8
1
66
1
70
1
0
VERTEX
8
1
10
29.031658
20
14.773773
42
-0.203568
0
VERTEX
8
1
10
29.166521
20
14.670701
42
-0.433310
0
VERTEX
8
1
10
29.089815
20
14.515318
42
-0.102302
0
VERTEX
8
1
10
28.933445
20
14.483086
42
-0.067776
0
VERTEX
8
1
10
28.447006
20
14.526352
42
-0.140129
0
VERTEX
8
1
10
28.326017
20
14.605080
0
VERTEX
8
1
10
28.319757
20
14.617488
42
-0.348227
0
VERTEX
8
1
10
28.338854
20
14.710790
42
-0.133820
0
VERTEX
8
1
10
28.410725
20
14.749329
42
-0.122935
0
VERTEX
8
1
10
29.004425
20
14.782172
0
VERTEX
8
1
10
29.018101
20
14.778164
0
SEQEND
0
POLYLINE
8
1
66
1
70
1
0
VERTEX
8
1
10
27.654537
20
13.336212
42
-0.012949
0
VERTEX
8
1
10
27.524883
20
13.381767
0
VERTEX
8
1
10
27.517426
20
13.392776
42
-0.089718
0
VERTEX
8
1
10
27.485130
20
13.657593
42
-0.023639
0
VERTEX
8
1
10
27.533768
20
14.326076
42
0.084830
0
VERTEX
8
1
10
27.477205
20
14.879438
42
0.116513
0
VERTEX
8
1
10
27.365107
20
15.059537
42
0.287212
0
VERTEX
8
1
10
27.127930
20
15.085953
0
VERTEX
8
1
10
27.097164
20
15.072680
42
0.188662
0
VERTEX
8
1
10
26.426193
20
14.271584
0
VERTEX
8
1
10
26.411293
20
14.262291
42
-0.110950
0
VERTEX
8
1
10
26.544636
20
14.886497
0
VERTEX
8
1
10
26.571369
20
14.935516
0
VERTEX
8
1
10
26.513830
20
14.967348
42
-0.009685
0
VERTEX
8
1
10
25.503757
20
15.044601
42
0.133760
0
VERTEX
8
1
10
25.516623
20
14.884427
42
0.188862
0
VERTEX
8
1
10
25.539497
20
14.868553
42
-0.046010
0
VERTEX
8
1
10
25.714901
20
14.832512
42
-0.305065
0
VERTEX
8
1
10
25.788166
20
14.712882
42
0.038999
0
VERTEX
8
1
10
25.913239
20
13.862971
42
0.050025
0
VERTEX
8
1
10
25.974583
20
13.714050
42
0.199913
0
VERTEX
8
1
10
25.661648
20
13.744530
0
VERTEX
8
1
10
25.658909
20
13.421234
42
-0.145193
0
VERTEX
8
1
10
25.822163
20
13.485603
42
-0.133884
0
VERTEX
8
1
10
26.568867
20
13.356407
0
VERTEX
8
1
10
26.556290
20
13.407677
42
-0.052291
0
VERTEX
8
1
10
26.448093
20
13.850937
42
-0.153544
0
VERTEX
8
1
10
26.689489
20
14.303090
42
-0.121283
0
VERTEX
8
1
10
26.858469
20
14.384371
42
-0.307019
0
VERTEX
8
1
10
26.944145
20
14.332787
42
-0.116048
0
VERTEX
8
1
10
26.980927
20
14.130943
42
-0.059933
0
VERTEX
8
1
10
26.929621
20
13.550657
42
-0.060400
0
VERTEX
8
1
10
26.842346
20
13.334457
0
VERTEX
8
1
10
27.151291
20
13.276681
42
-0.027579
0
VERTEX
8
1
10
24.506363
20
13.425552
0
VERTEX
8
1
10
24.439804
20
13.440140
42
-0.084921
0
VERTEX
8
1
10
25.524338
20
13.439369
0
VERTEX
8
1
10
25.548977
20
13.451241
42
0.043985
0
VERTEX
8
1
10
25.524290
20
13.793595
42
0.345915
0
VERTEX
8
1
10
25.501698
20
13.801262
42
-0.166042
0
VERTEX
8
1
10
25.298611
20
13.770480
42
-0.233178
0
VERTEX
8
1
10
25.230137
20
13.841072
42
-0.087893
0
VERTEX
8
1
10
25.198685
20
14.066154
42
-0.049491
0
VERTEX
8
1
10
25.305653
20
14.993721
0
VERTEX
8
1
10
25.364014
20
15.214676
0
VERTEX
8
1
10
25.370014
20
15.235519
42
0.161024
0
VERTEX
8
1
10
25.527054
20
15.336849
42
0.244809
0
VERTEX
8
1
10
25.519691
20
15.456116
42
-1.932237
0
VERTEX
8
1
10
25.523304
20
15.452820
42
-0.025086
0
VERTEX
8
1
10
25.585201
20
15.274300
42
0.132310
0
VERTEX
8
1
10
25.636681
20
15.206802
42
0.145266
0
VERTEX
8
1
10
25.677845
20
15.165024
0
VERTEX
8
1
10
25.680038
20
15.168678
42
-0.050180
0
VERTEX
8
1
10
25.718216
20
15.302171
42
-0.422138
0
VERTEX
8
1
10
25.768257
20
15.307434
0
VERTEX
8
1
10
25.778770
20
15.300865
42
0.057693
0
VERTEX
8
1
10
26.010120
20
15.132380
42
0.204612
0
VERTEX
8
1
10
26.103748
20
15.134682
0
VERTEX
8
1
10
26.106953
20
15.140701
0
VERTEX
8
1
10
26.105328
20
15.148430
42
-0.074332
0
VERTEX
8
1
10
26.081764
20
15.226639
0
VERTEX
8
1
10
26.083427
20
15.236488
0
VERTEX
8
1
10
26.087261
20
15.246765
0
VERTEX
8
1
10
26.099216
20
15.249725
42
-0.023561
0
VERTEX
8
1
10
26.296776
20
15.146645
42
0.166635
0
VERTEX
8
1
10
26.548416
20
15.111786
42
0.118323
0
VERTEX
8
1
10
26.481682
20
15.172211
42
-0.155024
0
VERTEX
8
1
10
26.319553
20
15.393210
42
-0.101340
0
VERTEX
8
1
10
26.278015
20
15.617409
42
-0.424579
0
VERTEX
8
1
10
26.311863
20
15.632935
42
-0.014488
0
VERTEX
8
1
10
26.389160
20
15.613518
0
VERTEX
8
1
10
26.389004
20
15.626778
42
0.193438
0
VERTEX
8
1
10
26.315002
20
15.713799
42
-0.099141
0
VERTEX
8
1
10
26.181400
20
15.847740
42
0.011663
0
VERTEX
8
1
10
26.275801
20
15.865734
42
0.121395
0
VERTEX
8
1
10
26.289982
20
15.880157
42
0.043169
0
VERTEX
8
1
10
26.184837
20
15.973572
42
-0.051466
0
VERTEX
8
1
10
25.986937
20
16.193821
42
-0.298227
0
VERTEX
8
1
10
26.003906
20
16.348282
42
-0.475445
0
VERTEX
8
1
10
26.276730
20
16.284142
42
-0.163780
0
VERTEX
8
1
10
26.332495
20
16.074789
42
0.118136
0
VERTEX
8
1
10
26.366619
20
15.936609
42
0.374702
0
VERTEX
8
1
10
26.389229
20
15.938095
42
0.106669
0
VERTEX
8
1
10
26.481316
20
16.002785
0
VERTEX
8
1
10
26.487881
20
16.003624
42
-0.113904
0
VERTEX
8
1
10
26.510483
20
15.947258
42
-0.026384
0
VERTEX
8
1
10
26.584124
20
15.536819
42
0.107221
0
VERTEX
8
1
10
26.608788
20
15.494148
42
0.384816
0
VERTEX
8
1
10
26.657047
20
15.509842
42
0.093893
0
VERTEX
8
1
10
26.709579
20
15.616839
42
-0.246479
0
VERTEX
8
1
10
26.738323
20
15.630959
42
0.107315
0
VERTEX
8
1
10
27.023161
20
15.511973
42
0.050246
0
VERTEX
8
1
10
27.069649
20
15.514030
42
0.060352
0
VERTEX
8
1
10
27.049103
20
15.603973
0
VERTEX
8
1
10
27.049313
20
15.612091
0
VERTEX
8
1
10
27.056320
20
15.617317
42
-0.099713
0
VERTEX
8
1
10
27.194069
20
15.623861
42
0.010418
0
VERTEX
8
1
10
27.217892
20
15.624481
42
-0.040200
0
VERTEX
8
1
10
27.523537
20
14.939629
42
-0.011523
0
VERTEX
8
1
10
27.733044
20
14.333458
42
0.153781
0
VERTEX
8
1
10
27.910755
20
13.754410
42
-0.005988
0
VERTEX
8
1
10
28.033314
20
13.330780
0
VERTEX
8
1
10
28.012230
20
13.324966
42
-0.015604
0
VERTEX
8
1
10
27.728260
20
13.299179
0
VERTEX
8
1
10
27.732967
20
13.311447
0
SEQEND
0
POLYLINE
8
1
66
1
70
1
0
VERTEX
8
1
10
25.284859
20
15.729942
42
0.036516
0
VERTEX
8
1
10
25.266975
20
15.640732
0
VERTEX
8
1
10
25.257771
20
15.640762
42
0.030485
0
VERTEX
8
1
10
25.161407
20
15.665749
42
0.060335
0
VERTEX
8
1
10
25.081242
20
15.964744
0
VERTEX
8
1
10
25.074577
20
15.980461
0
VERTEX
8
1
10
25.074299
20
15.990143
0
VERTEX
8
1
10
25.080414
20
15.994019
42
-0.120077
0
VERTEX
8
1
10
25.151688
20
15.967781
0
VERTEX
8
1
10
25.157661
20
15.968475
42
0.035059
0
VERTEX
8
1
10
25.179604
20
16.220112
0
VERTEX
8
1
10
25.182690
20
16.245743
0
VERTEX
8
1
10
25.187845
20
16.271042
42
-0.654918
0
VERTEX
8
1
10
25.331703
20
16.259087
42
-0.158685
0
VERTEX
8
1
10
25.352013
20
16.053909
0
VERTEX
8
1
10
25.343121
20
16.007858
42
0.030252
0
SEQEND
0
POLYLINE
8
1
66
1
70
1
0
VERTEX
8
1
10
25.509666
20
15.551704
42
0.378573
0
VERTEX
8
1
10
25.542892
20
15.592560
42
-0.508066
0
VERTEX
8
1
10
25.594002
20
15.604154
42
-0.754839
0
VERTEX
8
1
10
25.594555
20
15.539070
42
-0.134933
0
VERTEX
8
1
10
25.503014
20
15.481163
42
0.038258
0
VERTEX
8
1
10
25.415520
20
15.423431
42
-0.608060
0
VERTEX
8
1
10
25.371811
20
15.458061
42
-0.048900
0
VERTEX
8
1
10
25.393938
20
15.626610
42
-0.192207
0
VERTEX
8
1
10
25.425549
20
15.666337
42
-0.655157
0
VERTEX
8
1
10
25.459564
20
15.620071
42
0.113337
0
VERTEX
8
1
10
25.438072
20
15.515465
42
-0.066183
0
SEQEND
0
POLYLINE
8
1
66
1
70
1
0
VERTEX
8
1
10
25.379417
20
15.707184
42
0.026776
0
VERTEX
8
1
10
25.372833
20
15.591217
42
0.028354
0
VERTEX
8
1
10
25.307491
20
15.622383
0
VERTEX
8
1
10
25.313377
20
15.629692
42
0.132762
0
SEQEND
0
POLYLINE
8
1
66
1
70
1
0
VERTEX
8
1
10
26.479473
20
17.564491
42
-0.060461
0
VERTEX
8
1
10
26.312725
20
17.474258
42
0.060534
0
VERTEX
8
1
10
26.222898
20
17.413282
42
-0.012623
0
VERTEX
8
1
10
26.041407
20
17.289406
42
0.130470
0
VERTEX
8
1
10
25.951675
20
17.173286
42
0.241520
0
VERTEX
8
1
10
25.999205
20
16.992905
42
0.226725
0
VERTEX
8
1
10
26.226387
20
16.871040
42
0.043452
0
VERTEX
8
1
10
26.516575
20
16.884583
42
-0.043437
0
VERTEX
8
1
10
26.644794
20
16.912590
42
0.230538
0
VERTEX
8
1
10
26.731236
20
16.930099
42
-0.121047
0
VERTEX
8
1
10
26.856506
20
16.941368
42
0.078024
0
VERTEX
8
1
10
26.986309
20
16.953423
0
VERTEX
8
1
10
27.077839
20
16.973183
42
-0.225839
0
VERTEX
8
1
10
27.439613
20
16.887291
42
0.082303
0
VERTEX
8
1
10
27.383949
20
16.861145
42
-0.105781
0
VERTEX
8
1
10
27.211575
20
16.812195
42
0.101089
0
VERTEX
8
1
10
26.989178
20
16.734499
42
0.071120
0
VERTEX
8
1
10
26.969532
20
16.711288
0
VERTEX
8
1
10
26.977791
20
16.695724
42
0.141717
0
VERTEX
8
1
10
27.148884
20
16.653404
0
VERTEX
8
1
10
27.180214
20
16.652611
42
-0.149102
0
VERTEX
8
1
10
27.548389
20
16.558640
0
VERTEX
8
1
10
27.560055
20
16.544022
42
-0.170559
0
VERTEX
8
1
10
27.446415
20
16.517799
42
0.028193
0
VERTEX
8
1
10
27.227356
20
16.521637
0
VERTEX
8
1
10
27.200781
20
16.515530
42
0.000499
0
VERTEX
8
1
10
27.440941
20
16.303299
42
-0.090734
0
VERTEX
8
1
10
27.583462
20
16.176704
0
VERTEX
8
1
10
27.565903
20
16.169960
0
VERTEX
8
1
10
27.532421
20
16.174995
42
-0.083707
0
VERTEX
8
1
10
27.353458
20
16.262169
0
VERTEX
8
1
10
27.285511
20
16.305511
42
0.146245
0
VERTEX
8
1
10
27.044758
20
16.383018
0
VERTEX
8
1
10
27.035641
20
16.377808
0
VERTEX
8
1
10
27.041355
20
16.355667
42
-0.109875
0
VERTEX
8
1
10
27.012642
20
16.133560
0
VERTEX
8
1
10
27.003597
20
16.119682
42
-0.080657
0
VERTEX
8
1
10
26.931625
20
16.237160
0
VERTEX
8
1
10
26.903782
20
16.301392
42
0.165169
0
VERTEX
8
1
10
26.747749
20
16.500412
42
0.021196
0
VERTEX
8
1
10
26.563629
20
16.616127
0
VERTEX
8
1
10
26.565311
20
16.597534
42
-0.096431
0
VERTEX
8
1
10
26.576767
20
16.276947
0
VERTEX
8
1
10
26.567284
20
16.281982
0
VERTEX
8
1
10
26.521458
20
16.368103
42
0.091342
0
VERTEX
8
1
10
26.397846
20
16.540840
0
VERTEX
8
1
10
26.339285
20
16.576664
42
0.033167
0
VERTEX
8
1
10
26.040422
20
16.737482
42
0.014733
0
VERTEX
8
1
10
25.904591
20
16.799433
42
0.348606
0
VERTEX
8
1
10
25.773716
20
16.734909
0
VERTEX
8
1
10
25.757664
20
16.703537
42
0.137467
0
VERTEX
8
1
10
25.730522
20
16.305740
42
0.038259
0
VERTEX
8
1
10
25.778809
20
16.094864
42
0.059274
0
VERTEX
8
1
10
25.899326
20
15.906120
0
VERTEX
8
1
10
25.914772
20
15.882278
0
VERTEX
8
1
10
25.914246
20
15.869461
0
VERTEX
8
1
10
25.897587
20
15.871300
42
-0.202955
0
VERTEX
8
1
10
25.691315
20
16.076630
42
0.071956
0
VERTEX
8
1
10
25.679085
20
16.087746
42
0.190459
0
VERTEX
8
1
10
25.631664
20
15.911469
42
-0.069797
0
VERTEX
8
1
10
25.582497
20
16.111069
42
0.110956
0
VERTEX
8
1
10
25.590033
20
16.236889
42
0.177142
0
VERTEX
8
1
10
25.564556
20
16.264206
0
VERTEX
8
1
10
25.553070
20
16.264107
0
VERTEX
8
1
10
25.465996
20
16.222588
0
VERTEX
8
1
10
25.455769
20
16.230141
0
VERTEX
8
1
10
25.446445
20
16.251366
42
-0.133093
0
VERTEX
8
1
10
25.454647
20
16.475731
42
0.046959
0
VERTEX
8
1
10
25.498745
20
16.798965
42
0.458480
0
VERTEX
8
1
10
25.392778
20
16.881866
42
0.106358
0
VERTEX
8
1
10
25.320080
20
16.862000
42
0.064950
0
VERTEX
8
1
10
25.115814
20
16.756088
42
0.138127
0
VERTEX
8
1
10
24.927464
20
16.462074
42
0.123322
0
VERTEX
8
1
10
24.889240
20
16.220116
42
-0.071347
0
VERTEX
8
1
10
24.914238
20
16.076084
42
-0.228097
0
VERTEX
8
1
10
24.894825
20
16.038818
42
-0.141277
0
VERTEX
8
1
10
24.835758
20
16.117798
42
0.141288
0
VERTEX
8
1
10
24.791470
20
16.164848
0
VERTEX
8
1
10
24.776386
20
16.166580
0
VERTEX
8
1
10
24.771294
20
16.147110
42
-0.018551
0
VERTEX
8
1
10
24.665052
20
15.739161
42
0.022882
0
VERTEX
8
1
10
24.662106
20
15.712700
0
VERTEX
8
1
10
24.649513
20
15.738708
0
VERTEX
8
1
10
24.637264
20
15.775787
42
-0.102106
0
VERTEX
8
1
10
24.630058
20
16.200241
42
0.094619
0
VERTEX
8
1
10
24.649633
20
16.323917
42
0.246657
0
VERTEX
8
1
10
24.615688
20
16.359924
42
0.098265
0
VERTEX
8
1
10
24.453926
20
16.374916
0
VERTEX
8
1
10
24.449772
20
16.384651
0
VERTEX
8
1
10
24.468594
20
16.410637
42
-0.110487
0
VERTEX
8
1
10
24.686420
20
16.539902
42
0.033308
0
VERTEX
8
1
10
24.775524
20
16.585594
42
-0.023167
0
VERTEX
8
1
10
24.621168
20
16.699808
42
-0.040091
0
VERTEX
8
1
10
24.600113
20
16.726830
42
0.222907
0
VERTEX
8
1
10
25.431692
20
17.233229
42
0.219707
0
VERTEX
8
1
10
25.440380
20
17.344803
0
VERTEX
8
1
10
25.448395
20
17.342499
0
VERTEX
8
1
10
25.455116
20
17.351128
0
VERTEX
8
1
10
25.460743
20
17.368568
42
0.008889
0
VERTEX
8
1
10
25.486958
20
17.559525
0
VERTEX
8
1
10
25.491611
20
17.573387
42
0.292755
0
VERTEX
8
1
10
25.488068
20
17.724655
42
-0.041886
0
VERTEX
8
1
10
25.482300
20
17.798241
42
0.045893
0
VERTEX
8
1
10
25.440907
20
17.893250
42
-0.033830
0
VERTEX
8
1
10
25.418915
20
18.001724
42
0.088060
0
VERTEX
8
1
10
25.353493
20
18.099518
42
-0.074817
0
VERTEX
8
1
10
25.310825
20
18.197876
42
0.160623
0
VERTEX
8
1
10
25.274040
20
18.240746
0
VERTEX
8
1
10
25.269093
20
18.250534
0
VERTEX
8
1
10
25.281116
20
18.261307
42
-0.223165
0
VERTEX
8
1
10
25.382877
20
18.254883
42
-0.031884
0
VERTEX
8
1
10
25.510193
20
18.198929
42
-0.142240
0
VERTEX
8
1
10
25.548599
20
18.136795
42
0.178095
0
VERTEX
8
1
10
25.579708
20
18.114143
0
VERTEX
8
1
10
25.591103
20
18.127861
42
0.089640
0
VERTEX
8
1
10
25.716673
20
18.446627
0
VERTEX
8
1
10
25.716389
20
18.460152
42
-0.098802
0
VERTEX
8
1
10
25.765474
20
18.299711
42
0.056398
0
VERTEX
8
1
10
25.771553
20
18.288551
0
VERTEX
8
1
10
25.781273
20
18.295471
42
-0.094265
0
VERTEX
8
1
10
26.034260
20
18.510962
42
0.113134
0
VERTEX
8
1
10
26.204643
20
18.691919
42
-0.271295
0
VERTEX
8
1
10
26.260963
20
18.710365
0
VERTEX
8
1
10
26.262299
20
18.699173
42
-0.093098
0
VERTEX
8
1
10
26.164577
20
18.489777
42
-0.062416
0
VERTEX
8
1
10
26.045811
20
18.404724
42
0.064425
0
VERTEX
8
1
10
25.967167
20
18.309166
42
-0.082730
0
VERTEX
8
1
10
25.913256
20
18.267672
42
0.108715
0
VERTEX
8
1
10
25.795094
20
18.141335
42
0.199953
0
VERTEX
8
1
10
25.653694
20
17.809233
42
0.094728
0
VERTEX
8
1
10
25.683765
20
17.584755
42
0.278282
0
VERTEX
8
1
10
25.751427
20
17.542366
42
0.130878
0
VERTEX
8
1
10
26.096584
20
17.632469
42
0.038952
0
VERTEX
8
1
10
26.388847
20
17.879425
42
-0.030433
0
VERTEX
8
1
10
26.552795
20
17.974945
42
-0.029396
0
VERTEX
8
1
10
26.703077
20
18.011887
0
VERTEX
8
1
10
26.711216
20
18.015167
0
VERTEX
8
1
10
26.703243
20
17.997147
42
-0.027347
0
VERTEX
8
1
10
26.528212
20
17.778610
42
0.025678
0
VERTEX
8
1
10
26.498672
20
17.731201
0
VERTEX
8
1
10
26.504303
20
17.729179
42
-0.196937
0
VERTEX
8
1
10
26.712841
20
17.806061
42
0.027962
0
VERTEX
8
1
10
26.952873
20
17.818403
42
-0.064099
0
VERTEX
8
1
10
27.016640
20
17.808701
0
VERTEX
8
1
10
27.032223
20
17.798225
42
-0.229346
0
VERTEX
8
1
10
26.968742
20
17.729027
42
-0.043382
0
VERTEX
8
1
10
26.792614
20
17.677055
42
0.034369
0
VERTEX
8
1
10
26.520418
20
17.588396
0
VERTEX
8
1
10
26.499594
20
17.577045
0
SEQEND
0
POLYLINE
8
1
66
1
70
1
0
VERTEX
8
1
10
26.505421
20
17.419769
42
0.006526
0
VERTEX
8
1
10
26.590607
20
17.139732
42
-0.445011
0
VERTEX
8
1
10
26.376854
20
17.287868
42
-0.310056
0
VERTEX
8
1
10
26.458605
20
17.406887
42
-0.085965
0
SEQEND
0
POLYLINE
8
1
66
1
70
1
0
VERTEX
8
1
10
24.956947
20
15.660439
0
VERTEX
8
1
10
24.956776
20
15.666527
42
-0.992986
0
VERTEX
8
1
10
25.017021
20
15.693189
42
-0.138600
0
VERTEX
8
1
10
25.007515
20
15.564491
42
-0.404676
0
VERTEX
8
1
10
24.963478
20
15.557594
0
VERTEX
8
1
10
24.929871
20
15.573250
42
-0.182107
0
VERTEX
8
1
10
24.864647
20
15.629616
42
0.199002
0
VERTEX
8
1
10
24.824570
20
15.545830
42
-0.056891
0
VERTEX
8
1
10
24.775490
20
15.428352
42
0.011301
0
VERTEX
8
1
10
24.758186
20
15.370995
42
-0.464090
0
VERTEX
8
1
10
24.708218
20
15.365791
0
VERTEX
8
1
10
24.695377
20
15.381859
42
-0.067994
0
VERTEX
8
1
10
24.623741
20
15.584602
42
-0.893719
0
VERTEX
8
1
10
24.686077
20
15.582809
42
0.040627
0
VERTEX
8
1
10
24.725288
20
15.469574
42
0.076416
0
VERTEX
8
1
10
24.775711
20
15.606003
42
-0.095528
0
VERTEX
8
1
10
24.821674
20
15.677841
42
-0.673309
0
VERTEX
8
1
10
24.882360
20
15.711901
42
-0.233403
0
VERTEX
8
1
10
24.923897
20
15.654999
42
0.207096
0
VERTEX
8
1
10
24.956600
20
15.629761
42
0.054464
0
SEQEND
0
POLYLINE
8
1
66
1
70
1
0
VERTEX
8
1
10
25.958370
20
18.189796
42
-0.176204
0
VERTEX
8
1
10
25.991920
20
18.213142
42
0.069216
0
VERTEX
8
1
10
26.160446
20
18.305527
42
0.078681
0
VERTEX
8
1
10
26.270180
20
18.387398
0
VERTEX
8
1
10
26.274731
20
18.379585
42
0.000793
0
VERTEX
8
1
10
26.300827
20
18.244270
42
0.025335
0
VERTEX
8
1
10
26.130562
20
17.977142
0
VERTEX
8
1
10
26.103813
20
17.938828
42
-0.186886
0
VERTEX
8
1
10
25.925489
20
17.813751
42
-0.682150
0
VERTEX
8
1
10
25.863853
20
17.942154
42
0.052858
0
VERTEX
8
1
10
26.037315
20
18.154739
42
-0.109785
0
SEQEND
0
POLYLINE
8
1
66
1
70
1
0
VERTEX
8
1
10
26.253277
20
18.497734
0
VERTEX
8
1
10
26.265079
20
18.431694
42
-0.325967
0
VERTEX
8
1
10
26.181908
20
18.445969
42
0.093032
0
VERTEX
8
1
10
26.246326
20
18.494598
0
SEQEND
0
POLYLINE
8
1
66
1
70
1
0
VERTEX
8
1
10
26.373848
20
21.978630
42
-0.087190
0
VERTEX
8
1
10
26.403481
20
21.940620
0
VERTEX
8
1
10
26.399151
20
21.934975
42
-0.016912
0
VERTEX
8
1
10
26.340939
20
21.924011
0
VERTEX
8
1
10
26.340862
20
22.021210
0
VERTEX
8
1
10
26.342384
20
22.026199
42
-0.005547
0
SEQEND
0
POLYLINE
8
1
66
1
70
1
0
VERTEX
8
1
10
26.354561
20
21.863487
42
0.152451
0
VERTEX
8
1
10
26.403202
20
21.835258
0
VERTEX
8
1
10
26.397003
20
21.826813
42
0.136280
0
VERTEX
8
1
10
26.342117
20
21.792290
0
VERTEX
8
1
10
26.341305
20
21.801003
0
VERTEX
8
1
10
26.341053
20
21.874023
42
-0.044588
0
SEQEND
0
POLYLINE
8
1
66
1
70
1
0
VERTEX
8
1
10
26.905083
20
18.362564
42
0.180940
0
VERTEX
8
1
10
26.790741
20
18.331779
42
-0.033763
0
VERTEX
8
1
10
26.653011
20
18.265350
42
0.039900
0
VERTEX
8
1
10
26.666275
20
18.405609
0
VERTEX
8
1
10
26.659603
20
18.411682
42
0.100606
0
VERTEX
8
1
10
26.545544
20
18.347977
42
-0.017124
0
VERTEX
8
1
10
26.475910
20
18.844727
42
0.152842
0
VERTEX
8
1
10
26.807777
20
18.417198
42
0.057970
0
VERTEX
8
1
10
26.922340
20
18.364677
42
-0.024303
0
SEQEND
0
POLYLINE
8
1
66
1
70
1
0
VERTEX
8
1
10
26.374714
20
20.308388
0
VERTEX
8
1
10
26.372307
20
20.308479
0
VERTEX
8
1
10
26.368507
20
20.406326
0
VERTEX
8
1
10
26.375523
20
20.413628
42
0.009153
0
VERTEX
8
1
10
26.435551
20
20.404129
0
VERTEX
8
1
10
26.434387
20
20.396034
42
0.049953
0
SEQEND
0
POLYLINE
8
1
66
1
70
1
0
VERTEX
8
1
10
26.392944
20
20.527115
42
0.124781
0
VERTEX
8
1
10
26.421127
20
20.515396
0
VERTEX
8
1
10
26.427994
20
20.510338
0
VERTEX
8
1
10
26.427532
20
20.503586
42
0.076500
0
VERTEX
8
1
10
26.366547
20
20.460602
0
VERTEX
8
1
10
26.363873
20
20.537766
0
VERTEX
8
1
10
26.364323
20
20.549782
42
-0.005059
0
SEQEND
0
POLYLINE
8
1
66
1
70
1
0
VERTEX
8
1
10
26.419422
20
20.253799
0
VERTEX
8
1
10
26.425293
20
20.256317
42
0.097011
0
VERTEX
8
1
10
26.487400
20
20.272135
42
-0.397442
0
VERTEX
8
1
10
26.499451
20
20.241814
42
-0.076977
0
VERTEX
8
1
10
26.463497
20
20.038727
42
0.040508
0
VERTEX
8
1
10
26.406071
20
19.739342
0
VERTEX
8
1
10
26.410568
20
19.730240
42
0.016822
0
VERTEX
8
1
10
26.473381
20
19.766296
0
VERTEX
8
1
10
26.477646
20
19.765373
42
0.050376
0
VERTEX
8
1
10
26.416908
20
19.592041
0
VERTEX
8
1
10
26.410778
20
19.581856
42
-0.006372
0
VERTEX
8
1
10
26.375660
20
20.230843
42
0.073476
0
SEQEND
0
POLYLINE
8
1
66
1
70
1
0
VERTEX
8
1
10
26.883591
20
18.664803
0
VERTEX
8
1
10
26.867512
20
18.664436
42
-0.212655
0
VERTEX
8
1
10
26.771664
20
18.740120
42
-0.186468
0
VERTEX
8
1
10
26.680082
20
19.361588
42
-0.195249
0
VERTEX
8
1
10
26.753067
20
19.453350
42
-0.282568
0
VERTEX
8
1
10
26.827126
20
19.434196
42
-0.134437
0
VERTEX
8
1
10
26.941448
20
19.236221
42
-0.137813
0
VERTEX
8
1
10
26.965845
20
18.759304
42
-0.171266
0
VERTEX
8
1
10
26.899044
20
18.669266
0
SEQEND
0
POLYLINE
8
1
66
1
70
1
0
VERTEX
8
1
10
26.592331
20
20.663055
0
VERTEX
8
1
10
26.581089
20
20.660889
42
-0.107644
0
VERTEX
8
1
10
26.359749
20
20.705017
0
VERTEX
8
1
10
26.358116
20
20.724747
0
VERTEX
8
1
10
26.353233
20
20.913498
0
VERTEX
8
1
10
26.368717
20
20.936737
42
-0.021735
0
VERTEX
8
1
10
27.027924
20
21.152084
0
VERTEX
8
1
10
27.043236
20
21.148766
0
VERTEX
8
1
10
27.043064
20
21.123596
42
-0.256014
0
VERTEX
8
1
10
26.900257
20
20.802612
42
-0.097570
0
VERTEX
8
1
10
26.788342
20
20.702141
42
-0.085666
0
VERTEX
8
1
10
26.601768
20
20.665846
0
VERTEX
8
1
10
26.597029
20
20.664518
0
SEQEND
0
POLYLINE
8
1
66
1
70
1
0
VERTEX
8
1
10
27.153988
20
18.172325
0
VERTEX
8
1
10
27.022205
20
18.193329
42
-0.122522
0
VERTEX
8
1
10
26.912706
20
18.210539
42
-0.287703
0
VERTEX
8
1
10
26.904327
20
18.241478
42
-0.061885
0
VERTEX
8
1
10
26.963951
20
18.351563
0
VERTEX
8
1
10
26.975834
20
18.351807
42
0.162662
0
VERTEX
8
1
10
27.219536
20
18.387062
0
VERTEX
8
1
10
27.227802
20
18.381096
42
0.043336
0
VERTEX
8
1
10
27.233997
20
18.153992
42
0.055974
0
SEQEND
0
POLYLINE
8
1
66
1
70
1
0
VERTEX
8
1
10
27.272064
20
17.989136
42
-0.029764
0
VERTEX
8
1
10
27.204128
20
18.013466
42
-0.274976
0
VERTEX
8
1
10
27.253029
20
18.061729
42
0.017026
0
SEQEND
0
POLYLINE
8
1
66
1
70
1
0
VERTEX
8
1
10
27.379158
20
19.218666
42
-0.160606
0
VERTEX
8
1
10
27.366066
20
19.144829
42
-0.422051
0
VERTEX
8
1
10
27.313629
20
19.146011
42
-0.155641
0
VERTEX
8
1
10
27.274103
20
19.206758
42
-0.011157
0
VERTEX
8
1
10
27.233494
20
19.302971
42
-0.027466
0
VERTEX
8
1
10
27.135786
20
19.430460
0
VERTEX
8
1
10
27.129608
20
19.443504
0
VERTEX
8
1
10
27.121578
20
19.419662
42
-0.372601
0
VERTEX
8
1
10
27.060793
20
19.367588
42
-0.125319
0
VERTEX
8
1
10
27.048019
20
19.376152
42
-0.059406
0
VERTEX
8
1
10
26.735556
20
19.878021
42
-0.934358
0
VERTEX
8
1
10
26.794842
20
19.897697
42
0.050653
0
VERTEX
8
1
10
27.066738
20
19.452446
0
VERTEX
8
1
10
27.072990
20
19.470688
42
-0.576318
0
VERTEX
8
1
10
27.175228
20
19.511494
0
VERTEX
8
1
10
27.178474
20
19.505493
42
0.164281
0
VERTEX
8
1
10
27.253727
20
19.378395
42
-0.114058
0
VERTEX
8
1
10
27.315468
20
19.269020
42
-0.090849
0
VERTEX
8
1
10
27.343826
20
19.351944
42
0.132991
0
VERTEX
8
1
10
27.346325
20
19.392273
42
-0.989143
0
VERTEX
8
1
10
27.409557
20
19.377876
42
-0.108233
0
VERTEX
8
1
10
27.380867
20
19.279114
42
0.095987
0
SEQEND
0
POLYLINE
8
1
66
1
70
1
0
VERTEX
8
1
10
27.476364
20
20.009171
42
-0.105614
0
VERTEX
8
1
10
27.519600
20
20.005280
0
VERTEX
8
1
10
27.519421
20
20.012871
42
0.003245
0
VERTEX
8
1
10
27.466793
20
20.190453
42
-0.070827
0
VERTEX
8
1
10
27.429291
20
20.299835
42
-0.637406
0
VERTEX
8
1
10
27.562695
20
20.348343
42
-0.157133
0
VERTEX
8
1
10
27.663464
20
20.170708
42
0.102413
0
VERTEX
8
1
10
27.646667
20
19.716949
42
0.063694
0
VERTEX
8
1
10
27.560715
20
19.846367
42
0.070062
0
VERTEX
8
1
10
27.439428
20
19.986889
42
-0.082919
0
VERTEX
8
1
10
27.433338
20
20.002304
42
-0.009226
0
SEQEND
0
POLYLINE
8
1
66
1
70
1
0
VERTEX
8
1
10
27.892864
20
17.591614
0
VERTEX
8
1
10
27.876114
20
17.591141
42
-0.211874
0
VERTEX
8
1
10
27.776432
20
17.666473
42
-0.197240
0
VERTEX
8
1
10
27.683693
20
18.318829
42
-0.158273
0
VERTEX
8
1
10
27.750122
20
18.402903
42
-0.330741
0
VERTEX
8
1
10
27.843483
20
18.380020
42
-0.127733
0
VERTEX
8
1
10
27.959942
20
18.170959
42
-0.140466
0
VERTEX
8
1
10
27.979185
20
17.686701
42
-0.171364
0
VERTEX
8
1
10
27.908989
20
17.596176
0
SEQEND
0
POLYLINE
8
1
66
1
70
1
0
VERTEX
8
1
10
27.574055
20
19.161621
42
0.021424
0
VERTEX
8
1
10
27.633919
20
19.097198
42
0.498611
0
VERTEX
8
1
10
27.656681
20
19.111420
42
0.154790
0
VERTEX
8
1
10
27.650688
20
19.404419
42
0.040930
0
VERTEX
8
1
10
27.572927
20
19.649746
42
0.037991
0
VERTEX
8
1
10
27.553600
20
19.676765
0
VERTEX
8
1
10
27.552757
20
19.685341
42
-0.244643
0
VERTEX
8
1
10
27.655354
20
19.654099
0
VERTEX
8
1
10
27.666935
20
19.617645
42
0.169002
0
VERTEX
8
1
10
28.005024
20
19.076109
42
0.080234
0
VERTEX
8
1
10
28.191322
20
18.982628
42
0.078950
0
VERTEX
8
1
10
28.087090
20
18.798447
42
0.206731
0
VERTEX
8
1
10
27.719051
20
18.996008
42
0.112638
0
VERTEX
8
1
10
27.553459
20
18.962036
0
VERTEX
8
1
10
27.551437
20
18.970833
42
0.032913
0
VERTEX
8
1
10
27.558186
20
19.175980
0
SEQEND
0
POLYLINE
8
1
66
1
70
1
0
VERTEX
8
1
10
28.105206
20
19.627968
42
0.030613
0
VERTEX
8
1
10
28.205517
20
19.519554
42
-0.204327
0
VERTEX
8
1
10
28.121672
20
19.357737
42
-0.326497
0
VERTEX
8
1
10
28.007099
20
19.370363
42
-0.168404
0
VERTEX
8
1
10
27.897661
20
19.541069
42
-0.093083
0
VERTEX
8
1
10
27.873398
20
19.727516
42
0.078667
0
VERTEX
8
1
10
27.994228
20
19.550369
0
VERTEX
8
1
10
28.010067
20
19.538429
42
0.041702
0
VERTEX
8
1
10
28.053589
20
19.679855
42
-0.067335
0
SEQEND
0
POLYLINE
8
1
66
1
70
1
0
VERTEX
8
1
10
28.461235
20
16.790474
42
-0.270904
0
VERTEX
8
1
10
28.420399
20
16.816788
42
-0.168773
0
VERTEX
8
1
10
28.353701
20
17.234312
42
-0.139403
0
VERTEX
8
1
10
28.382133
20
17.274178
42
-0.327460
0
VERTEX
8
1
10
28.422615
20
17.255692
0
VERTEX
8
1
10
28.432884
20
17.241737
42
-0.168600
0
VERTEX
8
1
10
28.491880
20
16.823559
42
-0.169541
0
SEQEND
0
POLYLINE
8
1
66
1
70
1
0
VERTEX
8
1
10
28.595043
20
17.855957
42
-0.254423
0
VERTEX
8
1
10
28.545704
20
17.882187
42
-0.103113
0
VERTEX
8
1
10
28.474581
20
18.028854
42
-0.119164
0
VERTEX
8
1
10
28.426294
20
18.551712
42
-0.135464
0
VERTEX
8
1
10
28.468328
20
18.618649
42
-0.355104
0
VERTEX
8
1
10
28.520752
20
18.602219
42
-0.113516
0
VERTEX
8
1
10
28.614449
20
18.401024
42
-0.102660
0
VERTEX
8
1
10
28.649260
20
17.942434
42
-0.104359
0
VERTEX
8
1
10
28.616714
20
17.868027
0
VERTEX
8
1
10
28.606380
20
17.859917
0
SEQEND
0
POLYLINE
8
1
66
1
70
1
0
VERTEX
8
1
10
28.658649
20
20.034065
0
VERTEX
8
1
10
28.677444
20
20.018242
0
VERTEX
8
1
10
28.692867
20
20.002258
42
-0.631531
0
VERTEX
8
1
10
28.658081
20
19.906858
42
-0.091066
0
VERTEX
8
1
10
28.613346
20
19.901649
42
0.021307
0
VERTEX
8
1
10
28.375408
20
19.912560
42
0.010424
0
VERTEX
8
1
10
28.463268
20
19.829163
42
-0.909672
0
VERTEX
8
1
10
28.409069
20
19.795372
42
-0.139997
0
VERTEX
8
1
10
28.325352
20
19.815910
42
0.031678
0
VERTEX
8
1
10
28.138588
20
19.879524
0
VERTEX
8
1
10
28.118923
20
19.881927
0
VERTEX
8
1
10
28.098995
20
19.882410
42
-0.972472
0
VERTEX
8
1
10
28.097538
20
19.944855
42
-0.100107
0
VERTEX
8
1
10
28.188726
20
19.929527
42
-0.011582
0
VERTEX
8
1
10
28.311626
20
19.889969
42
-0.241978
0
VERTEX
8
1
10
28.296663
20
19.950624
42
-0.271608
0
VERTEX
8
1
10
28.335629
20
19.970772
0
VERTEX
8
1
10
28.358513
20
19.973999
42
-0.025306
0
VERTEX
8
1
10
28.626831
20
19.964607
0
VERTEX
8
1
10
28.640209
20
19.966637
42
-0.010658
0
VERTEX
8
1
10
28.533560
20
20.057735
42
-0.161510
0
VERTEX
8
1
10
28.516371
20
20.111046
42
-0.335328
0
VERTEX
8
1
10
28.553036
20
20.136612
42
-0.066749
0
VERTEX
8
1
10
28.620419
20
20.138641
42
0.017199
0
VERTEX
8
1
10
28.440641
20
20.222792
42
-1.026241
0
VERTEX
8
1
10
28.482975
20
20.270576
42
-0.024618
0
VERTEX
8
1
10
28.654984
20
20.190945
42
-0.102397
0
VERTEX
8
1
10
28.706100
20
20.135551
0
VERTEX
8
1
10
28.710861
20
20.114006
42
-0.393713
0
VERTEX
8
1
10
28.678612
20
20.080612
42
-0.073599
0
VERTEX
8
1
10
28.604492
20
20.076820
42
0.016060
0
SEQEND
0
POLYLINE
8
1
66
1
70
1
0
VERTEX
8
1
10
28.619549
20
20.430298
42
0.182778
0
VERTEX
8
1
10
28.238617
20
20.661564
42
0.052489
0
VERTEX
8
1
10
28.143711
20
20.663742
42
-0.273460
0
VERTEX
8
1
10
28.231646
20
20.765850
42
-0.297781
0
VERTEX
8
1
10
28.426025
20
20.737595
42
-0.167062
0
VERTEX
8
1
10
28.560555
20
20.564550
42
0.064852
0
VERTEX
8
1
10
28.631924
20
20.458664
42
0.013692
0
SEQEND
0
POLYLINE
8
1
66
1
70
1
0
VERTEX
8
1
10
29.019485
20
20.337685
42
-0.050901
0
VERTEX
8
1
10
29.018456
20
20.192818
42
0.030354
0
VERTEX
8
1
10
28.991770
20
20.126793
42
-1.337369
0
VERTEX
8
1
10
28.928303
20
20.129890
42
0.130127
0
VERTEX
8
1
10
28.900276
20
20.201080
0
VERTEX
8
1
10
28.874924
20
20.244820
42
-0.212197
0
VERTEX
8
1
10
28.849216
20
20.372566
42
-0.955103
0
VERTEX
8
1
10
28.906250
20
20.345177
42
0.141319
0
VERTEX
8
1
10
28.933105
20
20.268929
0
VERTEX
8
1
10
28.959995
20
20.222420
42
0.023294
0
VERTEX
8
1
10
28.954542
20
20.406244
42
-0.416884
0
VERTEX
8
1
10
29.042839
20
20.479904
42
-0.065269
0
VERTEX
8
1
10
29.111046
20
20.471138
42
0.047774
0
VERTEX
8
1
10
29.001015
20
20.590195
42
-0.570011
0
VERTEX
8
1
10
29.020611
20
20.640274
42
0.079032
0
VERTEX
8
1
10
29.147491
20
20.664452
42
-0.193542
0
VERTEX
8
1
10
29.287958
20
20.639921
42
0.079495
0
VERTEX
8
1
10
29.297169
20
20.641197
42
-0.237324
0
VERTEX
8
1
10
29.253399
20
20.700188
42
-0.427458
0
VERTEX
8
1
10
29.260929
20
20.748367
42
-0.196283
0
VERTEX
8
1
10
29.346809
20
20.780579
42
0.058563
0
VERTEX
8
1
10
29.457022
20
20.798599
42
-0.558538
0
VERTEX
8
1
10
29.498859
20
20.832157
42
-0.513660
0
VERTEX
8
1
10
29.565054
20
20.703890
42
-0.531606
0
VERTEX
8
1
10
29.498045
20
20.712612
42
0.304285
0
VERTEX
8
1
10
29.417591
20
20.726372
42
-0.011693
0
VERTEX
8
1
10
29.315945
20
20.711571
42
0.436083
0
VERTEX
8
1
10
29.335384
20
20.694344
42
-0.091465
0
VERTEX
8
1
10
29.423800
20
20.617378
42
-0.740979
0
VERTEX
8
1
10
29.373966
20
20.580856
0
VERTEX
8
1
10
29.359547
20
20.594666
0
VERTEX
8
1
10
29.357380
20
20.595856
42
-0.305133
0
VERTEX
8
1
10
29.220634
20
20.601128
42
0.166113
0
VERTEX
8
1
10
29.134686
20
20.597015
0
VERTEX
8
1
10
29.099960
20
20.587372
0
VERTEX
8
1
10
29.101227
20
20.580528
42
-0.084668
0
VERTEX
8
1
10
29.178020
20
20.479675
0
VERTEX
8
1
10
29.186264
20
20.444916
0
VERTEX
8
1
10
29.179440
20
20.411392
42
-0.490840
0
VERTEX
8
1
10
29.126499
20
20.401428
42
0.131912
0
VERTEX
8
1
10
29.024982
20
20.414055
0
VERTEX
8
1
10
29.020859
20
20.410904
42
0.096593
0
SEQEND
0
POLYLINE
8
1
66
1
70
1
0
VERTEX
8
1
10
29.386955
20
20.309639
42
0.066127
0
VERTEX
8
1
10
29.458027
20
20.335655
42
0.049126
0
VERTEX
8
1
10
29.402813
20
20.413536
42
-0.426388
0
VERTEX
8
1
10
29.480793
20
20.432632
0
VERTEX
8
1
10
29.500175
20
20.417831
42
-0.114598
0
VERTEX
8
1
10
29.609318
20
20.210991
42
-0.109387
0
VERTEX
8
1
10
29.665634
20
19.625608
42
-0.114399
0
VERTEX
8
1
10
29.614317
20
19.509729
42
-0.348806
0
VERTEX
8
1
10
29.549629
20
19.506088
0
VERTEX
8
1
10
29.530247
20
19.520905
42
-0.114642
0
VERTEX
8
1
10
29.421101
20
19.727737
42
-0.110401
0
VERTEX
8
1
10
29.364300
20
20.305161
42
0.015161
0
SEQEND
0
POLYLINE
8
1
66
1
70
1
0
VERTEX
8
1
10
26.885883
20
22.202660
42
-0.069108
0
VERTEX
8
1
10
26.980934
20
22.198669
42
-0.116923
0
VERTEX
8
1
10
27.031605
20
22.159653
42
0.171977
0
VERTEX
8
1
10
27.068317
20
22.149658
0
VERTEX
8
1
10
27.075043
20
22.162506
42
0.078708
0
VERTEX
8
1
10
27.072218
20
22.494173
0
VERTEX
8
1
10
27.066887
20
22.508875
0
VERTEX
8
1
10
27.060223
20
22.523026
42
-0.103030
0
VERTEX
8
1
10
27.168379
20
22.393225
42
0.235164
0
VERTEX
8
1
10
27.183720
20
22.387741
42
-0.099929
0
VERTEX
8
1
10
27.331284
20
22.687902
42
0.113062
0
VERTEX
8
1
10
27.420378
20
22.925304
42
-0.243332
0
VERTEX
8
1
10
27.461212
20
22.963974
0
VERTEX
8
1
10
27.469826
20
22.958206
0
VERTEX
8
1
10
27.472183
20
22.948654
42
-0.063398
0
VERTEX
8
1
10
27.469070
20
22.745605
42
-0.094970
0
VERTEX
8
1
10
27.395042
20
22.613098
42
0.126799
0
VERTEX
8
1
10
27.360403
20
22.517958
42
-0.099316
0
VERTEX
8
1
10
27.301090
20
22.391502
42
0.090083
0
VERTEX
8
1
10
27.259396
20
22.262352
42
0.168213
0
VERTEX
8
1
10
27.233145
20
21.985416
42
0.145132
0
VERTEX
8
1
10
27.375387
20
21.701437
42
0.306491
0
VERTEX
8
1
10
27.468193
20
21.696396
42
0.116124
0
VERTEX
8
1
10
27.728539
20
21.899803
42
0.045560
0
VERTEX
8
1
10
27.904366
20
22.244179
42
-0.038300
0
VERTEX
8
1
10
28.027237
20
22.407852
42
-0.008089
0
VERTEX
8
1
10
28.147873
20
22.497101
0
VERTEX
8
1
10
28.152496
20
22.494331
42
-0.044058
0
VERTEX
8
1
10
28.080448
20
22.236555
42
0.052724
0
VERTEX
8
1
10
28.066345
20
22.142937
42
-0.204207
0
VERTEX
8
1
10
28.223015
20
22.303238
42
0.031409
0
VERTEX
8
1
10
28.441320
20
22.409948
42
-0.083350
0
VERTEX
8
1
10
28.524639
20
22.430290
0
VERTEX
8
1
10
28.532459
20
22.412766
0
VERTEX
8
1
10
28.529480
20
22.389694
42
-0.155394
0
VERTEX
8
1
10
28.425842
20
22.272476
42
0.032309
0
VERTEX
8
1
10
28.140533
20
22.031487
0
VERTEX
8
1
10
28.130280
20
22.018272
42
-0.060336
0
VERTEX
8
1
10
27.999584
20
21.852043
42
0.050672
0
VERTEX
8
1
10
27.914261
20
21.718811
42
0.062044
0
VERTEX
8
1
10
27.785513
20
21.496395
42
0.325575
0
VERTEX
8
1
10
27.857231
20
21.307045
42
0.272000
0
VERTEX
8
1
10
28.170105
20
21.264107
42
0.040511
0
VERTEX
8
1
10
28.419415
20
21.387962
42
-0.059676
0
VERTEX
8
1
10
28.525574
20
21.461372
42
0.227518
0
VERTEX
8
1
10
28.590878
20
21.506729
42
-0.146499
0
VERTEX
8
1
10
28.677357
20
21.558502
42
0.101958
0
VERTEX
8
1
10
28.885433
20
21.678942
42
-0.216776
0
VERTEX
8
1
10
29.243389
20
21.751137
0
VERTEX
8
1
10
29.258434
20
21.743546
0
VERTEX
8
1
10
29.247229
20
21.733265
0
VERTEX
8
1
10
29.236780
20
21.722212
42
-0.123369
0
VERTEX
8
1
10
29.082554
20
21.589058
42
0.109945
0
VERTEX
8
1
10
28.903801
20
21.423498
42
0.083105
0
VERTEX
8
1
10
28.897846
20
21.395020
0
VERTEX
8
1
10
28.922050
20
21.387779
42
0.142747
0
VERTEX
8
1
10
29.128756
20
21.436832
42
-0.145281
0
VERTEX
8
1
10
29.498425
20
21.484077
0
VERTEX
8
1
10
29.502686
20
21.469864
42
-0.141470
0
VERTEX
8
1
10
29.400108
20
21.403778
42
0.042592
0
VERTEX
8
1
10
29.200653
20
21.321373
0
VERTEX
8
1
10
29.195385
20
21.307770
42
0.000923
0
VERTEX
8
1
10
29.498112
20
21.207413
42
-0.104111
0
VERTEX
8
1
10
29.677574
20
21.143867
0
VERTEX
8
1
10
29.647797
20
21.131905
42
-0.110606
0
VERTEX
8
1
10
29.380733
20
21.146677
42
0.146589
0
VERTEX
8
1
10
29.089954
20
21.126625
0
VERTEX
8
1
10
29.093323
20
21.114304
42
-0.129622
0
VERTEX
8
1
10
29.163864
20
20.878983
0
VERTEX
8
1
10
29.150822
20
20.873871
42
-0.073131
0
VERTEX
8
1
10
29.040497
20
20.956490
0
VERTEX
8
1
10
28.989880
20
21.004738
42
0.169016
0
VERTEX
8
1
10
28.728836
20
21.129799
42
0.016839
0
VERTEX
8
1
10
28.558270
20
21.153465
42
-0.105660
0
VERTEX
8
1
10
28.706890
20
20.840775
42
0.023559
0
VERTEX
8
1
10
28.511698
20
20.987179
42
0.124185
0
VERTEX
8
1
10
28.366268
20
21.031534
0
VERTEX
8
1
10
28.302835
20
21.040741
42
0.018487
0
VERTEX
8
1
10
27.894520
20
21.067562
42
0.331993
0
VERTEX
8
1
10
27.792965
20
20.981445
0
VERTEX
8
1
10
27.786701
20
20.948479
0
VERTEX
8
1
10
27.785095
20
20.912910
42
0.134588
0
VERTEX
8
1
10
27.918880
20
20.538269
42
0.041815
0
VERTEX
8
1
10
28.046062
20
20.364670
42
0.061579
0
VERTEX
8
1
10
28.195660
20
20.261501
0
VERTEX
8
1
10
28.225321
20
20.242453
0
VERTEX
8
1
10
28.254593
20
20.222809
0
VERTEX
8
1
10
28.252048
20
20.212753
0
VERTEX
8
1
10
28.235577
20
20.208511
42
-0.199933
0
VERTEX
8
1
10
27.968979
20
20.317574
0
VERTEX
8
1
10
27.960052
20
20.322723
0
VERTEX
8
1
10
27.952347
20
20.320450
42
0.180892
0
VERTEX
8
1
10
27.976559
20
20.144363
42
-0.057091
0
VERTEX
8
1
10
27.859478
20
20.295639
42
0.042878
0
VERTEX
8
1
10
27.821331
20
20.416016
42
0.237583
0
VERTEX
8
1
10
27.776436
20
20.440956
0
VERTEX
8
1
10
27.767441
20
20.435318
0
VERTEX
8
1
10
27.703548
20
20.363167
0
VERTEX
8
1
10
27.689877
20
20.368629
0
VERTEX
8
1
10
27.673248
20
20.384911
0
VERTEX
8
1
10
27.658478
20
20.404259
42
-0.102061
0
VERTEX
8
1
10
27.589367
20
20.629913
42
0.036986
0
VERTEX
8
1
10
27.502804
20
20.918455
42
0.456368
0
VERTEX
8
1
10
27.373310
20
20.939072
42
0.090237
0
VERTEX
8
1
10
27.172409
20
20.716240
42
0.136557
0
VERTEX
8
1
10
27.115074
20
20.372810
42
0.123882
0
VERTEX
8
1
10
27.174717
20
20.135887
42
-0.073797
0
VERTEX
8
1
10
27.253664
20
20.013077
42
-0.064082
0
VERTEX
8
1
10
27.257034
20
19.983360
0
VERTEX
8
1
10
27.249538
20
19.971985
42
-0.138924
0
VERTEX
8
1
10
27.164562
20
20.021820
42
0.142217
0
VERTEX
8
1
10
27.105366
20
20.047600
0
VERTEX
8
1
10
27.091343
20
20.042610
42
-0.019991
0
VERTEX
8
1
10
27.155680
20
19.606260
42
0.019997
0
VERTEX
8
1
10
27.163216
20
19.580750
0
VERTEX
8
1
10
27.141434
20
19.599838
0
VERTEX
8
1
10
27.115711
20
19.629173
42
-0.102037
0
VERTEX
8
1
10
26.943420
20
20.016937
42
0.093614
0
VERTEX
8
1
10
26.913330
20
20.138416
42
0.246602
0
VERTEX
8
1
10
26.868267
20
20.158539
42
0.099347
0
VERTEX
8
1
10
26.713490
20
20.109383
0
VERTEX
8
1
10
26.705292
20
20.115524
0
VERTEX
8
1
10
26.712269
20
20.146767
42
-0.111159
0
VERTEX
8
1
10
26.861856
20
20.351181
42
0.027538
0
VERTEX
8
1
10
26.927746
20
20.428452
42
-0.023757
0
VERTEX
8
1
10
26.746941
20
20.470688
0
VERTEX
8
1
10
26.728500
20
20.479179
0
VERTEX
8
1
10
26.710945
20
20.489548
42
0.058408
0
VERTEX
8
1
10
27.068247
20
20.729666
42
0.146383
0
VERTEX
8
1
10
27.247292
20
21.044296
42
0.108082
0
VERTEX
8
1
10
27.283348
20
21.301842
42
0.139603
0
VERTEX
8
1
10
27.241478
20
21.387268
0
VERTEX
8
1
10
27.249905
20
21.387039
0
VERTEX
8
1
10
27.252937
20
21.396667
0
VERTEX
8
1
10
27.251572
20
21.414276
42
0.010430
0
VERTEX
8
1
10
27.201962
20
21.601570
0
VERTEX
8
1
10
27.200665
20
21.616371
42
0.293674
0
VERTEX
8
1
10
27.138660
20
21.755188
42
-0.048116
0
VERTEX
8
1
10
27.104710
20
21.820427
42
0.049288
0
VERTEX
8
1
10
27.030048
20
21.891350
42
-0.038837
0
VERTEX
8
1
10
26.967484
20
21.982407
42
0.093893
0
VERTEX
8
1
10
26.869862
20
22.047096
42
-0.067192
0
VERTEX
8
1
10
26.783897
20
22.127815
42
0.116522
0
VERTEX
8
1
10
26.730671
20
22.151398
42
-0.324954
0
VERTEX
8
1
10
26.784449
20
22.194660
42
-0.082211
0
SEQEND
0
POLYLINE
8
1
66
1
70
1
0
VERTEX
8
1
10
26.466789
20
21.672821
42
-0.140693
0
VERTEX
8
1
10
26.602821
20
21.675270
42
-0.219668
0
VERTEX
8
1
10
26.848999
20
21.588142
42
-0.205260
0
VERTEX
8
1
10
26.982483
20
21.450531
42
-0.051024
0
VERTEX
8
1
10
27.017838
20
21.353111
0
VERTEX
8
1
10
26.981525
20
21.340775
42
0.016933
0
VERTEX
8
1
10
26.385242
20
21.239571
0
VERTEX
8
1
10
26.346727
20
21.245771
42
-0.002037
0
VERTEX
8
1
10
26.342291
20
21.629774
0
VERTEX
8
1
10
26.346413
20
21.634956
0
VERTEX
8
1
10
26.351078
20
21.636627
42
-0.116133
0
SEQEND
0
POLYLINE
8
1
66
1
70
1
0
VERTEX
8
1
10
26.417828
20
22.317154
0
VERTEX
8
1
10
26.420559
20
22.305092
42
-0.099532
0
VERTEX
8
1
10
26.462013
20
22.078568
42
-0.617398
0
VERTEX
8
1
10
26.437229
20
22.074898
0
VERTEX
8
1
10
26.433037
20
22.077095
42
-0.114323
0
VERTEX
8
1
10
26.341347
20
22.106428
42
-0.033721
0
VERTEX
8
1
10
26.355503
20
22.571974
42
0.024581
0
SEQEND
0
POLYLINE
8
1
66
1
70
1
0
VERTEX
8
1
10
26.243370
20
23.833778
42
-0.039205
0
VERTEX
8
1
10
26.236591
20
23.801857
0
VERTEX
8
1
10
26.219681
20
23.794983
42
-0.041380
0
VERTEX
8
1
10
25.884792
20
23.768723
42
-0.031748
0
VERTEX
8
1
10
24.794470
20
23.801153
42
-0.049833
0
VERTEX
8
1
10
24.687155
20
23.830568
42
-0.482561
0
VERTEX
8
1
10
24.690498
20
23.843735
0
VERTEX
8
1
10
24.701736
20
23.848900
42
0.020755
0
VERTEX
8
1
10
25.009920
20
23.928680
42
0.158201
0
VERTEX
8
1
10
25.084209
20
23.993620
42
0.390052
0
VERTEX
8
1
10
25.060555
20
24.033607
0
VERTEX
8
1
10
25.044712
20
24.040871
0
VERTEX
8
1
10
25.025738
20
24.047188
42
0.021153
0
VERTEX
8
1
10
24.744514
20
24.090540
42
-0.197144
0
VERTEX
8
1
10
24.611923
20
24.180832
42
-0.352147
0
VERTEX
8
1
10
24.631180
20
24.243393
42
-0.174576
0
VERTEX
8
1
10
24.878185
20
24.331062
0
VERTEX
8
1
10
24.946022
20
24.335014
42
-0.026864
0
VERTEX
8
1
10
26.236282
20
24.279350
0
VERTEX
8
1
10
26.244892
20
24.275017
42
-0.198390
0
VERTEX
8
1
10
26.288719
20
24.155067
42
-0.063022
0
SEQEND
0
POLYLINE
8
1
66
1
70
1
0
VERTEX
8
1
10
26.201252
20
23.341469
42
-0.074458
0
VERTEX
8
1
10
26.446243
20
23.292925
42
-0.097649
0
VERTEX
8
1
10
26.463276
20
23.275253
0
VERTEX
8
1
10
26.453491
20
23.266991
42
-0.077608
0
VERTEX
8
1
10
26.328251
20
23.251793
42
-0.018623
0
VERTEX
8
1
10
25.246292
20
23.276512
42
-0.015008
0
VERTEX
8
1
10
24.326691
20
23.338594
42
-0.357911
0
VERTEX
8
1
10
24.271343
20
23.425293
42
-0.132998
0
VERTEX
8
1
10
24.378647
20
23.667717
42
0.037209
0
VERTEX
8
1
10
26.063271
20
23.597908
42
0.011196
0
VERTEX
8
1
10
26.271446
20
23.624107
0
VERTEX
8
1
10
26.284855
20
23.621981
42
-0.825343
0
VERTEX
8
1
10
26.291618
20
23.591583
0
VERTEX
8
1
10
26.282539
20
23.582443
42
-0.069245
0
VERTEX
8
1
10
25.989399
20
23.417400
42
0.093197
0
VERTEX
8
1
10
25.953403
20
23.394438
42
0.513626
0
VERTEX
8
1
10
25.966522
20
23.375595
42
0.049669
0
SEQEND
0
POLYLINE
8
1
66
1
70
1
0
VERTEX
8
1
10
26.058702
20
22.398075
42
0.004215
0
VERTEX
8
1
10
26.157501
20
19.315765
42
0.016554
0
VERTEX
8
1
10
26.197506
20
18.859955
42
-0.091891
0
VERTEX
8
1
10
26.083172
20
18.803101
0
VERTEX
8
1
10
26.081932
20
18.807228
42
0.138025
0
VERTEX
8
1
10
26.099293
20
18.942019
42
0.380237
0
VERTEX
8
1
10
26.078621
20
18.946823
0
VERTEX
8
1
10
26.066017
20
18.940544
42
-0.080468
0
VERTEX
8
1
10
25.934475
20
18.871223
0
VERTEX
8
1
10
25.931927
20
18.881607
42
0.031397
0
VERTEX
8
1
10
25.928574
20
19.045753
42
0.046727
0
VERTEX
8
1
10
25.755587
20
18.888130
0
VERTEX
8
1
10
25.738121
20
18.863878
42
-0.100261
0
VERTEX
8
1
10
25.571812
20
18.656334
42
0.088341
0
VERTEX
8
1
10
25.574608
20
18.726807
42
0.225743
0
VERTEX
8
1
10
25.568989
20
18.773834
0
VERTEX
8
1
10
25.558973
20
18.762030
42
-0.009284
0
VERTEX
8
1
10
25.422997
20
18.652069
42
-0.076107
0
VERTEX
8
1
10
25.305901
20
18.468925
42
0.118095
0
VERTEX
8
1
10
25.318474
20
18.531105
42
0.125680
0
VERTEX
8
1
10
25.287247
20
18.817062
0
VERTEX
8
1
10
25.283417
20
18.819138
42
0.176858
0
VERTEX
8
1
10
25.230944
20
18.718094
42
-0.120163
0
VERTEX
8
1
10
25.184177
20
18.635376
0
VERTEX
8
1
10
25.177441
20
18.633957
42
0.042318
0
VERTEX
8
1
10
25.179653
20
18.709229
42
0.076340
0
VERTEX
8
1
10
25.104050
20
18.813866
0
VERTEX
8
1
10
25.098869
20
18.811089
42
0.081196
0
VERTEX
8
1
10
25.071590
20
18.701195
42
0.026742
0
VERTEX
8
1
10
25.031399
20
18.417458
42
-0.067247
0
VERTEX
8
1
10
24.991131
20
18.285622
42
-0.590269
0
VERTEX
8
1
10
24.963154
20
18.296951
42
-0.174220
0
VERTEX
8
1
10
24.894695
20
18.357470
42
0.272196
0
VERTEX
8
1
10
24.850025
20
18.369942
0
VERTEX
8
1
10
24.848057
20
18.365860
42
0.012825
0
VERTEX
8
1
10
24.872772
20
18.222198
42
-0.211370
0
VERTEX
8
1
10
24.881958
20
18.177170
42
-0.001732
0
VERTEX
8
1
10
24.780800
20
18.202110
42
0.465821
0
VERTEX
8
1
10
24.777023
20
18.184464
0
VERTEX
8
1
10
24.779434
20
18.177811
42
0.048193
0
VERTEX
8
1
10
24.841389
20
18.084129
42
-0.152765
0
VERTEX
8
1
10
24.803829
20
18.079643
42
0.158930
0
VERTEX
8
1
10
24.710079
20
18.032715
42
-0.053913
0
VERTEX
8
1
10
24.669819
20
17.971298
42
0.551593
0
VERTEX
8
1
10
24.714592
20
17.922462
42
-0.118767
0
VERTEX
8
1
10
24.836811
20
17.910728
42
-0.146570
0
VERTEX
8
1
10
24.963299
20
17.859947
42
-0.211560
0
VERTEX
8
1
10
25.154896
20
17.684769
42
-0.218085
0
VERTEX
8
1
10
25.225704
20
17.459755
42
-0.053589
0
VERTEX
8
1
10
25.202778
20
17.317459
0
VERTEX
8
1
10
25.168461
20
17.308144
42
-0.083034
0
VERTEX
8
1
10
24.659321
20
17.438608
42
-0.051484
0
VERTEX
8
1
10
24.052696
20
17.756002
0
VERTEX
8
1
10
24.057281
20
17.774902
42
0.007522
0
VERTEX
8
1
10
24.197788
20
18.226257
0
VERTEX
8
1
10
24.234756
20
18.330276
0
VERTEX
8
1
10
24.263805
20
18.395653
0
VERTEX
8
1
10
24.286251
20
18.427406
0
VERTEX
8
1
10
24.303387
20
18.430573
0
VERTEX
8
1
10
24.316536
20
18.410172
42
-0.026255
0
VERTEX
8
1
10
24.361221
20
18.159254
42
0.065275
0
VERTEX
8
1
10
24.406590
20
18.029045
0
VERTEX
8
1
10
24.419769
20
18.019386
0
VERTEX
8
1
10
24.433407
20
18.028488
0
VERTEX
8
1
10
24.447445
20
18.055313
0
VERTEX
8
1
10
24.461842
20
18.098778
42
0.031249
0
VERTEX
8
1
10
24.552958
20
18.649750
42
0.003029
0
VERTEX
8
1
10
24.607246
20
19.131432
42
0.153994
0
VERTEX
8
1
10
24.635662
20
19.419922
42
0.004315
0
VERTEX
8
1
10
24.788052
20
21.344620
0
VERTEX
8
1
10
24.800003
20
21.446617
0
VERTEX
8
1
10
24.809540
20
21.473366
0
VERTEX
8
1
10
24.817619
20
21.437622
0
VERTEX
8
1
10
24.825191
20
21.352215
42
0.010471
0
VERTEX
8
1
10
24.869747
20
20.769665
0
VERTEX
8
1
10
24.889263
20
20.627777
0
VERTEX
8
1
10
24.914059
20
20.512985
0
VERTEX
8
1
10
24.945095
20
20.438080
0
VERTEX
8
1
10
24.983337
20
20.415863
0
VERTEX
8
1
10
25.022526
20
20.457489
0
VERTEX
8
1
10
25.051224
20
20.559921
0
VERTEX
8
1
10
25.070705
20
20.713249
42
0.022040
0
VERTEX
8
1
10
25.086718
20
21.635841
42
-0.005011
0
VERTEX
8
1
10
25.076338
20
22.574543
0
VERTEX
8
1
10
25.080971
20
22.736916
0
VERTEX
8
1
10
25.091522
20
22.850418
0
VERTEX
8
1
10
25.110947
20
22.909439
0
VERTEX
8
1
10
25.151371
20
22.945526
0
VERTEX
8
1
10
25.211922
20
22.968437
42
-0.086930
0
VERTEX
8
1
10
25.455160
20
22.975931
42
-0.049555
0
VERTEX
8
1
10
26.045475
20
22.862381
0
VERTEX
8
1
10
26.046335
20
22.852364
42
-0.000802
0
SEQEND
0
POLYLINE
8
1
66
1
70
1
0
VERTEX
8
1
10
24.090305
20
20.370911
42
-0.011529
0
VERTEX
8
1
10
24.359646
20
20.496986
42
-0.008526
0
VERTEX
8
1
10
24.290131
20
19.916237
42
0.126523
0
VERTEX
8
1
10
23.733162
20
20.141113
0
VERTEX
8
1
10
23.740765
20
20.158302
42
-0.060068
0
SEQEND
0
POLYLINE
8
1
66
1
70
1
0
VERTEX
8
1
10
24.004692
20
18.348854
42
-0.009824
0
VERTEX
8
1
10
23.874889
20
17.898048
0
VERTEX
8
1
10
23.813503
20
17.906075
42
0.050113
0
VERTEX
8
1
10
23.107626
20
18.263550
42
0.084302
0
VERTEX
8
1
10
22.768244
20
18.316589
42
0.168825
0
VERTEX
8
1
10
22.480064
20
18.187073
42
-0.126248
0
VERTEX
8
1
10
22.329170
20
18.979362
0
VERTEX
8
1
10
22.355221
20
18.976166
42
0.127554
0
VERTEX
8
1
10
23.748810
20
18.703108
42
0.048385
0
VERTEX
8
1
10
24.108913
20
18.770584
0
VERTEX
8
1
10
24.092049
20
18.679642
42
-0.001217
0
SEQEND
0
POLYLINE
8
1
66
1
70
1
0
VERTEX
8
1
10
23.334049
20
17.139048
42
-0.001530
0
VERTEX
8
1
10
22.723797
20
17.798317
42
-0.229444
0
VERTEX
8
1
10
22.898087
20
18.027630
42
-0.171243
0
VERTEX
8
1
10
23.095238
20
18.035345
42
-0.075051
0
VERTEX
8
1
10
23.267033
20
17.968979
42
-0.009794
0
VERTEX
8
1
10
23.768322
20
17.660103
0
VERTEX
8
1
10
23.791241
20
17.639397
42
-0.011697
0
VERTEX
8
1
10
23.528679
20
16.917336
42
0.005685
0
SEQEND
0
POLYLINE
8
1
66
1
70
1
0
VERTEX
8
1
10
23.635664
20
16.602829
42
0.003461
0
VERTEX
8
1
10
23.971056
20
17.524101
0
VERTEX
8
1
10
24.080746
20
17.474052
42
0.046814
0
VERTEX
8
1
10
24.786261
20
17.139637
42
0.037857
0
VERTEX
8
1
10
24.992516
20
17.092667
0
VERTEX
8
1
10
25.079494
20
17.088341
0
VERTEX
8
1
10
25.095505
20
17.073112
42
-0.177051
0
VERTEX
8
1
10
24.893684
20
16.937996
42
-0.080138
0
VERTEX
8
1
10
24.759521
20
16.891640
42
-0.100753
0
VERTEX
8
1
10
24.579453
20
16.928909
42
-0.161981
0
VERTEX
8
1
10
24.463699
20
16.979561
42
-0.096248
0
VERTEX
8
1
10
24.357683
20
17.064924
42
0.577114
0
VERTEX
8
1
10
24.301960
20
17.035774
42
-0.079325
0
VERTEX
8
1
10
24.290092
20
16.970612
42
0.171823
0
VERTEX
8
1
10
24.344604
20
16.861427
0
VERTEX
8
1
10
24.347067
20
16.855413
0
VERTEX
8
1
10
24.347610
20
16.848938
42
0.125296
0
VERTEX
8
1
10
24.275330
20
16.834396
42
0.173105
0
VERTEX
8
1
10
24.223347
20
16.814491
42
0.364572
0
VERTEX
8
1
10
24.244968
20
16.794617
42
-0.037960
0
VERTEX
8
1
10
24.311001
20
16.756142
0
VERTEX
8
1
10
24.312523
20
16.752182
42
-0.131891
0
VERTEX
8
1
10
24.272980
20
16.727692
42
0.013440
0
VERTEX
8
1
10
24.156910
20
16.642799
0
VERTEX
8
1
10
24.155743
20
16.637260
0
VERTEX
8
1
10
24.157616
20
16.632309
42
0.225082
0
VERTEX
8
1
10
24.237186
20
16.622398
42
-0.036618
0
VERTEX
8
1
10
24.292027
20
16.612562
42
-0.874882
0
VERTEX
8
1
10
24.313099
20
16.589943
42
-0.080930
0
VERTEX
8
1
10
24.195984
20
16.406479
42
0.037104
0
VERTEX
8
1
10
24.029633
20
16.162369
0
VERTEX
8
1
10
24.025970
20
16.150681
0
VERTEX
8
1
10
24.029263
20
16.144249
42
0.055902
0
VERTEX
8
1
10
24.153111
20
16.165428
42
0.083003
0
VERTEX
8
1
10
24.202152
20
16.218369
0
VERTEX
8
1
10
24.208874
20
16.222137
42
-0.180223
0
VERTEX
8
1
10
24.179823
20
16.120867
42
0.115790
0
VERTEX
8
1
10
24.151798
20
16.017059
0
VERTEX
8
1
10
24.157154
20
16.013985
42
0.157246
0
VERTEX
8
1
10
24.220623
20
16.049217
42
0.111615
0
VERTEX
8
1
10
24.413338
20
16.247559
42
-0.067963
0
VERTEX
8
1
10
24.368504
20
16.032639
42
-0.031392
0
VERTEX
8
1
10
24.390400
20
15.847214
42
0.117419
0
VERTEX
8
1
10
24.434975
20
15.888504
42
0.132416
0
VERTEX
8
1
10
24.473461
20
15.933273
42
-0.099094
0
VERTEX
8
1
10
24.447659
20
15.665932
42
0.080255
0
VERTEX
8
1
10
24.456577
20
15.402657
42
0.019934
0
VERTEX
8
1
10
24.474434
20
15.417053
0
VERTEX
8
1
10
24.476974
20
15.413467
42
0.260121
0
VERTEX
8
1
10
24.668200
20
15.209982
42
0.088332
0
VERTEX
8
1
10
24.873245
20
15.165817
0
VERTEX
8
1
10
24.878811
20
15.161224
42
0.006771
0
VERTEX
8
1
10
24.908190
20
15.082047
42
0.431701
0
VERTEX
8
1
10
24.928688
20
15.084259
42
0.093753
0
VERTEX
8
1
10
24.985649
20
15.160187
0
VERTEX
8
1
10
24.994614
20
15.165215
42
0.027926
0
VERTEX
8
1
10
25.148426
20
15.180389
0
VERTEX
8
1
10
25.144064
20
15.174706
42
-0.003190
0
VERTEX
8
1
10
24.664286
20
14.946354
42
-0.088014
0
VERTEX
8
1
10
24.242970
20
14.852333
42
0.091222
0
VERTEX
8
1
10
24.317616
20
14.613884
0
VERTEX
8
1
10
24.327248
20
14.609253
42
-0.135852
0
VERTEX
8
1
10
24.502483
20
14.606354
42
-0.291837
0
VERTEX
8
1
10
24.593967
20
14.467484
42
-0.099078
0
VERTEX
8
1
10
24.484774
20
13.803076
42
-0.097528
0
VERTEX
8
1
10
24.411598
20
13.706963
42
-0.117525
0
VERTEX
8
1
10
24.209366
20
13.636757
0
VERTEX
8
1
10
24.168659
20
13.630806
0
VERTEX
8
1
10
24.152992
20
13.617332
0
VERTEX
8
1
10
24.124931
20
13.474411
0
VERTEX
8
1
10
24.092644
20
13.470948
42
-0.004294
0
VERTEX
8
1
10
23.594959
20
13.532837
0
VERTEX
8
1
10
23.572144
20
13.539902
42
0.337572
0
VERTEX
8
1
10
23.982986
20
14.120149
42
0.136795
0
VERTEX
8
1
10
23.851671
20
14.622651
42
0.081955
0
VERTEX
8
1
10
23.489342
20
15.087204
0
VERTEX
8
1
10
23.481400
20
15.103439
0
VERTEX
8
1
10
23.861717
20
15.166382
42
0.033385
0
VERTEX
8
1
10
23.946053
20
15.315147
0
VERTEX
8
1
10
23.933834
20
15.323586
42
-0.013164
0
VERTEX
8
1
10
23.203671
20
15.322037
0
VERTEX
8
1
10
23.168549
20
15.343451
42
-0.000479
0
SEQEND
0
POLYLINE
8
1
66
1
70
1
0
VERTEX
8
1
10
22.804028
20
14.333725
42
-0.002686
0
VERTEX
8
1
10
23.055450
20
15.034653
42
-0.065378
0
VERTEX
8
1
10
23.212729
20
14.353235
42
-0.093845
0
VERTEX
8
1
10
23.183809
20
14.135277
42
-0.379590
0
VERTEX
8
1
10
23.051577
20
14.086911
42
-0.166638
0
VERTEX
8
1
10
22.914778
20
14.179675
42
-0.060939
0
SEQEND
0
POLYLINE
8
1
66
1
70
1
0
VERTEX
8
1
10
22.689648
20
13.905960
42
-0.014726
0
VERTEX
8
1
10
22.702736
20
14.013985
0
VERTEX
8
1
10
22.730740
20
13.976486
0
VERTEX
8
1
10
22.758987
20
13.939171
0
VERTEX
8
1
10
22.787483
20
13.902039
42
0.105296
0
VERTEX
8
1
10
23.107258
20
13.603851
42
-0.040702
0
VERTEX
8
1
10
22.725983
20
13.682616
42
-0.205573
0
VERTEX
8
1
10
22.699062
20
13.719154
42
-0.102920
0
SEQEND
0
POLYLINE
8
1
66
1
70
1
0
VERTEX
8
1
10
22.353012
20
13.520957
42
-0.978797
0
VERTEX
8
1
10
22.306587
20
13.562767
42
0.104090
0
VERTEX
8
1
10
22.503746
20
13.906563
0
VERTEX
8
1
10
22.519482
20
13.976593
42
0.148419
0
VERTEX
8
1
10
22.494184
20
14.230137
42
-0.914080
0
VERTEX
8
1
10
22.553638
20
14.248810
42
-0.181637
0
VERTEX
8
1
10
22.564123
20
13.890323
42
-0.115458
0
SEQEND
0
POLYLINE
8
1
66
1
70
1
0
VERTEX
8
1
10
26.478474
20
10.972588
0
VERTEX
8
1
10
26.480785
20
10.980461
0
VERTEX
8
1
10
26.294022
20
11.022850
42
-0.210817
0
VERTEX
8
1
10
26.138153
20
11.132207
0
VERTEX
8
1
10
26.135256
20
11.139878
0
VERTEX
8
1
10
26.132860
20
11.147720
42
0.010474
0
VERTEX
8
1
10
25.699959
20
12.362697
42
0.029735
0
VERTEX
8
1
10
25.419479
20
12.946419
0
VERTEX
8
1
10
25.391197
20
12.980835
42
-0.054200
0
VERTEX
8
1
10
24.652374
20
12.814247
0
VERTEX
8
1
10
24.631161
20
12.798279
42
-0.055476
0
VERTEX
8
1
10
24.492493
20
12.046494
42
-0.056072
0
VERTEX
8
1
10
24.170658
20
11.208124
42
-0.019945
0
VERTEX
8
1
10
24.089687
20
11.077728
0
VERTEX
8
1
10
24.065437
20
11.052017
42
0.013989
0
VERTEX
8
1
10
23.911785
20
11.118851
42
-0.007300
0
VERTEX
8
1
10
23.747379
20
10.894608
42
0.002478
0
VERTEX
8
1
10
23.955093
20
10.854079
42
-0.025978
0
VERTEX
8
1
10
22.104008
20
11.132101
42
-0.019541
0
VERTEX
8
1
10
21.991726
20
11.166954
0
VERTEX
8
1
10
22.001812
20
11.250083
42
-0.020341
0
VERTEX
8
1
10
22.314243
20
12.803649
42
-0.014534
0
VERTEX
8
1
10
22.511227
20
13.469116
0
VERTEX
8
1
10
22.751156
20
13.417442
0
VERTEX
8
1
10
23.070618
20
13.367165
0
VERTEX
8
1
10
23.450283
20
13.322731
0
VERTEX
8
1
10
23.877594
20
13.283882
0
VERTEX
8
1
10
24.339989
20
13.250372
42
0.014764
0
VERTEX
8
1
10
27.795797
20
13.142248
0
VERTEX
8
1
10
28.009018
20
13.144783
0
VERTEX
8
1
10
28.110764
20
13.050186
42
-0.015620
0
VERTEX
8
1
10
28.586054
20
11.088048
42
-0.043716
0
VERTEX
8
1
10
28.619442
20
10.735558
42
-0.004989
0
VERTEX
8
1
10
28.632061
20
10.261520
0
VERTEX
8
1
10
28.613483
20
10.220634
42
-0.041116
0
VERTEX
8
1
10
28.205624
20
10.200951
42
0.129425
0
VERTEX
8
1
10
28.232643
20
9.995564
42
0.075622
0
VERTEX
8
1
10
28.249069
20
9.977699
42
-0.092021
0
VERTEX
8
1
10
28.430367
20
9.941948
42
-0.207687
0
VERTEX
8
1
10
28.485222
20
9.866440
42
-0.106553
0
VERTEX
8
1
10
28.548412
20
8.604050
42
-0.018349
0
VERTEX
8
1
10
28.463600
20
8.142303
0
VERTEX
8
1
10
28.440882
20
8.073897
42
-0.004331
0
VERTEX
8
1
10
27.678558
20
8.054450
0
VERTEX
8
1
10
27.692394
20
8.064667
42
0.167312
0
VERTEX
8
1
10
28.118504
20
8.361541
42
0.123797
0
VERTEX
8
1
10
28.205038
20
8.609118
42
0.267585
0
VERTEX
8
1
10
28.097843
20
8.781301
42
0.095885
0
VERTEX
8
1
10
27.867807
20
8.873723
42
0.102956
0
VERTEX
8
1
10
27.349043
20
8.898427
42
0.145617
0
VERTEX
8
1
10
27.178780
20
8.801873
42
0.222186
0
VERTEX
8
1
10
27.153217
20
8.671578
42
0.233842
0
VERTEX
8
1
10
27.316654
20
8.432640
42
0.044612
0
VERTEX
8
1
10
27.613873
20
8.313797
42
-0.482219
0
VERTEX
8
1
10
27.610764
20
8.264977
42
-0.098824
0
VERTEX
8
1
10
27.501469
20
8.196220
42
-0.130677
0
VERTEX
8
1
10
27.186600
20
8.125725
42
-0.280607
0
VERTEX
8
1
10
27.051762
20
8.250712
42
-0.108439
0
VERTEX
8
1
10
27.000423
20
8.558483
42
-0.066745
0
VERTEX
8
1
10
27.090408
20
9.322524
42
-0.048733
0
VERTEX
8
1
10
27.113819
20
9.373650
42
-0.011671
0
VERTEX
8
1
10
27.548534
20
9.370338
42
-0.234901
0
VERTEX
8
1
10
27.652466
20
9.272102
42
0.031351
0
VERTEX
8
1
10
27.738106
20
9.094566
42
0.314054
0
VERTEX
8
1
10
27.795464
20
9.077187
42
0.077502
0
VERTEX
8
1
10
28.030144
20
9.171555
42
-0.076707
0
VERTEX
8
1
10
27.890354
20
9.648529
42
0.015402
0
VERTEX
8
1
10
27.896908
20
9.927171
42
0.089262
0
VERTEX
8
1
10
27.874474
20
10.000931
0
VERTEX
8
1
10
27.864212
20
10.001404
42
0.082152
0
VERTEX
8
1
10
27.540329
20
9.855789
42
-0.357392
0
VERTEX
8
1
10
27.627064
20
9.629242
0
VERTEX
8
1
10
27.623009
20
9.625389
42
-0.086339
0
VERTEX
8
1
10
27.474121
20
9.603668
42
-0.014254
0
VERTEX
8
1
10
27.178795
20
9.598328
0
VERTEX
8
1
10
27.177906
20
9.605469
42
-0.042061
0
VERTEX
8
1
10
27.413279
20
10.031707
42
0.011631
0
VERTEX
8
1
10
27.455643
20
10.109452
42
0.174418
0
VERTEX
8
1
10
27.425907
20
10.109344
42
-0.018614
0
VERTEX
8
1
10
26.482403
20
10.031313
42
0.460950
0
VERTEX
8
1
10
26.476814
20
10.012535
42
-0.042678
0
VERTEX
8
1
10
26.542686
20
9.644455
0
VERTEX
8
1
10
26.541298
20
9.629921
42
-0.083338
0
VERTEX
8
1
10
26.100193
20
9.714508
0
VERTEX
8
1
10
26.087009
20
9.709740
42
0.086453
0
VERTEX
8
1
10
26.057793
20
9.338829
42
0.410949
0
VERTEX
8
1
10
26.082947
20
9.329651
42
-0.039351
0
VERTEX
8
1
10
26.529354
20
9.399269
0
VERTEX
8
1
10
26.519138
20
9.354156
42
0.086212
0
VERTEX
8
1
10
26.327192
20
8.558934
42
0.101494
0
VERTEX
8
1
10
26.392759
20
8.215649
42
0.158764
0
VERTEX
8
1
10
26.570713
20
8.040138
0
VERTEX
8
1
10
26.555796
20
8.038150
42
-0.001003
0
VERTEX
8
1
10
25.368626
20
8.027270
0
VERTEX
8
1
10
25.390633
20
8.037880
42
0.138328
0
VERTEX
8
1
10
25.846437
20
8.283049
42
0.162950
0
VERTEX
8
1
10
25.993881
20
8.609715
42
0.267929
0
VERTEX
8
1
10
25.885569
20
8.782074
42
0.096417
0
VERTEX
8
1
10
25.653841
20
8.874113
42
0.096220
0
VERTEX
8
1
10
25.153179
20
8.902355
42
0.152067
0
VERTEX
8
1
10
24.967304
20
8.801402
42
0.222072
0
VERTEX
8
1
10
24.942236
20
8.670533
42
0.233664
0
VERTEX
8
1
10
25.106541
20
8.431992
42
0.044070
0
VERTEX
8
1
10
25.402817
20
8.313744
42
-0.481841
0
VERTEX
8
1
10
25.399372
20
8.264679
42
-0.097909
0
VERTEX
8
1
10
25.289642
20
8.195885
42
-0.117144
0
VERTEX
8
1
10
24.991730
20
8.123428
42
-0.310177
0
VERTEX
8
1
10
24.840017
20
8.252144
42
-0.091408
0
VERTEX
8
1
10
24.791191
20
8.485657
42
-0.075316
0
VERTEX
8
1
10
24.889175
20
9.352906
42
-0.090209
0
VERTEX
8
1
10
24.904972
20
9.373649
42
-0.012112
0
VERTEX
8
1
10
25.337811
20
9.370277
42
-0.233731
0
VERTEX
8
1
10
25.441677
20
9.271454
42
0.042793
0
VERTEX
8
1
10
25.532776
20
9.087997
42
0.255724
0
VERTEX
8
1
10
25.605103
20
9.080795
42
0.054445
0
VERTEX
8
1
10
25.813503
20
9.166435
0
VERTEX
8
1
10
25.818722
20
9.172157
42
-0.076598
0
VERTEX
8
1
10
25.679207
20
9.648895
42
0.015871
0
VERTEX
8
1
10
25.685728
20
9.927588
42
0.089433
0
VERTEX
8
1
10
25.663200
20
10.001190
0
VERTEX
8
1
10
25.652534
20
10.001320
42
0.076359
0
VERTEX
8
1
10
25.348869
20
9.871323
0
VERTEX
8
1
10
25.329781
20
9.855347
42
-0.357299
0
VERTEX
8
1
10
25.415836
20
9.629082
0
VERTEX
8
1
10
25.411648
20
9.625229
0
VERTEX
8
1
10
25.404217
20
9.621635
42
-0.058866
0
VERTEX
8
1
10
25.077021
20
9.598423
42
-0.004829
0
VERTEX
8
1
10
24.967411
20
9.598328
0
VERTEX
8
1
10
24.967140
20
9.606308
42
-0.040693
0
VERTEX
8
1
10
25.221895
20
10.064292
0
VERTEX
8
1
10
25.233498
20
10.086774
0
VERTEX
8
1
10
25.243736
20
10.109909
42
0.133030
0
VERTEX
8
1
10
25.214615
20
10.109329
42
-0.016843
0
VERTEX
8
1
10
24.271826
20
10.031657
42
0.490939
0
VERTEX
8
1
10
24.265720
20
10.012413
42
-0.044004
0
VERTEX
8
1
10
24.331593
20
9.643806
0
VERTEX
8
1
10
24.328552
20
9.630005
42
-0.084147
0
VERTEX
8
1
10
23.888042
20
9.714935
0
VERTEX
8
1
10
23.875671
20
9.709068
42
0.085784
0
VERTEX
8
1
10
23.846533
20
9.339024
42
0.313024
0
VERTEX
8
1
10
23.864601
20
9.328209
42
-0.040013
0
VERTEX
8
1
10
24.319286
20
9.399323
0
VERTEX
8
1
10
24.306858
20
9.351303
42
0.086423
0
VERTEX
8
1
10
24.116030
20
8.556761
42
0.103136
0
VERTEX
8
1
10
24.183468
20
8.212300
42
0.180990
0
VERTEX
8
1
10
24.395721
20
8.023857
0
VERTEX
8
1
10
24.390911
20
8.021530
0
VERTEX
8
1
10
23.859634
20
8.019562
0
VERTEX
8
1
10
23.851391
20
8.040009
42
0.040941
0
VERTEX
8
1
10
23.829437
20
8.334175
42
0.457705
0
VERTEX
8
1
10
23.805336
20
8.342278
42
-0.150003
0
VERTEX
8
1
10
23.614773
20
8.308929
42
-0.285508
0
VERTEX
8
1
10
23.525482
20
8.411369
42
-0.076078
0
VERTEX
8
1
10
23.502842
20
8.703453
42
-0.039454
0
VERTEX
8
1
10
23.598427
20
9.485061
42
-0.002660
0
VERTEX
8
1
10
23.677963
20
9.786491
42
0.167206
0
VERTEX
8
1
10
23.832191
20
9.889267
42
0.336983
0
VERTEX
8
1
10
23.760462
20
10.081215
42
0.153545
0
VERTEX
8
1
10
23.412743
20
10.223807
42
0.101799
0
VERTEX
8
1
10
22.907782
20
10.191239
42
0.146526
0
VERTEX
8
1
10
22.792610
20
10.104622
0
VERTEX
8
1
10
22.781620
20
10.080994
42
0.371325
0
VERTEX
8
1
10
22.940252
20
9.774477
42
0.117831
0
VERTEX
8
1
10
23.212765
20
9.713669
42
0.051352
0
VERTEX
8
1
10
23.493992
20
9.737190
42
0.001976
0
VERTEX
8
1
10
22.989120
20
9.494583
42
-0.086007
0
VERTEX
8
1
10
22.548534
20
9.392570
42
0.090725
0
VERTEX
8
1
10
22.620640
20
9.164330
0
VERTEX
8
1
10
22.628555
20
9.158333
42
-0.159321
0
VERTEX
8
1
10
22.814453
20
9.152145
42
-0.258006
0
VERTEX
8
1
10
22.897701
20
9.023346
42
-0.113266
0
VERTEX
8
1
10
22.774206
20
8.313133
42
-0.202120
0
VERTEX
8
1
10
22.630939
20
8.206177
42
-0.047612
0
VERTEX
8
1
10
22.481590
20
8.173431
0
VERTEX
8
1
10
22.460182
20
8.167404
0
VERTEX
8
1
10
22.431602
20
8.021675
0
VERTEX
8
1
10
22.412411
20
8.020126
42
-0.005517
0
VERTEX
8
1
10
22.147606
20
8.023544
42
0.190975
0
VERTEX
8
1
10
22.340307
20
8.955510
42
0.130400
0
VERTEX
8
1
10
22.249340
20
9.114349
42
0.220376
0
VERTEX
8
1
10
22.004160
20
9.173817
42
0.031945
0
VERTEX
8
1
10
21.903561
20
9.155811
42
-0.010209
0
VERTEX
8
1
10
21.906292
20
9.494365
42
-0.034514
0
VERTEX
8
1
10
21.958393
20
10.915955
0
VERTEX
8
1
10
22.083176
20
10.887825
42
0.026514
0
VERTEX
8
1
10
23.111420
20
10.753272
42
0.011330
0
VERTEX
8
1
10
24.695221
20
10.657027
0
VERTEX
8
1
10
24.787888
20
10.626694
0
VERTEX
8
1
10
24.788179
20
10.653703
42
0.014702
0
VERTEX
8
1
10
26.388880
20
10.633854
0
VERTEX
8
1
10
26.413210
20
10.636771
0
VERTEX
8
1
10
26.437366
20
10.640892
42
0.401207
0
VERTEX
8
1
10
26.452023
20
10.726410
42
0.074423
0
VERTEX
8
1
10
26.393452
20
10.806107
0
VERTEX
8
1
10
26.393501
20
10.820450
42
0.004038
0
SEQEND
0
POLYLINE
8
1
66
1
70
1
0
VERTEX
8
1
10
24.741627
20
11.611864
42
0.003078
0
VERTEX
8
1
10
25.349575
20
11.547226
42
-0.074024
0
VERTEX
8
1
10
25.391890
20
11.129107
42
-0.028828
0
VERTEX
8
1
10
25.368015
20
10.762848
42
-0.010745
0
VERTEX
8
1
10
24.814880
20
10.783119
0
VERTEX
8
1
10
24.795170
20
10.789757
42
-0.015481
0
VERTEX
8
1
10
24.813915
20
10.949921
42
-0.032361
0
VERTEX
8
1
10
24.401955
20
10.984222
0
VERTEX
8
1
10
24.401451
20
10.994583
42
0.059213
0
VERTEX
8
1
10
24.595510
20
11.458051
42
0.008953
0
VERTEX
8
1
10
24.642277
20
11.611526
0
VERTEX
8
1
10
24.678082
20
11.618935
0
SEQEND
0
POLYLINE
8
1
66
1
70
1
0
VERTEX
8
1
10
24.690624
20
12.058228
42
-0.225082
0
VERTEX
8
1
10
24.790573
20
12.252876
42
-0.258436
0
VERTEX
8
1
10
25.339602
20
12.366640
42
-0.317532
0
VERTEX
8
1
10
25.435886
20
12.206184
42
-0.382668
0
VERTEX
8
1
10
25.203806
20
11.905866
42
-0.142913
0
VERTEX
8
1
10
24.783529
20
11.914731
42
-0.305648
0
SEQEND
0
POLYLINE
8
1
66
1
70
1
0
VERTEX
8
1
10
21.804970
20
4.576437
42
-1.041110
0
VERTEX
8
1
10
21.782486
20
4.635033
42
0.165639
0
VERTEX
8
1
10
21.887112
20
4.737793
42
0.284360
0
VERTEX
8
1
10
21.851162
20
4.854652
42
-0.950629
0
VERTEX
8
1
10
21.898849
20
4.894936
42
-0.463809
0
VERTEX
8
1
10
21.889824
20
4.636021
42
-0.078529
0
SEQEND
0
POLYLINE
8
1
66
1
70
1
0
VERTEX
8
1
10
21.749016
20
2.351479
42
-0.043514
0
VERTEX
8
1
10
21.853855
20
2.369652
42
0.107296
0
VERTEX
8
1
10
22.098495
20
1.979813
42
-0.179170
0
VERTEX
8
1
10
21.865704
20
1.868523
42
-0.099812
0
VERTEX
8
1
10
21.538197
20
1.882595
42
-0.176314
0
VERTEX
8
1
10
21.434433
20
1.968559
42
-0.323538
0
VERTEX
8
1
10
21.509501
20
2.220505
42
-0.124053
0
SEQEND
0
POLYLINE
8
1
66
1
70
1
0
VERTEX
8
1
10
22.178959
20
2.113396
42
-0.392889
0
VERTEX
8
1
10
22.153965
20
2.147797
42
0.428918
0
VERTEX
8
1
10
22.022919
20
2.349290
42
-0.113032
0
VERTEX
8
1
10
21.968769
20
2.363439
42
-0.738010
0
VERTEX
8
1
10
21.995468
20
2.415795
42
-0.480645
0
VERTEX
8
1
10
22.212067
20
2.128448
42
-0.320559
0
SEQEND
0
POLYLINE
8
1
66
1
70
1
0
VERTEX
8
1
10
26.229652
20
1.322655
42
-0.552334
0
VERTEX
8
1
10
26.265793
20
1.301735
42
-0.273216
0
VERTEX
8
1
10
26.191408
20
1.094098
42
-0.148890
0
VERTEX
8
1
10
25.921989
20
0.953807
42
-0.093500
0
VERTEX
8
1
10
25.502712
20
0.932049
42
-0.283574
0
VERTEX
8
1
10
25.194817
20
1.222056
42
-0.046574
0
VERTEX
8
1
10
25.171366
20
1.324278
42
-0.001712
0
VERTEX
8
1
10
25.463337
20
1.325096
42
0.252572
0
VERTEX
8
1
10
25.819471
20
1.175923
42
0.150065
0
SEQEND
0
POLYLINE
8
1
66
1
70
1
0
VERTEX
8
1
10
26.907669
20
1.394463
0
VERTEX
8
1
10
27.093853
20
1.416733
42
0.048949
0
VERTEX
8
1
10
28.062138
20
1.619240
0
VERTEX
8
1
10
28.094982
20
1.622810
42
-0.189843
0
VERTEX
8
1
10
28.210323
20
1.520370
42
-0.276319
0
VERTEX
8
1
10
28.172314
20
1.363098
42
-0.097079
0
VERTEX
8
1
10
28.011141
20
1.238157
42
-0.216388
0
VERTEX
8
1
10
26.994905
20
1.135741
42
-0.097792
0
VERTEX
8
1
10
26.880733
20
1.213409
42
-0.352246
0
VERTEX
8
1
10
26.891005
20
1.372240
42
-0.027179
0
SEQEND
0
POLYLINE
8
1
66
1
70
1
0
VERTEX
8
1
10
27.065800
20
1.582520
42
-1.196240
0
VERTEX
8
1
10
27.018421
20
1.624107
42
-0.170067
0
VERTEX
8
1
10
27.388004
20
1.890335
0
VERTEX
8
1
10
27.485886
20
1.907753
0
VERTEX
8
1
10
27.594757
20
1.907875
0
VERTEX
8
1
10
27.714542
20
1.886673
0
VERTEX
8
1
10
27.845142
20
1.840080
0
VERTEX
8
1
10
27.916248
20
1.804977
42
-0.936284
0
VERTEX
8
1
10
27.886768
20
1.750031
42
0.164264
0
VERTEX
8
1
10
27.452793
20
1.841583
42
0.200097
0
SEQEND
0
POLYLINE
8
1
66
1
70
1
0
VERTEX
8
1
10
28.540081
20
2.419739
42
0.079173
0
VERTEX
8
1
10
28.505157
20
2.225517
42
-0.088772
0
VERTEX
8
1
10
28.376808
20
2.026978
0
VERTEX
8
1
10
28.368870
20
2.021957
42
0.189076
0
VERTEX
8
1
10
28.119196
20
2.192085
42
0.084978
0
VERTEX
8
1
10
27.739201
20
2.232071
42
0.107561
0
VERTEX
8
1
10
27.103209
20
2.106214
42
0.168468
0
VERTEX
8
1
10
26.626068
20
1.632828
0
VERTEX
8
1
10
26.615623
20
1.622154
42
-0.003620
0
VERTEX
8
1
10
26.434429
20
1.597710
42
0.137944
0
VERTEX
8
1
10
26.345943
20
1.801270
42
0.232728
0
VERTEX
8
1
10
26.111874
20
1.877869
42
0.131724
0
VERTEX
8
1
10
25.550402
20
1.661514
42
0.108003
0
VERTEX
8
1
10
25.436008
20
1.516968
0
VERTEX
8
1
10
25.421883
20
1.512802
42
-0.007052
0
VERTEX
8
1
10
25.151260
20
1.505775
42
-0.058466
0
VERTEX
8
1
10
25.207695
20
2.005889
42
-0.055168
0
VERTEX
8
1
10
25.456009
20
2.798447
0
VERTEX
8
1
10
25.404133
20
2.824653
42
-0.009041
0
VERTEX
8
1
10
24.233829
20
2.941932
0
VERTEX
8
1
10
24.232365
20
2.939194
42
0.160511
0
VERTEX
8
1
10
24.251873
20
2.759300
42
0.101038
0
VERTEX
8
1
10
24.262844
20
2.752311
42
0.001797
0
VERTEX
8
1
10
24.438250
20
2.720662
42
-0.358187
0
VERTEX
8
1
10
24.528854
20
2.583672
0
VERTEX
8
1
10
24.528580
20
2.548981
42
0.039795
0
VERTEX
8
1
10
24.562035
20
1.521076
0
VERTEX
8
1
10
24.412334
20
1.522942
42
-0.058037
0
VERTEX
8
1
10
22.937077
20
1.773344
42
-0.029882
0
VERTEX
8
1
10
22.592625
20
1.907249
42
0.043065
0
VERTEX
8
1
10
22.148077
20
2.926375
0
VERTEX
8
1
10
22.126823
20
2.961281
0
VERTEX
8
1
10
22.081600
20
2.946384
42
-0.008311
0
VERTEX
8
1
10
22.023182
20
4.210579
42
0.008436
0
VERTEX
8
1
10
22.609119
20
4.200516
42
0.065691
0
VERTEX
8
1
10
23.009552
20
4.200695
42
0.001057
0
VERTEX
8
1
10
23.579676
20
4.202549
0
VERTEX
8
1
10
23.589470
20
4.198524
42
0.016405
0
VERTEX
8
1
10
23.575352
20
4.119926
42
-0.053575
0
VERTEX
8
1
10
23.751347
20
4.201515
0
VERTEX
8
1
10
23.801170
20
4.203786
42
0.000492
0
VERTEX
8
1
10
24.847902
20
4.212049
42
0.222828
0
VERTEX
8
1
10
25.413456
20
4.217850
42
-0.014476
0
VERTEX
8
1
10
25.817722
20
4.221054
42
0.067723
0
VERTEX
8
1
10
25.792830
20
4.090797
42
0.459998
0
VERTEX
8
1
10
25.802174
20
4.090729
0
VERTEX
8
1
10
25.820488
20
4.099872
42
-0.028804
0
VERTEX
8
1
10
26.057369
20
4.226105
0
VERTEX
8
1
10
26.729843
20
4.234756
0
VERTEX
8
1
10
26.750683
20
4.232445
42
0.153341
0
VERTEX
8
1
10
26.751747
20
4.057251
42
0.230589
0
VERTEX
8
1
10
27.001011
20
3.722182
42
0.111066
0
VERTEX
8
1
10
27.429113
20
3.589221
42
0.099016
0
VERTEX
8
1
10
28.304892
20
3.651853
42
0.184920
0
VERTEX
8
1
10
28.640228
20
3.929871
0
VERTEX
8
1
10
28.647545
20
3.931092
42
0.011904
0
VERTEX
8
1
10
28.660545
20
2.982971
42
-0.071297
0
VERTEX
8
1
10
28.573822
20
2.406258
42
-0.011572
0
SEQEND
0
POLYLINE
8
1
66
1
70
1
0
VERTEX
8
1
10
28.689560
20
5.004500
42
-1.042640
0
VERTEX
8
1
10
28.749542
20
5.022125
42
-0.124672
0
VERTEX
8
1
10
28.784754
20
4.302959
42
-0.057737
0
VERTEX
8
1
10
28.714931
20
4.119057
42
-0.831860
0
VERTEX
8
1
10
28.662006
20
4.150314
42
0.129779
0
VERTEX
8
1
10
28.750578
20
4.615198
42
0.065492
0
SEQEND
0
POLYLINE
8
1
66
1
70
1
0
VERTEX
8
1
10
29.076530
20
6.116403
42
0.046885
0
VERTEX
8
1
10
29.259703
20
4.672226
42
0.010597
0
VERTEX
8
1
10
29.294399
20
4.548904
42
0.181451
0
VERTEX
8
1
10
28.954756
20
4.584477
42
0.009880
0
VERTEX
8
1
10
28.907734
20
4.575462
0
VERTEX
8
1
10
28.902815
20
4.624496
42
0.000139
0
VERTEX
8
1
10
28.900160
20
6.358276
0
VERTEX
8
1
10
28.934647
20
6.352425
42
-0.159055
0
VERTEX
8
1
10
29.046829
20
6.306831
42
-0.209594
0
VERTEX
8
1
10
29.075256
20
6.197608
42
0.004557
0
SEQEND
0
POLYLINE
8
1
66
1
70
1
0
VERTEX
8
1
10
30.729397
20
9.332298
42
-0.165641
0
VERTEX
8
1
10
30.883144
20
9.240616
42
-0.511166
0
VERTEX
8
1
10
30.808760
20
9.061476
42
-0.096197
0
VERTEX
8
1
10
30.646847
20
9.031998
42
-0.070232
0
VERTEX
8
1
10
30.163973
20
9.079194
42
-0.149873
0
VERTEX
8
1
10
30.049267
20
9.161178
0
VERTEX
8
1
10
30.044153
20
9.173230
42
-0.347043
0
VERTEX
8
1
10
30.069433
20
9.263358
42
-0.122546
0
VERTEX
8
1
10
30.125259
20
9.294060
42
-0.132631
0
SEQEND
0
POLYLINE
8
1
66
1
70
1
0
VERTEX
8
1
10
8.095871
20
18.670914
42
0.169675
0
VERTEX
8
1
10
8.249237
20
18.836586
0
VERTEX
8
1
10
8.276535
20
18.933693
0
VERTEX
8
1
10
8.276318
20
19.031837
0
VERTEX
8
1
10
8.253120
20
19.128777
42
0.288478
0
VERTEX
8
1
10
7.509256
20
19.676710
42
0.293861
0
VERTEX
8
1
10
6.575377
20
19.086403
0
VERTEX
8
1
10
6.610414
20
19.033920
42
0.105681
0
VERTEX
8
1
10
7.689157
20
18.633825
42
0.076509
0
VERTEX
8
1
10
8.023324
20
18.641670
42
0.081656
0
SEQEND
0
POLYLINE
8
1
66
1
70
1
0
VERTEX
8
1
10
23.945217
20
18.948212
42
0.169728
0
VERTEX
8
1
10
24.098587
20
19.113892
0
VERTEX
8
1
10
24.125881
20
19.210999
0
VERTEX
8
1
10
24.125668
20
19.309135
0
VERTEX
8
1
10
24.102470
20
19.406082
42
0.286133
0
VERTEX
8
1
10
23.364567
20
19.953894
42
0.295731
0
VERTEX
8
1
10
22.424725
20
19.363716
0
VERTEX
8
1
10
22.459763
20
19.311226
42
0.098711
0
VERTEX
8
1
10
23.483313
20
18.917980
42
0.091361
0
VERTEX
8
1
10
23.915762
20
18.933897
0
VERTEX
8
1
10
23.930906
20
18.940197
0
SEQEND
0
POLYLINE
8
1
66
1
70
1
0
VERTEX
8
1
10
22.056944
20
21.020121
42
-0.116867
0
VERTEX
8
1
10
21.690672
20
21.166634
42
-0.087800
0
VERTEX
8
1
10
21.363148
20
21.468994
42
-0.182995
0
VERTEX
8
1
10
21.626097
20
21.693394
0
VERTEX
8
1
10
21.637686
20
21.693708
42
-0.243547
0
VERTEX
8
1
10
22.133936
20
21.335602
42
-0.224969
0
VERTEX
8
1
10
22.123348
20
21.077499
42
-0.103187
0
VERTEX
8
1
10
22.065498
20
21.020025
0
SEQEND
0
ENDSEC
0
EOF
