0
SECTION
2
HEADER
9
$EXTMIN
10
1.659840
20
0.922531
9
$EXTMAX
10
29.637569
20
42.606392
0
ENDSEC
0
SECTION
2
TABLES
0
TABLE
2
LTYPE
70
1
0
LTYPE
2
0
70
0
3
Solid Line
72
65
73
0
40
0.0
0
ENDTAB
0
TABLE
2
LAYER
70
1
0
LAYER
2
1
70
0
62
7
6
0
0
ENDTAB
0
ENDSEC
0
SECTION
2
BLOCKS
0
ENDSEC
0
SECTION
2
ENTITIES
0
POLYLINE
8
1
66
1
70
1
0
VERTEX
8
1
10
28.329075
20
37.313362
42
-0.011566
0
VERTEX
8
1
10
28.327473
20
37.468048
42
0.233104
0
VERTEX
8
1
10
28.221157
20
37.648514
42
-0.030254
0
VERTEX
8
1
10
28.055492
20
37.782440
42
0.005321
0
VERTEX
8
1
10
27.858936
20
37.912025
42
0.056762
0
VERTEX
8
1
10
27.773739
20
37.972672
42
0.001120
0
VERTEX
8
1
10
27.634302
20
38.005695
42
-0.165044
0
VERTEX
8
1
10
27.585972
20
38.051750
42
0.249097
0
VERTEX
8
1
10
27.501453
20
38.083202
42
-0.297473
0
VERTEX
8
1
10
27.427876
20
38.134277
42
-0.169071
0
VERTEX
8
1
10
27.148594
20
38.170334
42
0.049213
0
VERTEX
8
1
10
27.024418
20
38.187248
42
0.120991
0
VERTEX
8
1
10
26.607227
20
38.175789
42
0.236424
0
VERTEX
8
1
10
25.874462
20
37.594765
42
0.020063
0
VERTEX
8
1
10
25.682560
20
37.211578
42
-0.016737
0
VERTEX
8
1
10
25.504669
20
36.955769
0
VERTEX
8
1
10
25.486773
20
36.926144
42
-0.003094
0
VERTEX
8
1
10
25.258364
20
36.479897
0
VERTEX
8
1
10
25.242786
20
36.455513
42
0.216410
0
VERTEX
8
1
10
25.083130
20
36.750141
42
0.229966
0
VERTEX
8
1
10
24.878210
20
36.766354
42
0.179286
0
VERTEX
8
1
10
24.615009
20
36.570480
0
VERTEX
8
1
10
24.360310
20
36.464973
42
-0.125635
0
VERTEX
8
1
10
24.431215
20
36.350826
42
-0.354488
0
VERTEX
8
1
10
24.381575
20
36.287060
42
-0.229235
0
VERTEX
8
1
10
24.283665
20
36.291847
42
0.193428
0
VERTEX
8
1
10
24.182217
20
36.293068
42
-0.212888
0
VERTEX
8
1
10
24.096979
20
36.316341
42
-0.141331
0
VERTEX
8
1
10
23.942562
20
36.473793
42
-0.118295
0
VERTEX
8
1
10
23.896267
20
36.956718
42
0.053238
0
VERTEX
8
1
10
23.889919
20
37.172104
42
-0.066994
0
VERTEX
8
1
10
23.901524
20
37.324066
42
-0.003301
0
VERTEX
8
1
10
23.937496
20
37.554977
42
-0.258717
0
VERTEX
8
1
10
23.928532
20
37.617332
0
VERTEX
8
1
10
23.960567
20
37.702190
42
-0.000698
0
VERTEX
8
1
10
23.976398
20
37.986282
42
-0.037567
0
VERTEX
8
1
10
24.029949
20
38.124710
42
0.114516
0
VERTEX
8
1
10
24.038364
20
38.236633
42
-0.121485
0
VERTEX
8
1
10
24.089354
20
38.412590
42
0.130280
0
VERTEX
8
1
10
24.105434
20
38.552834
42
-0.090525
0
VERTEX
8
1
10
24.134007
20
38.684143
42
0.021028
0
VERTEX
8
1
10
24.263149
20
39.068008
42
0.092599
0
VERTEX
8
1
10
24.274471
20
39.313507
42
0.080892
0
VERTEX
8
1
10
24.242115
20
39.506523
42
0.050880
0
VERTEX
8
1
10
24.110546
20
39.695663
42
-0.062317
0
VERTEX
8
1
10
23.952908
20
39.847057
42
0.173144
0
VERTEX
8
1
10
23.852688
20
39.894875
42
-0.268625
0
VERTEX
8
1
10
23.816219
20
39.928459
0
VERTEX
8
1
10
23.803448
20
39.933083
42
0.171391
0
VERTEX
8
1
10
23.546650
20
39.755241
42
0.076928
0
VERTEX
8
1
10
23.453388
20
39.599907
0
VERTEX
8
1
10
23.416241
20
39.513496
42
-0.012326
0
VERTEX
8
1
10
23.350475
20
39.412399
0
VERTEX
8
1
10
23.342510
20
39.395004
42
-0.166243
0
VERTEX
8
1
10
23.055984
20
39.013046
42
-0.121854
0
VERTEX
8
1
10
22.984798
20
38.997826
42
-0.237230
0
VERTEX
8
1
10
22.905161
20
39.071259
42
-0.161079
0
VERTEX
8
1
10
22.877703
20
39.391796
42
0.000077
0
VERTEX
8
1
10
22.946497
20
39.706917
42
0.007248
0
VERTEX
8
1
10
22.980078
20
40.006359
42
0.191840
0
VERTEX
8
1
10
22.914402
20
40.152405
42
0.053001
0
VERTEX
8
1
10
22.708708
20
40.364704
42
0.129791
0
VERTEX
8
1
10
22.469067
20
40.460983
42
0.225046
0
VERTEX
8
1
10
22.200531
20
40.350044
42
0.115170
0
VERTEX
8
1
10
22.022587
20
40.073318
42
-0.054420
0
VERTEX
8
1
10
21.911564
20
39.859383
42
0.039590
0
VERTEX
8
1
10
21.847721
20
39.691940
42
-0.056261
0
VERTEX
8
1
10
21.721188
20
39.453552
42
-0.010017
0
VERTEX
8
1
10
21.640347
20
39.282608
42
-0.085874
0
VERTEX
8
1
10
21.591030
20
39.234108
42
0.120034
0
VERTEX
8
1
10
21.550465
20
39.137108
42
-0.014427
0
VERTEX
8
1
10
21.497601
20
38.958885
42
-0.133547
0
VERTEX
8
1
10
21.446568
20
38.903755
42
0.142286
0
VERTEX
8
1
10
21.404377
20
38.810863
42
-0.077614
0
VERTEX
8
1
10
21.344509
20
38.689270
42
-0.065776
0
VERTEX
8
1
10
21.090008
20
38.328377
42
-0.050232
0
VERTEX
8
1
10
20.579872
20
37.799500
42
-0.104022
0
VERTEX
8
1
10
20.346920
20
37.688225
42
-0.046833
0
VERTEX
8
1
10
20.204048
20
37.708488
42
0.193424
0
VERTEX
8
1
10
20.131737
20
37.684448
0
VERTEX
8
1
10
20.086220
20
37.690384
42
-0.103901
0
VERTEX
8
1
10
20.032234
20
37.755760
42
-0.013471
0
VERTEX
8
1
10
19.967094
20
37.822586
42
-0.130123
0
VERTEX
8
1
10
19.958317
20
37.914162
42
-0.114529
0
VERTEX
8
1
10
20.225458
20
37.968414
42
0.065657
0
VERTEX
8
1
10
20.438326
20
38.009171
42
0.066458
0
VERTEX
8
1
10
20.470364
20
38.032249
0
VERTEX
8
1
10
20.464191
20
38.045944
42
0.179287
0
VERTEX
8
1
10
20.400629
20
38.065823
42
0.076780
0
VERTEX
8
1
10
20.254124
20
38.054375
42
-0.044533
0
VERTEX
8
1
10
20.089489
20
38.056488
42
-0.000598
0
VERTEX
8
1
10
19.974529
20
38.052406
0
VERTEX
8
1
10
19.972691
20
38.058723
42
-0.274389
0
VERTEX
8
1
10
20.222015
20
38.372818
42
0.157880
0
VERTEX
8
1
10
20.332920
20
38.413261
42
-0.193245
0
VERTEX
8
1
10
20.380848
20
38.418991
42
0.110821
0
VERTEX
8
1
10
20.465956
20
38.649422
42
0.268917
0
VERTEX
8
1
10
20.403084
20
38.749916
0
VERTEX
8
1
10
20.378475
20
38.763260
42
0.190253
0
VERTEX
8
1
10
20.041481
20
38.761314
42
0.156258
0
VERTEX
8
1
10
19.799900
20
38.517448
42
0.030606
0
VERTEX
8
1
10
19.683716
20
38.345833
42
0.124795
0
VERTEX
8
1
10
19.629053
20
38.055851
0
VERTEX
8
1
10
19.628727
20
38.040764
42
0.070816
0
VERTEX
8
1
10
19.247456
20
37.932198
42
-0.025375
0
VERTEX
8
1
10
18.967239
20
37.843025
42
0.027295
0
VERTEX
8
1
10
18.961880
20
37.866913
42
0.121211
0
VERTEX
8
1
10
19.088573
20
37.997070
42
0.219712
0
VERTEX
8
1
10
18.879290
20
38.064842
42
0.059373
0
VERTEX
8
1
10
18.680099
20
38.035805
42
-0.000378
0
VERTEX
8
1
10
18.619659
20
38.038048
42
0.119926
0
VERTEX
8
1
10
18.917534
20
38.182724
42
0.090394
0
VERTEX
8
1
10
19.447800
20
38.787113
42
-0.008885
0
VERTEX
8
1
10
19.644344
20
39.076248
42
0.025702
0
VERTEX
8
1
10
19.741577
20
39.267929
42
0.011665
0
VERTEX
8
1
10
19.854111
20
39.464767
42
0.061473
0
VERTEX
8
1
10
19.899673
20
39.634819
42
-0.043212
0
VERTEX
8
1
10
19.965008
20
39.807755
42
0.037557
0
VERTEX
8
1
10
20.023609
20
40.074520
42
-0.099818
0
VERTEX
8
1
10
20.041679
20
40.122040
42
0.248770
0
VERTEX
8
1
10
20.086647
20
40.185181
42
0.042413
0
VERTEX
8
1
10
20.106556
20
40.323250
42
0.014748
0
VERTEX
8
1
10
20.196327
20
40.876247
42
0.085757
0
VERTEX
8
1
10
20.169933
20
41.162971
42
0.084819
0
VERTEX
8
1
10
19.977966
20
41.663216
42
0.176046
0
VERTEX
8
1
10
19.417007
20
42.079849
42
0.040147
0
VERTEX
8
1
10
19.301456
20
42.098701
42
0.227815
0
VERTEX
8
1
10
19.334942
20
42.146553
0
VERTEX
8
1
10
19.332199
20
42.147087
0
VERTEX
8
1
10
19.013542
20
42.045845
42
0.010879
0
VERTEX
8
1
10
19.168324
20
42.041386
42
-0.033546
0
VERTEX
8
1
10
19.189095
20
42.035614
0
VERTEX
8
1
10
19.241520
20
42.006508
42
-0.176796
0
VERTEX
8
1
10
19.478573
20
41.775879
42
-0.030487
0
VERTEX
8
1
10
19.497238
20
41.691772
0
VERTEX
8
1
10
19.502911
20
41.699471
42
-0.374710
0
VERTEX
8
1
10
19.515675
20
41.647079
0
VERTEX
8
1
10
19.513832
20
41.648056
42
-0.165213
0
VERTEX
8
1
10
19.497055
20
41.691505
0
VERTEX
8
1
10
19.468739
20
41.653084
42
0.323370
0
VERTEX
8
1
10
19.357265
20
41.716946
42
-0.209599
0
VERTEX
8
1
10
19.292671
20
41.757858
42
0.119853
0
VERTEX
8
1
10
19.222080
20
41.778244
42
-0.022836
0
VERTEX
8
1
10
19.150902
20
41.813957
42
-0.010540
0
VERTEX
8
1
10
18.764389
20
41.881767
42
0.129841
0
VERTEX
8
1
10
18.614109
20
41.852131
42
-0.125491
0
VERTEX
8
1
10
18.551094
20
41.846436
0
VERTEX
8
1
10
18.544514
20
41.853409
0
VERTEX
8
1
10
18.543625
20
41.863731
42
-0.191519
0
VERTEX
8
1
10
18.672256
20
41.989792
42
-0.093269
0
VERTEX
8
1
10
18.892860
20
42.051804
42
-0.185704
0
VERTEX
8
1
10
19.008381
20
42.046875
0
VERTEX
8
1
10
19.005558
20
42.052307
42
0.140158
0
VERTEX
8
1
10
18.733486
20
42.163223
0
VERTEX
8
1
10
18.657497
20
42.168823
42
0.144004
0
VERTEX
8
1
10
18.069466
20
41.990837
42
-0.175902
0
VERTEX
8
1
10
17.950741
20
41.925926
42
0.168465
0
VERTEX
8
1
10
17.882687
20
41.880623
42
0.038533
0
VERTEX
8
1
10
17.801346
20
41.779121
42
-0.037868
0
VERTEX
8
1
10
17.692753
20
41.667404
42
0.118701
0
VERTEX
8
1
10
17.389223
20
41.157135
42
0.007094
0
VERTEX
8
1
10
17.251949
20
40.709915
42
0.096611
0
VERTEX
8
1
10
17.169380
20
40.426842
42
0.000603
0
VERTEX
8
1
10
17.117733
20
40.127602
42
0.029090
0
VERTEX
8
1
10
17.122910
20
39.928932
42
-0.042788
0
VERTEX
8
1
10
17.085136
20
39.691803
42
0.072074
0
VERTEX
8
1
10
17.079842
20
39.529785
42
0.072407
0
VERTEX
8
1
10
17.218662
20
38.817978
0
VERTEX
8
1
10
17.217979
20
38.808357
42
0.039530
0
VERTEX
8
1
10
16.838440
20
38.842388
42
0.159228
0
VERTEX
8
1
10
16.394604
20
38.674618
42
-0.087286
0
VERTEX
8
1
10
16.209599
20
38.595268
42
-0.098390
0
VERTEX
8
1
10
16.086426
20
38.616547
42
0.064056
0
VERTEX
8
1
10
15.853695
20
38.632874
42
0.086047
0
VERTEX
8
1
10
16.129303
20
38.746513
42
0.074811
0
VERTEX
8
1
10
16.469296
20
39.005363
0
VERTEX
8
1
10
16.525185
20
39.052513
42
0.157667
0
VERTEX
8
1
10
16.617470
20
39.166985
42
-0.017008
0
VERTEX
8
1
10
16.635227
20
39.288124
42
-0.007592
0
VERTEX
8
1
10
16.695887
20
39.404011
42
0.254697
0
VERTEX
8
1
10
16.680744
20
39.465157
42
-0.201590
0
VERTEX
8
1
10
16.685785
20
39.561371
42
0.145689
0
VERTEX
8
1
10
16.681143
20
39.715721
42
0.213368
0
VERTEX
8
1
10
16.524055
20
39.940235
42
0.302876
0
VERTEX
8
1
10
16.278059
20
39.900063
42
0.195413
0
VERTEX
8
1
10
16.230110
20
39.726608
0
VERTEX
8
1
10
16.232716
20
39.692780
0
VERTEX
8
1
10
16.237396
20
39.658615
0
VERTEX
8
1
10
16.230156
20
39.640747
42
0.195855
0
VERTEX
8
1
10
16.164059
20
39.514687
42
-0.235884
0
VERTEX
8
1
10
15.858070
20
39.213692
42
-0.029348
0
VERTEX
8
1
10
15.705212
20
39.214417
42
-0.143128
0
VERTEX
8
1
10
15.552932
20
39.207085
42
-0.000274
0
VERTEX
8
1
10
15.361568
20
39.252266
42
-0.155044
0
VERTEX
8
1
10
14.967169
20
39.533676
42
-0.044968
0
VERTEX
8
1
10
14.690662
20
39.937454
42
-0.060148
0
VERTEX
8
1
10
14.555691
20
40.324608
42
-0.026610
0
VERTEX
8
1
10
14.505502
20
40.543976
42
-0.075214
0
VERTEX
8
1
10
14.528876
20
40.662064
42
0.251627
0
VERTEX
8
1
10
14.503582
20
40.724228
0
VERTEX
8
1
10
14.502121
20
40.754417
42
-0.101261
0
VERTEX
8
1
10
14.651375
20
41.321144
42
-0.060644
0
VERTEX
8
1
10
14.769891
20
41.584896
42
-0.251747
0
VERTEX
8
1
10
14.940678
20
41.658363
0
VERTEX
8
1
10
14.955391
20
41.690712
0
VERTEX
8
1
10
14.955936
20
41.692711
0
VERTEX
8
1
10
14.938236
20
41.834473
42
-0.162184
0
VERTEX
8
1
10
15.198685
20
42.031055
42
-0.062695
0
VERTEX
8
1
10
15.530102
20
42.121574
42
-0.070567
0
VERTEX
8
1
10
15.654217
20
42.105209
42
0.127672
0
VERTEX
8
1
10
15.758205
20
42.120644
42
-0.106784
0
VERTEX
8
1
10
15.851158
20
42.124107
42
-0.139013
0
VERTEX
8
1
10
16.206635
20
42.005257
42
-0.238696
0
VERTEX
8
1
10
16.455145
20
41.373131
42
-0.198287
0
VERTEX
8
1
10
16.400795
20
41.302368
42
0.213898
0
VERTEX
8
1
10
16.370470
20
41.210358
42
-0.208971
0
VERTEX
8
1
10
16.316368
20
41.069328
42
-0.039900
0
VERTEX
8
1
10
16.152082
20
40.918159
42
0.119578
0
VERTEX
8
1
10
16.053547
20
40.775688
42
0.254455
0
VERTEX
8
1
10
16.126139
20
40.587372
42
0.364079
0
VERTEX
8
1
10
16.188498
20
40.593513
42
-0.185061
0
VERTEX
8
1
10
16.247395
20
40.599258
42
0.184896
0
VERTEX
8
1
10
16.500376
20
40.646378
42
0.131578
0
VERTEX
8
1
10
16.854837
20
40.981308
42
0.053460
0
VERTEX
8
1
10
16.965305
20
41.192604
42
0.198646
0
VERTEX
8
1
10
16.953255
20
41.291023
0
VERTEX
8
1
10
16.951645
20
41.298622
42
-0.056031
0
VERTEX
8
1
10
16.966183
20
41.435402
42
0.105519
0
VERTEX
8
1
10
16.929085
20
41.638199
42
0.061213
0
VERTEX
8
1
10
16.759462
20
42.162624
42
0.170246
0
VERTEX
8
1
10
16.470795
20
42.428719
42
0.160734
0
VERTEX
8
1
10
16.331627
20
42.491310
42
-0.034762
0
VERTEX
8
1
10
16.123562
20
42.528381
42
-0.037904
0
VERTEX
8
1
10
16.036407
20
42.584541
42
0.060585
0
VERTEX
8
1
10
15.859768
20
42.589470
42
-0.048512
0
VERTEX
8
1
10
15.722630
20
42.605400
42
0.140213
0
VERTEX
8
1
10
15.212985
20
42.489082
42
0.164272
0
VERTEX
8
1
10
14.220055
20
41.510292
42
0.019066
0
VERTEX
8
1
10
14.137829
20
41.268120
42
0.092126
0
VERTEX
8
1
10
14.032652
20
40.979973
42
0.230541
0
VERTEX
8
1
10
14.054134
20
40.880775
0
VERTEX
8
1
10
14.056983
20
40.873413
42
-0.120014
0
VERTEX
8
1
10
14.035985
20
40.697083
42
0.133230
0
VERTEX
8
1
10
14.011288
20
40.090439
42
0.193748
0
VERTEX
8
1
10
14.050415
20
39.946922
42
-0.077687
0
VERTEX
8
1
10
14.090473
20
39.779938
42
0.117812
0
VERTEX
8
1
10
14.302007
20
39.288952
42
0.031508
0
VERTEX
8
1
10
14.607250
20
38.902245
0
VERTEX
8
1
10
14.605171
20
38.900803
0
VERTEX
8
1
10
14.578308
20
38.899330
42
0.132618
0
VERTEX
8
1
10
14.335817
20
38.769043
42
-0.016134
0
VERTEX
8
1
10
14.286713
20
38.735718
42
0.049713
0
VERTEX
8
1
10
14.090755
20
38.671608
42
0.137607
0
VERTEX
8
1
10
13.826481
20
38.621239
42
-0.039181
0
VERTEX
8
1
10
13.611706
20
38.545769
0
VERTEX
8
1
10
13.609978
20
38.548859
42
0.140822
0
VERTEX
8
1
10
13.692691
20
38.951004
42
0.008022
0
VERTEX
8
1
10
13.708075
20
39.207886
42
0.105449
0
VERTEX
8
1
10
13.713303
20
39.398422
42
-0.047488
0
VERTEX
8
1
10
13.728461
20
39.546646
42
0.111667
0
VERTEX
8
1
10
13.709571
20
39.679504
42
-0.198158
0
VERTEX
8
1
10
13.734289
20
39.782883
42
0.404201
0
VERTEX
8
1
10
13.696744
20
39.893181
42
-0.236322
0
VERTEX
8
1
10
13.670959
20
39.984825
42
0.373999
0
VERTEX
8
1
10
13.597301
20
40.075584
42
0.390824
0
VERTEX
8
1
10
13.405598
20
39.991547
42
-0.044040
0
VERTEX
8
1
10
13.319950
20
39.768219
42
0.081964
0
VERTEX
8
1
10
13.277596
20
39.598236
42
-0.058209
0
VERTEX
8
1
10
13.175068
20
39.175369
0
VERTEX
8
1
10
13.145023
20
39.109009
0
VERTEX
8
1
10
13.109871
20
39.047028
42
-0.180394
0
VERTEX
8
1
10
12.860775
20
38.847404
42
-0.060623
0
VERTEX
8
1
10
12.342059
20
38.735374
0
VERTEX
8
1
10
12.332645
20
38.732269
42
0.136070
0
VERTEX
8
1
10
12.367466
20
38.790848
0
VERTEX
8
1
10
12.365055
20
38.795486
42
0.239459
0
VERTEX
8
1
10
12.297766
20
38.777565
42
0.037369
0
VERTEX
8
1
10
12.187854
20
38.693977
42
-0.297688
0
VERTEX
8
1
10
12.137303
20
38.688938
42
-0.013523
0
VERTEX
8
1
10
12.059071
20
38.712677
42
-0.142065
0
VERTEX
8
1
10
11.954982
20
38.946480
42
0.015732
0
VERTEX
8
1
10
11.901641
20
39.335796
42
-0.123087
0
VERTEX
8
1
10
11.919601
20
39.448631
42
0.074639
0
VERTEX
8
1
10
11.901097
20
39.673088
42
-0.000590
0
VERTEX
8
1
10
11.847454
20
39.976429
42
-0.188752
0
VERTEX
8
1
10
11.875531
20
40.062042
42
0.188598
0
VERTEX
8
1
10
11.878315
20
40.151924
42
-0.139546
0
VERTEX
8
1
10
11.871872
20
40.376617
42
0.095398
0
VERTEX
8
1
10
11.856814
20
40.563545
42
-0.092211
0
VERTEX
8
1
10
11.868565
20
40.697769
42
0.053825
0
VERTEX
8
1
10
11.852948
20
40.898952
42
-0.116669
0
VERTEX
8
1
10
11.871202
20
41.009003
42
0.115291
0
VERTEX
8
1
10
11.867241
20
41.097195
42
-0.087888
0
VERTEX
8
1
10
11.870479
20
41.231903
42
0.095866
0
VERTEX
8
1
10
11.815930
20
41.942604
0
VERTEX
8
1
10
11.804755
20
41.970726
42
0.151947
0
VERTEX
8
1
10
11.693428
20
42.113182
42
0.117338
0
VERTEX
8
1
10
11.594433
20
42.144127
42
0.096974
0
VERTEX
8
1
10
11.432755
20
42.147133
42
0.061931
0
VERTEX
8
1
10
11.371037
20
42.106155
42
-0.074249
0
VERTEX
8
1
10
11.168969
20
42.065975
42
0.083282
0
VERTEX
8
1
10
10.938801
20
41.994255
42
0.112776
0
VERTEX
8
1
10
10.776388
20
41.822395
42
0.354755
0
VERTEX
8
1
10
10.808015
20
41.740955
42
0.207224
0
VERTEX
8
1
10
10.979885
20
41.694462
42
0.034733
0
VERTEX
8
1
10
11.042522
20
41.700638
0
VERTEX
8
1
10
11.036388
20
41.742722
0
VERTEX
8
1
10
11.029736
20
41.766670
42
0.279177
0
VERTEX
8
1
10
11.096989
20
41.755592
42
-0.095132
0
VERTEX
8
1
10
11.313213
20
41.704620
0
VERTEX
8
1
10
11.322212
20
41.696785
42
-0.179053
0
VERTEX
8
1
10
11.365861
20
41.515907
42
0.251115
0
VERTEX
8
1
10
11.414858
20
41.444885
42
-0.478183
0
VERTEX
8
1
10
11.416382
20
41.362328
42
0.258399
0
VERTEX
8
1
10
11.400669
20
41.277138
42
-0.055305
0
VERTEX
8
1
10
11.426041
20
41.140358
42
0.023401
0
VERTEX
8
1
10
11.405743
20
41.041588
42
-0.048271
0
VERTEX
8
1
10
11.415298
20
40.923172
42
-0.063629
0
VERTEX
8
1
10
11.385662
20
40.863800
42
0.172044
0
VERTEX
8
1
10
11.393692
20
40.767670
42
-0.190513
0
VERTEX
8
1
10
11.386471
20
40.636497
42
0.093331
0
VERTEX
8
1
10
11.394114
20
40.516132
42
-0.200140
0
VERTEX
8
1
10
11.368663
20
40.440704
42
0.239199
0
VERTEX
8
1
10
11.374396
20
40.323105
42
-0.108300
0
VERTEX
8
1
10
11.385376
20
40.221886
42
-0.013021
0
VERTEX
8
1
10
11.355518
20
40.162842
42
0.130417
0
VERTEX
8
1
10
11.366216
20
40.055145
42
-0.125411
0
VERTEX
8
1
10
11.366739
20
39.876190
42
0.001937
0
VERTEX
8
1
10
11.349754
20
39.602486
42
0.083829
0
VERTEX
8
1
10
11.368159
20
39.499126
42
-0.120861
0
VERTEX
8
1
10
11.360326
20
39.383392
42
0.141631
0
VERTEX
8
1
10
11.369009
20
39.182079
42
-0.139743
0
VERTEX
8
1
10
11.352749
20
39.068153
42
0.054278
0
VERTEX
8
1
10
11.361671
20
38.949173
42
-0.191987
0
VERTEX
8
1
10
11.336021
20
38.879242
42
0.173344
0
VERTEX
8
1
10
11.332819
20
38.774689
42
-0.158659
0
VERTEX
8
1
10
11.321659
20
38.669487
42
0.085391
0
VERTEX
8
1
10
11.316372
20
38.596291
42
-0.062670
0
VERTEX
8
1
10
11.267948
20
38.795803
42
0.083715
0
VERTEX
8
1
10
11.192426
20
39.000721
42
0.165995
0
VERTEX
8
1
10
11.122898
20
39.045609
42
-0.031905
0
VERTEX
8
1
10
11.070515
20
38.879356
42
0.042162
0
VERTEX
8
1
10
11.062539
20
38.728458
42
-0.176734
0
VERTEX
8
1
10
11.020858
20
38.653130
42
0.191463
0
VERTEX
8
1
10
10.990479
20
38.555267
42
-0.227153
0
VERTEX
8
1
10
10.886215
20
38.307968
42
0.062521
0
VERTEX
8
1
10
10.694468
20
38.072163
42
-0.012213
0
VERTEX
8
1
10
10.613014
20
37.964043
0
VERTEX
8
1
10
10.610088
20
37.974442
42
0.058165
0
VERTEX
8
1
10
10.577375
20
38.195938
42
-0.183998
0
VERTEX
8
1
10
10.592778
20
38.259888
42
0.144329
0
VERTEX
8
1
10
10.603954
20
38.468086
42
-0.110588
0
VERTEX
8
1
10
10.620392
20
38.582527
42
0.066494
0
VERTEX
8
1
10
10.670090
20
38.668083
0
VERTEX
8
1
10
10.671940
20
38.681190
0
VERTEX
8
1
10
10.671864
20
38.695709
42
0.118650
0
VERTEX
8
1
10
10.248188
20
37.956108
42
-0.025709
0
VERTEX
8
1
10
10.136196
20
37.543304
42
-0.077337
0
VERTEX
8
1
10
10.023262
20
37.351662
0
VERTEX
8
1
10
9.993004
20
37.329781
42
0.042030
0
VERTEX
8
1
10
9.579823
20
37.741905
0
VERTEX
8
1
10
9.370911
20
37.814079
0
VERTEX
8
1
10
9.369453
20
37.814835
42
-0.073417
0
VERTEX
8
1
10
9.577501
20
37.916824
42
0.084565
0
VERTEX
8
1
10
9.748632
20
38.023666
42
0.002053
0
VERTEX
8
1
10
9.975252
20
38.166031
0
VERTEX
8
1
10
9.989288
20
38.177914
42
0.145813
0
VERTEX
8
1
10
10.038348
20
38.255215
42
-0.109774
0
VERTEX
8
1
10
10.086644
20
38.312531
42
0.154228
0
VERTEX
8
1
10
10.140472
20
38.409515
42
0.028863
0
VERTEX
8
1
10
10.245148
20
38.862137
42
0.013577
0
VERTEX
8
1
10
10.260471
20
39.197334
42
0.094781
0
VERTEX
8
1
10
10.279888
20
39.287193
0
VERTEX
8
1
10
10.242393
20
39.363777
42
-0.290741
0
VERTEX
8
1
10
10.252178
20
39.426094
42
0.188141
0
VERTEX
8
1
10
10.143392
20
39.586967
42
0.384592
0
VERTEX
8
1
10
10.067097
20
39.565186
42
0.082705
0
VERTEX
8
1
10
9.939709
20
39.385689
42
-0.040723
0
VERTEX
8
1
10
9.868208
20
39.100060
0
VERTEX
8
1
10
9.861542
20
39.070301
42
-0.175352
0
VERTEX
8
1
10
9.671505
20
38.701012
42
-0.047815
0
VERTEX
8
1
10
9.494526
20
38.548691
42
0.039596
0
VERTEX
8
1
10
9.328239
20
38.446915
0
VERTEX
8
1
10
9.307853
20
38.424797
42
-0.229208
0
VERTEX
8
1
10
9.173210
20
38.362007
0
VERTEX
8
1
10
9.127110
20
38.364182
42
-0.224225
0
VERTEX
8
1
10
8.956112
20
38.442673
42
-0.039630
0
VERTEX
8
1
10
8.705912
20
38.711750
42
-0.164286
0
VERTEX
8
1
10
8.656976
20
38.919384
42
0.134066
0
VERTEX
8
1
10
8.611511
20
39.052376
42
-0.148477
0
VERTEX
8
1
10
8.576035
20
39.201141
42
-0.055055
0
VERTEX
8
1
10
8.559978
20
39.369064
42
-0.115868
0
VERTEX
8
1
10
8.615488
20
39.517464
42
-0.245842
0
VERTEX
8
1
10
8.696609
20
39.590172
42
0.211324
0
VERTEX
8
1
10
8.735485
20
39.629456
42
-0.066749
0
VERTEX
8
1
10
8.845103
20
39.600975
42
-0.188590
0
VERTEX
8
1
10
8.939803
20
39.475449
42
-0.250571
0
VERTEX
8
1
10
8.940884
20
39.241943
0
VERTEX
8
1
10
8.909031
20
39.167114
0
VERTEX
8
1
10
8.909273
20
39.170547
42
0.355221
0
VERTEX
8
1
10
8.911922
20
39.101341
42
0.335534
0
VERTEX
8
1
10
9.115086
20
39.126404
42
0.219265
0
VERTEX
8
1
10
9.331884
20
39.555088
42
0.059118
0
VERTEX
8
1
10
9.321995
20
39.818680
42
0.166806
0
VERTEX
8
1
10
9.292752
20
39.964264
42
0.145809
0
VERTEX
8
1
10
9.065161
20
40.208881
0
VERTEX
8
1
10
9.046988
20
40.215096
42
0.337588
0
VERTEX
8
1
10
8.823462
20
40.115814
42
0.360827
0
VERTEX
8
1
10
8.867764
20
40.009644
0
VERTEX
8
1
10
8.878644
20
40.001961
42
-0.458958
0
VERTEX
8
1
10
8.910450
20
39.885666
42
0.029638
0
VERTEX
8
1
10
8.883919
20
39.829041
42
0.278542
0
VERTEX
8
1
10
8.797077
20
39.814507
42
-0.222140
0
VERTEX
8
1
10
8.680038
20
39.798820
42
-0.218900
0
VERTEX
8
1
10
8.457603
20
39.968361
42
-0.057649
0
VERTEX
8
1
10
8.310622
20
40.332169
42
-0.152215
0
VERTEX
8
1
10
8.341325
20
40.625099
42
-0.096149
0
VERTEX
8
1
10
8.412323
20
40.760666
0
VERTEX
8
1
10
8.422581
20
40.767891
0
VERTEX
8
1
10
8.446030
20
40.737419
0
VERTEX
8
1
10
8.485168
20
40.754196
0
VERTEX
8
1
10
8.477978
20
40.789680
42
-0.141781
0
VERTEX
8
1
10
8.716669
20
40.866543
42
0.079077
0
VERTEX
8
1
10
8.867090
20
40.914909
42
-0.001302
0
VERTEX
8
1
10
9.101826
20
41.020882
42
-0.109304
0
VERTEX
8
1
10
9.219578
20
41.029259
42
0.094250
0
VERTEX
8
1
10
9.348259
20
41.069359
42
-0.046153
0
VERTEX
8
1
10
9.497364
20
41.085693
0
VERTEX
8
1
10
9.540741
20
41.073280
42
-0.321574
0
VERTEX
8
1
10
9.634209
20
40.937508
42
-0.024309
0
VERTEX
8
1
10
9.624447
20
40.726635
42
0.162321
0
VERTEX
8
1
10
9.680814
20
40.566299
42
0.241552
0
VERTEX
8
1
10
9.743069
20
40.552948
0
VERTEX
8
1
10
9.772053
20
40.564583
42
0.143801
0
VERTEX
8
1
10
9.944885
20
40.777245
42
0.093304
0
VERTEX
8
1
10
10.076188
20
41.291672
42
0.100472
0
VERTEX
8
1
10
10.085968
20
41.436577
42
-0.081053
0
VERTEX
8
1
10
9.989042
20
41.565037
42
0.246453
0
VERTEX
8
1
10
9.790085
20
41.666687
42
-0.023752
0
VERTEX
8
1
10
9.573914
20
41.679794
42
0.011260
0
VERTEX
8
1
10
9.334045
20
41.671333
42
0.034657
0
VERTEX
8
1
10
9.238285
20
41.673050
42
0.054309
0
VERTEX
8
1
10
9.116912
20
41.622314
42
-0.210542
0
VERTEX
8
1
10
9.028313
20
41.627274
42
0.198596
0
VERTEX
8
1
10
8.961479
20
41.614853
0
VERTEX
8
1
10
8.930420
20
41.597656
42
-0.279887
0
VERTEX
8
1
10
8.863365
20
41.596458
0
VERTEX
8
1
10
8.850117
20
41.598770
42
-0.169102
0
VERTEX
8
1
10
8.603550
20
41.468170
42
0.014213
0
VERTEX
8
1
10
8.380125
20
41.349976
42
0.097350
0
VERTEX
8
1
10
8.102194
20
41.087269
42
0.216733
0
VERTEX
8
1
10
7.906090
20
40.242424
42
0.020943
0
VERTEX
8
1
10
7.967167
20
39.857529
42
-0.030354
0
VERTEX
8
1
10
7.972438
20
39.573456
42
0.053675
0
VERTEX
8
1
10
7.995044
20
39.367188
42
-0.001586
0
VERTEX
8
1
10
8.117204
20
38.515785
42
0.128348
0
VERTEX
8
1
10
8.175529
20
38.217953
42
-0.101150
0
VERTEX
8
1
10
8.209121
20
38.096508
42
0.125087
0
VERTEX
8
1
10
8.364466
20
37.725422
42
0.223089
0
VERTEX
8
1
10
8.765121
20
37.542206
42
0.127821
0
VERTEX
8
1
10
8.888199
20
37.588684
42
0.023578
0
VERTEX
8
1
10
8.889893
20
37.302963
0
VERTEX
8
1
10
8.889992
20
36.849777
42
-0.178801
0
VERTEX
8
1
10
8.645233
20
37.137474
42
0.055564
0
VERTEX
8
1
10
8.626942
20
37.283051
42
0.044008
0
VERTEX
8
1
10
8.624313
20
37.425034
0
VERTEX
8
1
10
8.616985
20
37.425636
42
0.237286
0
VERTEX
8
1
10
8.562424
20
37.369537
42
0.033944
0
VERTEX
8
1
10
8.423019
20
37.024780
42
-0.004555
0
VERTEX
8
1
10
8.402748
20
36.918884
0
VERTEX
8
1
10
8.399067
20
36.913902
42
-0.102965
0
VERTEX
8
1
10
8.325993
20
36.983330
42
0.101224
0
VERTEX
8
1
10
8.098679
20
37.159424
0
VERTEX
8
1
10
8.081533
20
37.163708
42
0.416716
0
VERTEX
8
1
10
8.032391
20
37.142143
42
0.081564
0
VERTEX
8
1
10
8.127972
20
36.988838
42
-0.028957
0
VERTEX
8
1
10
8.176445
20
36.876862
42
0.051259
0
VERTEX
8
1
10
8.230164
20
36.808311
42
0.005929
0
VERTEX
8
1
10
8.293224
20
36.677071
42
-0.059946
0
VERTEX
8
1
10
8.321896
20
36.550667
42
-0.077495
0
VERTEX
8
1
10
8.333160
20
36.511520
0
VERTEX
8
1
10
8.251111
20
36.468071
42
0.147363
0
VERTEX
8
1
10
7.445370
20
37.329315
0
VERTEX
8
1
10
7.213436
20
37.507996
42
0.044829
0
VERTEX
8
1
10
6.556168
20
37.784355
0
VERTEX
8
1
10
6.544052
20
37.794342
0
VERTEX
8
1
10
6.535580
20
37.825394
0
VERTEX
8
1
10
6.528286
20
37.856743
42
0.065182
0
VERTEX
8
1
10
6.460184
20
38.113132
42
-0.152672
0
VERTEX
8
1
10
6.460893
20
38.188217
42
0.154005
0
VERTEX
8
1
10
6.433983
20
38.278374
42
-0.016959
0
VERTEX
8
1
10
6.349812
20
38.446655
42
-0.136420
0
VERTEX
8
1
10
6.351612
20
38.517883
42
0.149361
0
VERTEX
8
1
10
6.321587
20
38.609329
42
-0.082699
0
VERTEX
8
1
10
6.286181
20
38.731949
42
-0.068481
0
VERTEX
8
1
10
6.238861
20
39.114899
42
-0.052836
0
VERTEX
8
1
10
6.269251
20
39.846153
42
-0.090677
0
VERTEX
8
1
10
6.359505
20
40.064087
42
-0.075427
0
VERTEX
8
1
10
6.487884
20
40.154728
42
0.205185
0
VERTEX
8
1
10
6.521156
20
40.211639
42
-0.404772
0
VERTEX
8
1
10
6.613503
20
40.243454
42
0.076636
0
VERTEX
8
1
10
6.728287
20
40.236908
42
-0.178563
0
VERTEX
8
1
10
6.790452
20
40.195709
42
-0.189048
0
VERTEX
8
1
10
6.955888
20
39.857006
42
-0.131170
0
VERTEX
8
1
10
6.913021
20
39.694435
42
0.153458
0
VERTEX
8
1
10
6.853700
20
39.587105
42
-0.158676
0
VERTEX
8
1
10
6.820332
20
39.551071
42
0.076765
0
VERTEX
8
1
10
6.901227
20
39.352104
42
0.318654
0
VERTEX
8
1
10
7.035066
20
39.317047
42
0.197307
0
VERTEX
8
1
10
7.301407
20
39.550667
42
0.159575
0
VERTEX
8
1
10
7.317630
20
39.878784
42
0.042718
0
VERTEX
8
1
10
7.288898
20
40.077515
42
0.118133
0
VERTEX
8
1
10
7.176067
20
40.262917
42
0.059609
0
VERTEX
8
1
10
6.928896
20
40.480156
42
0.037810
0
VERTEX
8
1
10
6.707085
20
40.623821
42
0.163175
0
VERTEX
8
1
10
6.349091
20
40.660141
42
-0.008255
0
VERTEX
8
1
10
6.069939
20
40.549232
42
0.151824
0
VERTEX
8
1
10
5.741541
20
40.248032
42
0.161776
0
VERTEX
8
1
10
5.575853
20
39.605324
42
0.014086
0
VERTEX
8
1
10
5.639992
20
38.944237
42
-0.034317
0
VERTEX
8
1
10
5.678223
20
38.691750
42
0.069638
0
VERTEX
8
1
10
5.729368
20
38.555626
42
-0.160313
0
VERTEX
8
1
10
5.728231
20
38.484215
42
0.196229
0
VERTEX
8
1
10
5.752756
20
38.411812
42
-0.126631
0
VERTEX
8
1
10
5.781898
20
38.282578
42
-0.100477
0
VERTEX
8
1
10
5.831629
20
37.923904
42
-0.185045
0
VERTEX
8
1
10
5.766144
20
37.820534
42
0.163413
0
VERTEX
8
1
10
5.729496
20
37.756554
42
-0.209123
0
VERTEX
8
1
10
5.535095
20
37.828735
42
-0.044627
0
VERTEX
8
1
10
5.359348
20
37.956940
42
0.018070
0
VERTEX
8
1
10
5.254215
20
38.012558
42
-0.113890
0
VERTEX
8
1
10
5.206989
20
38.064911
0
VERTEX
8
1
10
5.151886
20
38.056847
0
VERTEX
8
1
10
5.148071
20
38.059357
42
-0.016788
0
VERTEX
8
1
10
5.109886
20
38.114822
42
-0.029620
0
VERTEX
8
1
10
4.965644
20
38.105881
42
0.219134
0
VERTEX
8
1
10
4.892948
20
38.052109
42
0.146871
0
VERTEX
8
1
10
4.779121
20
37.769188
42
0.014267
0
VERTEX
8
1
10
4.749550
20
37.310440
42
-0.091680
0
VERTEX
8
1
10
4.691993
20
37.118843
42
-0.110178
0
VERTEX
8
1
10
4.647881
20
37.078163
42
-0.265370
0
VERTEX
8
1
10
4.586296
20
37.117310
42
-0.044445
0
VERTEX
8
1
10
4.342722
20
37.431190
42
-0.009174
0
VERTEX
8
1
10
4.255428
20
37.636810
42
0.016521
0
VERTEX
8
1
10
4.133020
20
37.822609
42
0.002813
0
VERTEX
8
1
10
3.978081
20
38.150352
42
0.011238
0
VERTEX
8
1
10
3.653988
20
38.625965
42
0.059509
0
VERTEX
8
1
10
3.398911
20
38.877159
0
VERTEX
8
1
10
3.297398
20
38.958755
42
0.058533
0
VERTEX
8
1
10
3.034500
20
39.159027
42
0.089409
0
VERTEX
8
1
10
2.724407
20
39.236557
0
VERTEX
8
1
10
2.692520
20
39.241089
0
VERTEX
8
1
10
2.660698
20
39.246048
42
0.164415
0
VERTEX
8
1
10
2.352859
20
39.215790
42
0.007775
0
VERTEX
8
1
10
2.150734
20
39.127274
42
0.062463
0
VERTEX
8
1
10
2.093327
20
39.063217
42
0.045553
0
VERTEX
8
1
10
2.014271
20
39.002403
42
-0.018064
0
VERTEX
8
1
10
1.970444
20
38.914558
42
0.122573
0
VERTEX
8
1
10
1.824928
20
38.714531
42
-0.063940
0
VERTEX
8
1
10
1.697604
20
38.512848
42
0.140367
0
VERTEX
8
1
10
1.664230
20
38.391640
42
0.065776
0
VERTEX
8
1
10
1.678903
20
38.066723
42
0.209404
0
VERTEX
8
1
10
2.025860
20
37.602627
42
0.178312
0
VERTEX
8
1
10
2.267194
20
37.578453
42
0.197962
0
VERTEX
8
1
10
2.414523
20
37.712353
42
0.169110
0
VERTEX
8
1
10
2.468925
20
38.001404
0
VERTEX
8
1
10
2.588810
20
38.242943
0
VERTEX
8
1
10
2.582497
20
38.245216
0
VERTEX
8
1
10
2.547222
20
38.249077
42
-0.195163
0
VERTEX
8
1
10
2.453869
20
38.284058
0
VERTEX
8
1
10
2.447833
20
38.297447
42
-0.393750
0
VERTEX
8
1
10
2.534502
20
38.412506
42
0.170655
0
VERTEX
8
1
10
2.611264
20
38.482620
42
-0.204121
0
VERTEX
8
1
10
2.686577
20
38.518822
42
-0.152647
0
VERTEX
8
1
10
2.912540
20
38.512291
42
-0.117369
0
VERTEX
8
1
10
3.249390
20
38.226364
42
0.055084
0
VERTEX
8
1
10
3.409245
20
38.068970
42
-0.067335
0
VERTEX
8
1
10
3.500113
20
37.955269
42
0.007753
0
VERTEX
8
1
10
3.621082
20
37.782669
42
-0.236783
0
VERTEX
8
1
10
3.665138
20
37.749947
0
VERTEX
8
1
10
3.697136
20
37.670998
0
VERTEX
8
1
10
3.700382
20
37.664276
42
-0.009680
0
VERTEX
8
1
10
3.875401
20
37.460472
42
-0.044296
0
VERTEX
8
1
10
3.921764
20
37.340935
42
0.118034
0
VERTEX
8
1
10
3.995064
20
37.249069
42
-0.108546
0
VERTEX
8
1
10
4.045940
20
37.166588
0
VERTEX
8
1
10
4.064994
20
37.113319
42
0.158048
0
VERTEX
8
1
10
4.153244
20
36.989052
42
-0.088698
0
VERTEX
8
1
10
4.233227
20
36.840179
42
0.029972
0
VERTEX
8
1
10
4.394195
20
36.500317
42
0.072760
0
VERTEX
8
1
10
4.497520
20
36.386292
0
VERTEX
8
1
10
4.590656
20
36.304008
42
0.153659
0
VERTEX
8
1
10
4.782211
20
36.227028
42
0.106512
0
VERTEX
8
1
10
4.988720
20
36.218071
42
-0.029588
0
VERTEX
8
1
10
5.119453
20
36.213806
42
0.154273
0
VERTEX
8
1
10
5.222664
20
36.248520
42
-0.268754
0
VERTEX
8
1
10
5.272903
20
36.245430
42
0.079668
0
VERTEX
8
1
10
5.327499
20
36.341919
0
VERTEX
8
1
10
5.331206
20
36.325729
42
0.069093
0
VERTEX
8
1
10
5.454800
20
35.893639
42
0.083829
0
VERTEX
8
1
10
5.748795
20
35.527878
42
-0.052343
0
VERTEX
8
1
10
5.924747
20
35.373306
42
0.144211
0
VERTEX
8
1
10
6.038598
20
35.330162
42
-0.255706
0
VERTEX
8
1
10
6.089409
20
35.279137
42
-0.025085
0
VERTEX
8
1
10
5.832109
20
35.227509
42
-0.009554
0
VERTEX
8
1
10
5.554101
20
35.216633
42
-0.041318
0
VERTEX
8
1
10
5.502460
20
35.226326
0
VERTEX
8
1
10
5.506042
20
35.220863
42
0.059204
0
VERTEX
8
1
10
5.915264
20
35.003273
42
0.037537
0
VERTEX
8
1
10
6.183167
20
34.946243
42
-0.074570
0
VERTEX
8
1
10
6.369888
20
34.873962
42
0.156448
0
VERTEX
8
1
10
6.557588
20
34.855637
42
-0.237541
0
VERTEX
8
1
10
6.635990
20
34.823608
0
VERTEX
8
1
10
6.640141
20
34.812317
42
-0.046989
0
VERTEX
8
1
10
6.636887
20
34.636192
0
VERTEX
8
1
10
6.638057
20
34.623779
42
0.145972
0
VERTEX
8
1
10
6.839867
20
34.312607
0
VERTEX
8
1
10
6.858013
20
34.288177
42
-0.020377
0
VERTEX
8
1
10
6.556052
20
33.648457
42
0.032257
0
VERTEX
8
1
10
6.348212
20
33.121105
42
-0.077566
0
VERTEX
8
1
10
6.014732
20
32.528221
42
0.076446
0
VERTEX
8
1
10
5.904305
20
32.375343
42
0.102851
0
VERTEX
8
1
10
5.708594
20
31.820982
42
0.084719
0
VERTEX
8
1
10
5.746068
20
31.447056
42
0.045925
0
VERTEX
8
1
10
5.926320
20
30.891340
42
-0.001278
0
VERTEX
8
1
10
5.651937
20
29.298679
42
0.025102
0
VERTEX
8
1
10
5.607594
20
29.066410
42
-0.019510
0
VERTEX
8
1
10
5.456873
20
28.376099
42
0.016282
0
VERTEX
8
1
10
5.158446
20
27.530163
42
0.035925
0
VERTEX
8
1
10
5.117048
20
27.328943
42
0.006053
0
VERTEX
8
1
10
4.847654
20
25.307333
0
VERTEX
8
1
10
4.830628
20
25.214273
42
0.003248
0
VERTEX
8
1
10
4.689699
20
24.713881
42
0.076390
0
VERTEX
8
1
10
4.656802
20
24.321129
42
0.164425
0
VERTEX
8
1
10
4.822227
20
23.982252
42
0.056011
0
VERTEX
8
1
10
5.097996
20
23.735575
42
0.030281
0
VERTEX
8
1
10
5.551586
20
23.432556
42
0.103748
0
VERTEX
8
1
10
6.067307
20
22.977547
0
VERTEX
8
1
10
6.186653
20
22.923058
0
VERTEX
8
1
10
6.314545
20
22.884483
0
VERTEX
8
1
10
6.449898
20
22.866440
0
VERTEX
8
1
10
6.591614
20
22.873550
0
VERTEX
8
1
10
6.709011
20
22.891342
42
0.125865
0
VERTEX
8
1
10
7.308538
20
23.036013
0
VERTEX
8
1
10
7.334206
20
23.051826
0
VERTEX
8
1
10
7.385166
20
23.038078
42
0.246922
0
VERTEX
8
1
10
7.813614
20
23.051270
0
VERTEX
8
1
10
7.897972
20
23.107071
0
VERTEX
8
1
10
7.986359
20
23.184662
0
VERTEX
8
1
10
8.078896
20
23.286469
0
VERTEX
8
1
10
8.175697
20
23.414932
0
VERTEX
8
1
10
8.276890
20
23.572479
0
VERTEX
8
1
10
8.382591
20
23.761528
0
VERTEX
8
1
10
8.383625
20
23.778069
0
VERTEX
8
1
10
8.302498
20
24.467606
42
-0.136951
0
VERTEX
8
1
10
8.316476
20
24.668051
42
-0.066814
0
VERTEX
8
1
10
8.432526
20
24.939659
0
VERTEX
8
1
10
9.551109
20
26.223946
42
0.015717
0
VERTEX
8
1
10
10.450367
20
27.115646
0
VERTEX
8
1
10
10.515862
20
27.189766
42
0.039192
0
VERTEX
8
1
10
10.971394
20
27.851212
42
0.065758
0
VERTEX
8
1
10
11.842381
20
28.428825
0
VERTEX
8
1
10
11.983425
20
28.564659
0
VERTEX
8
1
10
12.113400
20
28.712196
0
VERTEX
8
1
10
12.226837
20
28.870712
0
VERTEX
8
1
10
12.318272
20
29.039474
0
VERTEX
8
1
10
12.380398
20
29.208656
42
0.070292
0
VERTEX
8
1
10
12.593781
20
30.433449
42
-0.041891
0
VERTEX
8
1
10
13.167699
20
30.660784
42
-0.050489
0
VERTEX
8
1
10
13.342800
20
30.687576
0
VERTEX
8
1
10
13.396851
20
30.680733
0
VERTEX
8
1
10
13.470684
20
30.650078
0
VERTEX
8
1
10
13.574380
20
30.593529
42
-0.044635
0
VERTEX
8
1
10
14.764706
20
29.704674
0
VERTEX
8
1
10
14.869312
20
29.600952
0
VERTEX
8
1
10
14.944256
20
29.512642
42
0.059472
0
VERTEX
8
1
10
15.468751
20
28.850328
42
0.022771
0
VERTEX
8
1
10
15.225774
20
27.649263
0
VERTEX
8
1
10
15.200012
20
27.450775
42
0.097722
0
VERTEX
8
1
10
15.278763
20
26.242393
42
0.029607
0
VERTEX
8
1
10
15.543514
20
25.375435
0
VERTEX
8
1
10
15.552418
20
25.344383
42
0.071149
0
VERTEX
8
1
10
15.723362
20
24.216072
42
0.064079
0
VERTEX
8
1
10
15.932042
20
23.775560
42
-0.002054
0
VERTEX
8
1
10
16.666775
20
22.736856
42
0.024811
0
VERTEX
8
1
10
17.016628
20
22.312347
0
VERTEX
8
1
10
17.112251
20
22.225227
0
VERTEX
8
1
10
17.193005
20
22.176003
0
VERTEX
8
1
10
17.256218
20
22.170891
0
VERTEX
8
1
10
17.299221
20
22.216080
0
VERTEX
8
1
10
17.313728
20
22.332695
0
VERTEX
8
1
10
17.294327
20
22.535118
42
0.018485
0
VERTEX
8
1
10
17.081310
20
23.566715
42
-0.008055
0
VERTEX
8
1
10
16.787901
20
24.862385
0
VERTEX
8
1
10
16.745697
20
25.110619
0
VERTEX
8
1
10
16.731796
20
25.284225
0
VERTEX
8
1
10
16.753120
20
25.365356
0
VERTEX
8
1
10
16.815948
20
25.337654
42
-0.033522
0
VERTEX
8
1
10
17.060204
20
25.067390
0
VERTEX
8
1
10
17.141113
20
24.975990
0
VERTEX
8
1
10
17.219536
20
24.897934
0
VERTEX
8
1
10
17.294151
20
24.841553
0
VERTEX
8
1
10
17.363602
20
24.815262
0
VERTEX
8
1
10
17.426567
20
24.827438
0
VERTEX
8
1
10
17.481705
20
24.886459
0
VERTEX
8
1
10
17.527683
20
25.000702
0
VERTEX
8
1
10
17.563160
20
25.178551
0
VERTEX
8
1
10
17.586798
20
25.428398
42
0.011185
0
VERTEX
8
1
10
17.605350
20
26.932262
42
-0.017550
0
VERTEX
8
1
10
17.638275
20
27.610931
0
VERTEX
8
1
10
17.664307
20
27.792244
0
VERTEX
8
1
10
17.701599
20
27.948364
0
VERTEX
8
1
10
17.752232
20
28.077942
0
VERTEX
8
1
10
17.818256
20
28.179665
0
VERTEX
8
1
10
17.901749
20
28.252174
0
VERTEX
8
1
10
18.002445
20
28.303711
42
0.043790
0
VERTEX
8
1
10
18.881453
20
28.809135
42
0.068935
0
VERTEX
8
1
10
19.375275
20
29.292488
0
VERTEX
8
1
10
19.470222
20
29.434662
42
-0.110842
0
VERTEX
8
1
10
20.366585
20
30.375692
42
-0.041088
0
VERTEX
8
1
10
21.073036
20
30.783417
42
-0.030495
0
VERTEX
8
1
10
21.985373
20
31.161043
42
0.008599
0
VERTEX
8
1
10
22.486116
20
31.358742
0
VERTEX
8
1
10
22.688984
20
31.454933
0
VERTEX
8
1
10
22.874210
20
31.560959
0
VERTEX
8
1
10
23.037273
20
31.679794
0
VERTEX
8
1
10
23.173649
20
31.814468
0
VERTEX
8
1
10
23.278812
20
31.967964
0
VERTEX
8
1
10
23.348232
20
32.143295
0
VERTEX
8
1
10
23.377377
20
32.343475
0
VERTEX
8
1
10
23.373898
20
32.577988
0
VERTEX
8
1
10
23.394497
20
32.802979
0
VERTEX
8
1
10
23.444935
20
33.001999
0
VERTEX
8
1
10
23.522816
20
33.175789
0
VERTEX
8
1
10
23.625767
20
33.325043
0
VERTEX
8
1
10
23.751392
20
33.450485
0
VERTEX
8
1
10
23.897297
20
33.552803
0
VERTEX
8
1
10
24.061100
20
33.632729
0
VERTEX
8
1
10
24.240406
20
33.690956
0
VERTEX
8
1
10
24.432835
20
33.728203
0
VERTEX
8
1
10
24.635998
20
33.745178
0
VERTEX
8
1
10
24.847500
20
33.742592
0
VERTEX
8
1
10
25.064960
20
33.721161
0
VERTEX
8
1
10
25.214909
20
33.708580
0
VERTEX
8
1
10
25.337254
20
33.725410
0
VERTEX
8
1
10
25.444378
20
33.766800
0
VERTEX
8
1
10
25.537304
20
33.829041
0
VERTEX
8
1
10
25.617046
20
33.908463
0
VERTEX
8
1
10
25.684658
20
34.001366
42
0.093036
0
VERTEX
8
1
10
25.876629
20
34.539032
0
VERTEX
8
1
10
25.905315
20
34.709122
42
0.052844
0
VERTEX
8
1
10
26.101604
20
34.702263
42
0.028370
0
VERTEX
8
1
10
26.370527
20
34.688660
42
0.155202
0
VERTEX
8
1
10
26.447544
20
34.722527
42
-0.049264
0
VERTEX
8
1
10
26.549129
20
34.747185
42
0.087552
0
VERTEX
8
1
10
26.697796
20
34.852013
42
0.048582
0
VERTEX
8
1
10
27.015018
20
35.150749
42
-0.014016
0
VERTEX
8
1
10
27.182613
20
35.367165
42
0.126129
0
VERTEX
8
1
10
27.243893
20
35.424141
0
VERTEX
8
1
10
27.257858
20
35.508240
42
-0.285411
0
VERTEX
8
1
10
27.303143
20
35.551743
42
0.177005
0
VERTEX
8
1
10
27.307447
20
35.743927
42
0.219404
0
VERTEX
8
1
10
27.261921
20
35.774994
42
0.085507
0
VERTEX
8
1
10
27.031277
20
35.705475
42
0.008487
0
VERTEX
8
1
10
26.899250
20
35.583534
42
0.059961
0
VERTEX
8
1
10
26.730129
20
35.442070
42
-0.147280
0
VERTEX
8
1
10
26.397976
20
35.296814
42
-0.034923
0
VERTEX
8
1
10
26.199833
20
35.276253
42
0.017079
0
VERTEX
8
1
10
25.985867
20
35.291718
42
-0.148715
0
VERTEX
8
1
10
25.845829
20
35.288948
42
-0.098005
0
VERTEX
8
1
10
25.714573
20
35.394814
42
-0.115662
0
VERTEX
8
1
10
25.668652
20
35.545799
42
-0.051650
0
VERTEX
8
1
10
25.628368
20
35.881851
42
-0.130985
0
VERTEX
8
1
10
25.703747
20
36.059082
42
0.153570
0
VERTEX
8
1
10
25.750189
20
36.212685
42
-0.134787
0
VERTEX
8
1
10
25.808224
20
36.344521
42
-0.062392
0
VERTEX
8
1
10
25.894085
20
36.491310
42
-0.127500
0
VERTEX
8
1
10
26.069632
20
36.594685
42
-0.134862
0
VERTEX
8
1
10
26.133358
20
36.588074
42
0.187687
0
VERTEX
8
1
10
26.178478
20
36.594925
0
VERTEX
8
1
10
26.187160
20
36.595581
0
VERTEX
8
1
10
26.193953
20
36.587708
42
-0.326844
0
VERTEX
8
1
10
26.266819
20
36.376671
0
VERTEX
8
1
10
26.262392
20
36.355164
42
-0.256224
0
VERTEX
8
1
10
26.121847
20
36.159760
42
0.014359
0
VERTEX
8
1
10
26.035263
20
36.107788
42
0.368841
0
VERTEX
8
1
10
26.032330
20
36.045322
42
0.303730
0
VERTEX
8
1
10
26.208050
20
35.968399
42
0.208419
0
VERTEX
8
1
10
26.609760
20
36.171478
42
0.065393
0
VERTEX
8
1
10
26.773785
20
36.412933
42
0.170726
0
VERTEX
8
1
10
26.833881
20
36.550285
42
0.149820
0
VERTEX
8
1
10
26.786327
20
36.884880
42
0.311250
0
VERTEX
8
1
10
26.552513
20
36.952194
42
0.382201
0
VERTEX
8
1
10
26.510723
20
36.839783
0
VERTEX
8
1
10
26.519327
20
36.814560
42
-0.485197
0
VERTEX
8
1
10
26.466696
20
36.700394
42
0.028083
0
VERTEX
8
1
10
26.420546
20
36.673439
42
0.289341
0
VERTEX
8
1
10
26.339886
20
36.713066
42
-0.221095
0
VERTEX
8
1
10
26.235096
20
36.771729
42
-0.218407
0
VERTEX
8
1
10
26.156574
20
37.042831
42
-0.057086
0
VERTEX
8
1
10
26.250717
20
37.423679
42
-0.138549
0
VERTEX
8
1
10
26.420689
20
37.621681
42
-0.102325
0
VERTEX
8
1
10
26.583607
20
37.706894
0
VERTEX
8
1
10
26.591869
20
37.705521
0
VERTEX
8
1
10
26.593052
20
37.668869
0
VERTEX
8
1
10
26.593449
20
37.667877
0
VERTEX
8
1
10
26.634884
20
37.658844
0
VERTEX
8
1
10
26.648739
20
37.690041
0
VERTEX
8
1
10
26.652309
20
37.692139
42
-0.092288
0
VERTEX
8
1
10
26.823513
20
37.653595
42
0.114701
0
VERTEX
8
1
10
27.045246
20
37.566528
42
-0.002993
0
VERTEX
8
1
10
27.295048
20
37.516708
42
-0.099652
0
VERTEX
8
1
10
27.394802
20
37.454529
42
0.083071
0
VERTEX
8
1
10
27.524548
20
37.412598
42
-0.038237
0
VERTEX
8
1
10
27.648487
20
37.343216
42
-0.395936
0
VERTEX
8
1
10
27.669804
20
37.129608
0
VERTEX
8
1
10
27.656656
20
37.109684
42
0.037037
0
VERTEX
8
1
10
27.535395
20
36.957741
42
0.140605
0
VERTEX
8
1
10
27.499031
20
36.811356
42
0.280256
0
VERTEX
8
1
10
27.549557
20
36.761673
0
VERTEX
8
1
10
27.581425
20
36.756111
42
0.136931
0
VERTEX
8
1
10
27.846409
20
36.835350
42
0.090924
0
VERTEX
8
1
10
28.240032
20
37.170059
42
0.116580
0
VERTEX
8
1
10
28.334591
20
37.287537
42
0.014649
0
SEQEND
0
POLYLINE
8
1
66
1
70
1
0
VERTEX
8
1
10
15.536861
20
42.235497
0
VERTEX
8
1
10
15.496310
20
42.243454
42
-0.411131
0
VERTEX
8
1
10
15.467840
20
42.295193
42
-0.345217
0
VERTEX
8
1
10
15.623276
20
42.462814
42
0.044580
0
VERTEX
8
1
10
15.810505
20
42.516281
42
-0.117305
0
VERTEX
8
1
10
16.021561
20
42.508369
42
-0.047765
0
VERTEX
8
1
10
16.206692
20
42.472298
42
-0.112195
0
VERTEX
8
1
10
16.330647
20
42.375618
42
-0.271666
0
VERTEX
8
1
10
16.472504
20
42.043137
0
VERTEX
8
1
10
16.465420
20
42.043861
42
0.072632
0
VERTEX
8
1
10
16.337761
20
42.141937
42
-0.058794
0
VERTEX
8
1
10
16.245377
20
42.180305
42
0.313262
0
VERTEX
8
1
10
16.170311
20
42.216805
42
-0.172470
0
VERTEX
8
1
10
16.086349
20
42.250328
42
0.223977
0
VERTEX
8
1
10
15.970929
20
42.266373
42
-0.101132
0
VERTEX
8
1
10
15.847708
20
42.282600
42
0.178345
0
VERTEX
8
1
10
15.790779
20
42.266747
42
-0.119829
0
VERTEX
8
1
10
15.720108
20
42.279358
42
0.107095
0
VERTEX
8
1
10
15.646305
20
42.273087
42
0.066693
0
VERTEX
8
1
10
15.559936
20
42.272850
42
0.312582
0
SEQEND
0
POLYLINE
8
1
66
1
70
1
0
VERTEX
8
1
10
2.276211
20
38.130737
42
-0.044500
0
VERTEX
8
1
10
2.236118
20
37.934090
42
-0.370492
0
VERTEX
8
1
10
1.998222
20
37.834579
42
-0.208613
0
VERTEX
8
1
10
1.768954
20
38.123375
42
-0.059102
0
VERTEX
8
1
10
1.768219
20
38.162117
42
-0.123376
0
VERTEX
8
1
10
1.759846
20
38.297188
42
-0.161123
0
VERTEX
8
1
10
1.829514
20
38.512619
0
VERTEX
8
1
10
1.844308
20
38.538486
42
-0.094647
0
VERTEX
8
1
10
2.071170
20
38.850628
42
0.006627
0
VERTEX
8
1
10
2.169514
20
38.957916
0
VERTEX
8
1
10
2.207440
20
38.943733
42
-0.097031
0
VERTEX
8
1
10
2.121826
20
38.591827
42
0.299195
0
VERTEX
8
1
10
2.178192
20
38.365067
42
0.144159
0
VERTEX
8
1
10
2.268692
20
38.303665
0
VERTEX
8
1
10
2.285553
20
38.304848
0
VERTEX
8
1
10
2.300488
20
38.313431
0
VERTEX
8
1
10
2.264252
20
38.268593
0
VERTEX
8
1
10
2.272762
20
38.253593
42
-0.116070
0
SEQEND
0
POLYLINE
8
1
66
1
70
1
0
VERTEX
8
1
10
5.054334
20
37.010674
42
-0.014354
0
VERTEX
8
1
10
5.170609
20
36.719582
42
-0.180690
0
VERTEX
8
1
10
5.153599
20
36.459778
42
-0.289496
0
VERTEX
8
1
10
4.935797
20
36.346058
42
-0.227284
0
VERTEX
8
1
10
4.597991
20
36.515526
42
-0.076269
0
VERTEX
8
1
10
4.470261
20
36.723740
0
VERTEX
8
1
10
4.539253
20
36.755173
42
-0.191492
0
VERTEX
8
1
10
4.613590
20
36.739899
0
VERTEX
8
1
10
4.641575
20
36.726273
42
0.298405
0
VERTEX
8
1
10
4.769816
20
36.738827
42
0.163028
0
VERTEX
8
1
10
4.859329
20
36.848656
42
0.090204
0
VERTEX
8
1
10
4.908733
20
36.931976
0
VERTEX
8
1
10
4.901942
20
36.971176
42
0.180245
0
VERTEX
8
1
10
4.924007
20
37.230415
0
VERTEX
8
1
10
4.929123
20
37.238060
0
VERTEX
8
1
10
4.945086
20
37.224083
42
-0.059500
0
SEQEND
0
POLYLINE
8
1
66
1
70
1
0
VERTEX
8
1
10
5.742840
20
37.007515
0
VERTEX
8
1
10
5.738544
20
36.993774
42
0.137953
0
VERTEX
8
1
10
5.689465
20
36.701149
42
-0.047723
0
VERTEX
8
1
10
5.675606
20
36.547501
42
0.010069
0
VERTEX
8
1
10
5.639124
20
36.470123
42
0.258766
0
VERTEX
8
1
10
5.663538
20
36.393021
42
-0.084860
0
VERTEX
8
1
10
5.677649
20
36.242661
42
0.077004
0
VERTEX
8
1
10
5.697163
20
36.156914
0
VERTEX
8
1
10
5.692062
20
36.144798
0
VERTEX
8
1
10
5.671959
20
36.144279
0
VERTEX
8
1
10
5.648254
20
36.148895
42
-0.103943
0
VERTEX
8
1
10
5.440014
20
36.274849
42
-0.028365
0
VERTEX
8
1
10
5.350960
20
36.431931
42
0.122971
0
VERTEX
8
1
10
5.318142
20
36.721237
0
VERTEX
8
1
10
5.291073
20
36.798454
42
-0.053234
0
VERTEX
8
1
10
5.279267
20
36.889732
42
0.002420
0
VERTEX
8
1
10
5.226323
20
37.050766
42
-0.118747
0
VERTEX
8
1
10
5.224586
20
37.356102
0
VERTEX
8
1
10
5.235123
20
37.384857
42
-0.361690
0
VERTEX
8
1
10
5.333992
20
37.446045
0
VERTEX
8
1
10
5.367912
20
37.439758
42
-0.177189
0
VERTEX
8
1
10
5.614868
20
37.230385
42
-0.007034
0
VERTEX
8
1
10
5.741913
20
37.015862
0
SEQEND
0
POLYLINE
8
1
66
1
70
1
0
VERTEX
8
1
10
23.677731
20
39.386574
42
-0.224167
0
VERTEX
8
1
10
23.574955
20
39.430016
0
VERTEX
8
1
10
23.568983
20
39.444237
42
-0.248053
0
VERTEX
8
1
10
23.653606
20
39.635994
0
VERTEX
8
1
10
23.666842
20
39.649105
42
-0.069254
0
VERTEX
8
1
10
23.744442
20
39.740028
0
VERTEX
8
1
10
23.688984
20
39.796669
0
VERTEX
8
1
10
23.689426
20
39.798340
0
VERTEX
8
1
10
23.701199
20
39.813118
42
-0.002098
0
VERTEX
8
1
10
23.832272
20
39.782845
42
-0.039258
0
VERTEX
8
1
10
24.032833
20
39.670036
42
-0.155875
0
VERTEX
8
1
10
24.139202
20
39.497681
42
-0.162825
0
VERTEX
8
1
10
24.149700
20
39.263077
0
VERTEX
8
1
10
24.148769
20
39.249054
42
-0.163675
0
VERTEX
8
1
10
24.118519
20
39.098911
0
VERTEX
8
1
10
24.114803
20
39.086960
42
-0.116410
0
VERTEX
8
1
10
24.122540
20
39.050323
42
-0.586394
0
VERTEX
8
1
10
24.075779
20
39.049728
0
VERTEX
8
1
10
24.066814
20
39.063126
42
0.135812
0
VERTEX
8
1
10
23.946026
20
39.230804
42
0.126988
0
VERTEX
8
1
10
23.760685
20
39.354904
42
0.083600
0
SEQEND
0
POLYLINE
8
1
66
1
70
1
0
VERTEX
8
1
10
22.020855
20
39.606865
42
-0.155063
0
VERTEX
8
1
10
22.045788
20
39.698456
42
0.029992
0
VERTEX
8
1
10
22.082882
20
39.826424
42
-0.020528
0
VERTEX
8
1
10
22.231215
20
40.127510
42
-0.260459
0
VERTEX
8
1
10
22.504604
20
40.262733
0
VERTEX
8
1
10
22.528851
20
40.263443
42
-0.189973
0
VERTEX
8
1
10
22.667652
20
40.231865
42
0.069042
0
VERTEX
8
1
10
22.746662
20
40.164513
0
VERTEX
8
1
10
22.757732
20
40.130081
0
VERTEX
8
1
10
22.774952
20
40.116165
42
0.036431
0
VERTEX
8
1
10
22.715874
20
39.848656
42
-0.021610
0
VERTEX
8
1
10
22.697750
20
39.787498
0
VERTEX
8
1
10
22.688770
20
39.776039
0
VERTEX
8
1
10
22.677334
20
39.788414
0
VERTEX
8
1
10
22.657711
20
39.799217
42
0.084253
0
VERTEX
8
1
10
22.430515
20
39.835686
42
0.114598
0
VERTEX
8
1
10
22.183018
20
39.739727
42
0.098298
0
VERTEX
8
1
10
22.090540
20
39.628914
42
-0.147223
0
VERTEX
8
1
10
22.014774
20
39.571823
0
VERTEX
8
1
10
22.008953
20
39.574478
42
0.168063
0
SEQEND
0
POLYLINE
8
1
66
1
70
1
0
VERTEX
8
1
10
21.071938
20
37.316978
42
0.033658
0
VERTEX
8
1
10
21.191204
20
37.432999
42
-0.022148
0
VERTEX
8
1
10
21.771523
20
37.512691
42
-0.049394
0
VERTEX
8
1
10
21.993801
20
37.499702
0
VERTEX
8
1
10
22.005520
20
37.501411
42
0.095968
0
VERTEX
8
1
10
21.818775
20
37.557861
0
VERTEX
8
1
10
21.762871
20
37.568451
42
-0.011613
0
VERTEX
8
1
10
21.385151
20
37.677994
42
0.014000
0
VERTEX
8
1
10
21.665821
20
38.068993
42
-0.037507
0
VERTEX
8
1
10
21.809673
20
38.287537
42
0.064362
0
VERTEX
8
1
10
21.871326
20
38.436527
42
-0.145808
0
VERTEX
8
1
10
21.922802
20
38.491989
42
0.186353
0
VERTEX
8
1
10
21.952911
20
38.562340
42
-0.121384
0
VERTEX
8
1
10
22.022488
20
38.686256
42
-0.094787
0
VERTEX
8
1
10
22.239017
20
39.006271
42
-0.186411
0
VERTEX
8
1
10
22.370180
20
39.041031
42
0.123293
0
VERTEX
8
1
10
22.420177
20
39.060356
0
VERTEX
8
1
10
22.429783
20
39.063370
42
-0.192541
0
VERTEX
8
1
10
22.513660
20
38.899734
42
-0.019190
0
VERTEX
8
1
10
22.560339
20
38.626816
42
0.050675
0
VERTEX
8
1
10
22.589916
20
38.542046
42
-0.128613
0
VERTEX
8
1
10
22.591633
20
38.452736
0
VERTEX
8
1
10
22.634991
20
38.421753
0
VERTEX
8
1
10
22.638004
20
38.418289
42
-0.016623
0
VERTEX
8
1
10
22.626514
20
38.344856
42
-0.048402
0
VERTEX
8
1
10
22.728445
20
38.256023
42
0.249754
0
VERTEX
8
1
10
22.822239
20
38.240623
42
0.141081
0
VERTEX
8
1
10
23.087154
20
38.367447
42
0.028127
0
VERTEX
8
1
10
23.420912
20
38.698444
42
-0.100561
0
VERTEX
8
1
10
23.623741
20
38.835541
42
-0.121906
0
VERTEX
8
1
10
23.686390
20
38.835838
42
-0.254626
0
VERTEX
8
1
10
23.702892
20
38.792435
42
-0.037886
0
VERTEX
8
1
10
23.662228
20
38.354034
42
-0.021880
0
VERTEX
8
1
10
23.582386
20
38.130692
42
0.026624
0
VERTEX
8
1
10
23.538914
20
37.890877
42
0.003273
0
VERTEX
8
1
10
23.422100
20
37.523849
42
0.006815
0
VERTEX
8
1
10
23.326256
20
36.951149
42
0.064733
0
VERTEX
8
1
10
23.337315
20
36.494911
42
0.004726
0
VERTEX
8
1
10
23.374561
20
36.153526
42
0.140853
0
VERTEX
8
1
10
23.567501
20
35.780205
0
VERTEX
8
1
10
23.531801
20
35.783169
42
0.004358
0
VERTEX
8
1
10
22.109570
20
36.278305
42
-0.078258
0
VERTEX
8
1
10
21.951046
20
36.424538
42
-0.325935
0
VERTEX
8
1
10
22.088284
20
36.456207
42
0.052632
0
VERTEX
8
1
10
22.715366
20
36.331673
42
0.094937
0
VERTEX
8
1
10
22.867924
20
36.356964
42
0.077196
0
VERTEX
8
1
10
23.180271
20
36.502098
0
VERTEX
8
1
10
23.203732
20
36.523895
0
VERTEX
8
1
10
23.218952
20
36.545471
42
0.212923
0
VERTEX
8
1
10
23.030014
20
36.643532
42
0.069570
0
VERTEX
8
1
10
22.783489
20
36.644653
0
VERTEX
8
1
10
22.698009
20
36.636650
0
VERTEX
8
1
10
22.655315
20
36.633820
42
-0.183916
0
VERTEX
8
1
10
22.429028
20
36.693550
42
0.128829
0
VERTEX
8
1
10
22.068310
20
36.832825
42
-0.038984
0
VERTEX
8
1
10
21.737751
20
36.907349
42
-0.011724
0
VERTEX
8
1
10
21.439686
20
36.990921
42
-0.018460
0
VERTEX
8
1
10
21.176868
20
37.113953
42
0.024928
0
VERTEX
8
1
10
20.991852
20
37.174534
42
-0.250377
0
VERTEX
8
1
10
20.952934
20
37.222950
0
VERTEX
8
1
10
20.954742
20
37.229496
0
VERTEX
8
1
10
20.958427
20
37.235207
42
0.036431
0
SEQEND
0
POLYLINE
8
1
66
1
70
1
0
VERTEX
8
1
10
21.881374
20
35.465469
0
VERTEX
8
1
10
21.884594
20
35.387367
42
-0.117822
0
VERTEX
8
1
10
21.853191
20
35.139874
42
-0.112950
0
VERTEX
8
1
10
21.747982
20
35.000732
42
0.169651
0
VERTEX
8
1
10
21.549297
20
34.645462
42
0.050371
0
VERTEX
8
1
10
21.471083
20
34.061409
42
-0.094965
0
VERTEX
8
1
10
21.389431
20
33.738052
0
VERTEX
8
1
10
21.387684
20
33.744148
0
VERTEX
8
1
10
21.391794
20
33.802910
42
0.179115
0
VERTEX
8
1
10
21.352467
20
33.989952
42
-0.076391
0
VERTEX
8
1
10
21.335388
20
34.231644
42
0.134228
0
VERTEX
8
1
10
21.265659
20
34.459885
42
-0.137886
0
VERTEX
8
1
10
21.214516
20
34.652519
42
-0.103416
0
VERTEX
8
1
10
21.247948
20
34.905029
42
0.007034
0
VERTEX
8
1
10
21.318356
20
35.040123
42
0.097590
0
VERTEX
8
1
10
21.340969
20
35.258369
42
0.027862
0
VERTEX
8
1
10
21.323565
20
35.519527
42
0.000094
0
VERTEX
8
1
10
21.229763
20
35.938358
42
0.015410
0
VERTEX
8
1
10
21.213779
20
35.984612
0
VERTEX
8
1
10
21.191444
20
35.983269
42
0.170851
0
VERTEX
8
1
10
21.110073
20
35.854164
42
-0.040240
0
VERTEX
8
1
10
21.030844
20
35.619991
42
-0.145821
0
VERTEX
8
1
10
20.968601
20
35.559425
0
VERTEX
8
1
10
20.948910
20
35.580582
42
-0.075210
0
VERTEX
8
1
10
20.935352
20
35.742447
0
VERTEX
8
1
10
20.938860
20
35.823326
42
0.184571
0
VERTEX
8
1
10
20.870796
20
36.091713
42
0.025529
0
VERTEX
8
1
10
20.580139
20
36.499817
0
VERTEX
8
1
10
20.611008
20
36.495987
42
-0.050631
0
VERTEX
8
1
10
20.819180
20
36.486626
42
-0.187585
0
VERTEX
8
1
10
21.000723
20
36.348995
42
0.169393
0
VERTEX
8
1
10
21.217535
20
36.216640
42
-0.066731
0
VERTEX
8
1
10
21.357189
20
36.147636
42
-0.031458
0
VERTEX
8
1
10
21.462439
20
36.014236
42
0.054529
0
VERTEX
8
1
10
21.481609
20
35.999962
0
VERTEX
8
1
10
21.491497
20
36.005836
42
0.095838
0
VERTEX
8
1
10
21.494894
20
36.197056
42
-0.163554
0
VERTEX
8
1
10
21.537945
20
36.387909
42
0.128067
0
VERTEX
8
1
10
21.555943
20
36.471619
42
0.167339
0
VERTEX
8
1
10
21.660942
20
36.363380
42
-0.176650
0
VERTEX
8
1
10
21.708549
20
36.285973
42
0.142488
0
VERTEX
8
1
10
21.775684
20
36.183990
42
0.090607
0
VERTEX
8
1
10
21.980259
20
36.017357
42
-0.134889
0
VERTEX
8
1
10
22.099880
20
35.945717
0
VERTEX
8
1
10
22.385212
20
35.809982
42
0.020280
0
VERTEX
8
1
10
22.486774
20
35.736977
42
-0.175922
0
VERTEX
8
1
10
22.558620
20
35.472427
42
-0.082049
0
VERTEX
8
1
10
22.452700
20
34.897736
42
-0.050074
0
VERTEX
8
1
10
22.403721
20
34.813705
0
VERTEX
8
1
10
22.374401
20
34.788109
0
VERTEX
8
1
10
22.344524
20
34.781868
42
0.051988
0
VERTEX
8
1
10
22.240561
20
35.167702
42
0.041796
0
VERTEX
8
1
10
22.164549
20
35.304016
42
0.013272
0
VERTEX
8
1
10
22.033749
20
35.557449
42
0.116384
0
VERTEX
8
1
10
21.932262
20
35.647575
0
VERTEX
8
1
10
21.900707
20
35.655472
42
0.089163
0
SEQEND
0
POLYLINE
8
1
66
1
70
1
0
VERTEX
8
1
10
20.312550
20
37.549667
42
0.158944
0
VERTEX
8
1
10
20.720612
20
37.642315
42
0.061559
0
VERTEX
8
1
10
20.942413
20
37.800560
42
0.112660
0
VERTEX
8
1
10
21.019844
20
37.857796
0
VERTEX
8
1
10
21.038723
20
37.853210
0
VERTEX
8
1
10
21.095032
20
37.852615
0
VERTEX
8
1
10
21.096714
20
37.853378
42
0.158789
0
VERTEX
8
1
10
21.099251
20
37.879036
42
-0.109100
0
VERTEX
8
1
10
21.104263
20
37.745682
42
-0.200176
0
VERTEX
8
1
10
21.050091
20
37.600494
42
0.282904
0
VERTEX
8
1
10
20.990517
20
37.539886
42
-0.226647
0
VERTEX
8
1
10
20.725159
20
37.364403
42
-0.185020
0
VERTEX
8
1
10
20.350721
20
37.426159
42
-0.089655
0
VERTEX
8
1
10
20.279762
20
37.494354
42
-0.241970
0
VERTEX
8
1
10
20.282841
20
37.544228
42
-0.207503
0
SEQEND
0
POLYLINE
8
1
66
1
70
1
0
VERTEX
8
1
10
18.684544
20
38.473534
42
-0.100829
0
VERTEX
8
1
10
18.495979
20
38.298935
42
-0.144772
0
VERTEX
8
1
10
18.256828
20
38.257652
42
-0.007951
0
VERTEX
8
1
10
17.992397
20
38.293549
42
-0.142275
0
VERTEX
8
1
10
17.923590
20
38.339066
42
0.054457
0
VERTEX
8
1
10
17.858570
20
38.387558
42
-0.071297
0
VERTEX
8
1
10
17.689083
20
38.592651
42
-0.124461
0
VERTEX
8
1
10
17.610765
20
38.757362
42
0.035678
0
VERTEX
8
1
10
17.596081
20
38.786667
42
0.048960
0
VERTEX
8
1
10
17.687092
20
38.769791
0
VERTEX
8
1
10
17.675713
20
38.785172
0
VERTEX
8
1
10
17.675999
20
38.785965
42
-0.002254
0
VERTEX
8
1
10
17.760422
20
38.711250
42
0.013024
0
VERTEX
8
1
10
17.937893
20
38.606926
42
-0.040464
0
VERTEX
8
1
10
18.129082
20
38.538391
42
0.073581
0
VERTEX
8
1
10
18.327042
20
38.510155
42
-0.205838
0
VERTEX
8
1
10
18.425211
20
38.508556
42
0.284233
0
VERTEX
8
1
10
18.461983
20
38.523903
42
0.099740
0
VERTEX
8
1
10
18.686422
20
38.578724
42
-0.185888
0
VERTEX
8
1
10
18.725161
20
38.581352
42
-0.207226
0
SEQEND
0
POLYLINE
8
1
66
1
70
1
0
VERTEX
8
1
10
18.045361
20
37.721527
0
VERTEX
8
1
10
18.092319
20
37.695152
0
VERTEX
8
1
10
17.975750
20
37.728142
0
VERTEX
8
1
10
17.966217
20
37.731651
42
-0.037692
0
SEQEND
0
POLYLINE
8
1
66
1
70
1
0
VERTEX
8
1
10
17.581337
20
40.247406
42
-0.088994
0
VERTEX
8
1
10
17.603535
20
40.430954
42
-0.030312
0
VERTEX
8
1
10
17.662235
20
40.726303
42
-0.060611
0
VERTEX
8
1
10
17.766994
20
40.918915
0
VERTEX
8
1
10
17.780407
20
40.942322
0
VERTEX
8
1
10
17.808210
20
41.001976
42
-0.088533
0
VERTEX
8
1
10
18.101618
20
41.421833
42
-0.088958
0
VERTEX
8
1
10
18.403961
20
41.622604
42
-0.140085
0
VERTEX
8
1
10
18.833326
20
41.656124
42
-0.007728
0
VERTEX
8
1
10
18.971043
20
41.635178
42
-0.120085
0
VERTEX
8
1
10
19.062660
20
41.578941
42
0.019873
0
VERTEX
8
1
10
19.164005
20
41.534012
42
-0.273361
0
VERTEX
8
1
10
19.213409
20
41.434265
0
VERTEX
8
1
10
19.312088
20
41.518936
0
VERTEX
8
1
10
19.313862
20
41.520775
0
VERTEX
8
1
10
19.329861
20
41.561195
0
VERTEX
8
1
10
19.333805
20
41.562660
42
-0.177634
0
VERTEX
8
1
10
19.389378
20
41.490372
42
0.018565
0
VERTEX
8
1
10
19.566784
20
41.195641
42
-0.051333
0
VERTEX
8
1
10
19.630501
20
41.052719
42
0.038994
0
VERTEX
8
1
10
19.653992
20
40.912239
42
-0.097350
0
VERTEX
8
1
10
19.701752
20
40.769753
42
-0.108905
0
VERTEX
8
1
10
19.708702
20
40.429550
42
-0.018522
0
VERTEX
8
1
10
19.621494
20
40.024406
0
VERTEX
8
1
10
19.610821
20
39.970490
42
-0.190211
0
VERTEX
8
1
10
19.067551
20
39.045750
42
-0.051659
0
VERTEX
8
1
10
18.671074
20
38.780502
42
-0.074392
0
VERTEX
8
1
10
18.419712
20
38.721153
42
0.053828
0
VERTEX
8
1
10
18.317802
20
38.733185
42
-0.024889
0
VERTEX
8
1
10
18.225246
20
38.708595
42
-0.120148
0
VERTEX
8
1
10
18.056377
20
38.748604
42
0.130458
0
VERTEX
8
1
10
17.923218
20
38.823349
42
-0.191281
0
VERTEX
8
1
10
17.783531
20
38.960922
42
0.006297
0
VERTEX
8
1
10
17.687775
20
39.145676
42
-0.060947
0
VERTEX
8
1
10
17.650497
20
39.306976
42
-0.022482
0
VERTEX
8
1
10
17.558609
20
39.771854
42
-0.091169
0
VERTEX
8
1
10
17.584482
20
40.067764
42
0.107502
0
SEQEND
0
POLYLINE
8
1
66
1
70
1
0
VERTEX
8
1
10
16.896160
20
38.251480
0
VERTEX
8
1
10
16.831383
20
38.258537
42
-0.232552
0
VERTEX
8
1
10
16.748707
20
38.293953
0
VERTEX
8
1
10
16.743061
20
38.314270
42
-0.285760
0
VERTEX
8
1
10
16.908276
20
38.535988
0
VERTEX
8
1
10
16.943535
20
38.551491
42
-0.005480
0
VERTEX
8
1
10
17.277718
20
38.661285
42
0.058292
0
VERTEX
8
1
10
17.378826
20
38.482956
42
0.124306
0
VERTEX
8
1
10
17.514942
20
38.305836
42
0.034905
0
VERTEX
8
1
10
17.659945
20
38.146656
0
VERTEX
8
1
10
17.694836
20
38.116821
0
VERTEX
8
1
10
17.701992
20
38.107071
42
-0.009492
0
VERTEX
8
1
10
17.262295
20
38.155083
42
-0.010439
0
VERTEX
8
1
10
16.952221
20
38.242172
42
0.021409
0
SEQEND
0
POLYLINE
8
1
66
1
70
1
0
VERTEX
8
1
10
16.077053
20
36.987358
0
VERTEX
8
1
10
16.186062
20
36.988625
42
-0.093096
0
VERTEX
8
1
10
16.576778
20
36.938885
42
-0.126034
0
VERTEX
8
1
10
16.694790
20
36.845390
42
0.192755
0
VERTEX
8
1
10
16.544071
20
37.202766
0
VERTEX
8
1
10
16.464870
20
37.286018
42
-0.116306
0
VERTEX
8
1
10
16.345795
20
37.464890
0
VERTEX
8
1
10
16.340298
20
37.496117
0
VERTEX
8
1
10
16.344673
20
37.522919
0
VERTEX
8
1
10
16.366898
20
37.528595
42
0.007124
0
VERTEX
8
1
10
16.574650
20
37.557671
42
0.058800
0
VERTEX
8
1
10
16.805927
20
37.668751
42
-0.096100
0
VERTEX
8
1
10
16.972370
20
37.718048
42
-0.141911
0
VERTEX
8
1
10
17.117287
20
37.666130
42
0.073578
0
VERTEX
8
1
10
17.372417
20
37.559940
42
-0.088087
0
VERTEX
8
1
10
17.550453
20
37.460129
0
VERTEX
8
1
10
17.569054
20
37.438797
0
VERTEX
8
1
10
17.561970
20
37.424561
42
-0.076675
0
VERTEX
8
1
10
17.240337
20
37.414917
42
-0.077374
0
VERTEX
8
1
10
16.977013
20
37.457195
42
0.197517
0
VERTEX
8
1
10
16.763180
20
37.424469
0
VERTEX
8
1
10
16.770042
20
37.405121
42
0.058900
0
VERTEX
8
1
10
17.010845
20
37.200462
42
0.160044
0
VERTEX
8
1
10
17.294626
20
37.145866
42
-0.069581
0
VERTEX
8
1
10
17.553066
20
37.116135
42
-0.034732
0
VERTEX
8
1
10
17.908638
20
37.030899
42
-0.163336
0
VERTEX
8
1
10
18.093422
20
36.871407
42
-0.087987
0
VERTEX
8
1
10
18.249641
20
36.522469
42
-0.070315
0
VERTEX
8
1
10
18.293976
20
36.302307
0
VERTEX
8
1
10
18.291821
20
36.280617
0
VERTEX
8
1
10
18.286633
20
36.262367
0
VERTEX
8
1
10
18.275772
20
36.257683
42
0.096178
0
VERTEX
8
1
10
17.982666
20
36.562576
0
VERTEX
8
1
10
17.954052
20
36.585724
42
0.037182
0
VERTEX
8
1
10
17.661119
20
36.840282
42
0.091841
0
VERTEX
8
1
10
17.547581
20
36.883400
0
VERTEX
8
1
10
17.512032
20
36.882378
0
VERTEX
8
1
10
17.493591
20
36.875748
0
VERTEX
8
1
10
17.876411
20
36.291965
42
0.010373
0
VERTEX
8
1
10
18.117195
20
36.005775
42
-0.234741
0
VERTEX
8
1
10
18.193741
20
35.851456
42
-0.095109
0
VERTEX
8
1
10
18.158585
20
35.768440
42
0.205034
0
VERTEX
8
1
10
18.160156
20
35.657349
42
-0.031117
0
VERTEX
8
1
10
18.199940
20
35.513077
42
0.082599
0
VERTEX
8
1
10
18.459080
20
35.045738
42
-0.029365
0
VERTEX
8
1
10
18.575474
20
34.856857
42
0.044146
0
VERTEX
8
1
10
18.711281
20
34.681335
0
VERTEX
8
1
10
18.720093
20
34.668205
0
VERTEX
8
1
10
18.701996
20
34.670296
42
-0.098456
0
VERTEX
8
1
10
18.524317
20
34.779236
42
-0.004554
0
VERTEX
8
1
10
18.218010
20
35.036255
42
-0.058999
0
VERTEX
8
1
10
17.820641
20
35.369774
42
-0.105609
0
VERTEX
8
1
10
17.684547
20
35.627213
42
0.014094
0
VERTEX
8
1
10
17.636398
20
35.885422
42
0.126836
0
VERTEX
8
1
10
17.495842
20
36.105919
0
VERTEX
8
1
10
17.451279
20
36.154678
42
0.020113
0
VERTEX
8
1
10
17.120090
20
36.521629
42
0.054740
0
VERTEX
8
1
10
16.855782
20
36.694324
42
-0.009473
0
VERTEX
8
1
10
16.810780
20
36.723930
42
-0.121005
0
VERTEX
8
1
10
16.868397
20
36.564568
42
0.038229
0
VERTEX
8
1
10
16.903786
20
36.395645
42
-0.152109
0
VERTEX
8
1
10
16.942814
20
36.209236
42
-0.119179
0
VERTEX
8
1
10
16.906025
20
35.981838
42
0.074195
0
VERTEX
8
1
10
16.887878
20
35.837395
42
-0.157348
0
VERTEX
8
1
10
16.742798
20
35.510063
0
VERTEX
8
1
10
16.736191
20
35.516747
0
VERTEX
8
1
10
16.744411
20
35.661972
42
0.088103
0
VERTEX
8
1
10
16.714615
20
36.049835
42
0.063373
0
VERTEX
8
1
10
16.492966
20
36.466972
42
0.101659
0
VERTEX
8
1
10
16.092876
20
36.909828
42
0.074312
0
VERTEX
8
1
10
15.996353
20
36.948441
0
VERTEX
8
1
10
15.987282
20
36.988976
0
VERTEX
8
1
10
16.027813
20
36.987648
0
SEQEND
0
POLYLINE
8
1
66
1
70
1
0
VERTEX
8
1
10
14.742256
20
39.047508
0
VERTEX
8
1
10
14.658463
20
39.124298
42
-0.169502
0
VERTEX
8
1
10
14.481445
20
39.399513
42
-0.128872
0
VERTEX
8
1
10
14.456120
20
39.710651
42
-0.056662
0
VERTEX
8
1
10
14.483799
20
39.782043
42
0.016107
0
VERTEX
8
1
10
14.610271
20
39.786743
0
VERTEX
8
1
10
14.592651
20
39.771469
42
0.045699
0
VERTEX
8
1
10
14.854481
20
39.349682
42
0.084594
0
VERTEX
8
1
10
15.092258
20
39.157143
42
0.056237
0
VERTEX
8
1
10
15.333641
20
39.037624
42
-0.029260
0
VERTEX
8
1
10
15.447394
20
38.983784
42
-0.073643
0
VERTEX
8
1
10
15.463093
20
38.965103
0
VERTEX
8
1
10
15.453163
20
38.955940
0
VERTEX
8
1
10
15.438038
20
38.949471
42
-0.042249
0
VERTEX
8
1
10
15.276596
20
38.938019
42
-0.109163
0
VERTEX
8
1
10
15.111169
20
38.915375
42
-0.068922
0
VERTEX
8
1
10
14.998146
20
38.926140
42
0.056024
0
VERTEX
8
1
10
14.839081
20
38.983864
42
-0.100460
0
SEQEND
0
POLYLINE
8
1
66
1
70
1
0
VERTEX
8
1
10
14.625195
20
38.781212
42
0.050050
0
VERTEX
8
1
10
14.657627
20
38.851349
42
0.055492
0
VERTEX
8
1
10
14.760189
20
38.795456
42
-0.010550
0
VERTEX
8
1
10
14.883144
20
38.702370
42
-0.026167
0
VERTEX
8
1
10
14.685183
20
38.603943
42
0.203434
0
VERTEX
8
1
10
14.586441
20
38.720093
42
0.020897
0
SEQEND
0
POLYLINE
8
1
66
1
70
1
0
VERTEX
8
1
10
14.403885
20
37.706490
42
0.009770
0
VERTEX
8
1
10
14.252377
20
37.775002
42
-0.190262
0
VERTEX
8
1
10
14.885547
20
37.751495
42
0.548043
0
VERTEX
8
1
10
15.012650
20
37.852821
42
-0.005617
0
VERTEX
8
1
10
15.003044
20
38.013229
42
-0.058405
0
VERTEX
8
1
10
15.011974
20
38.046104
42
-0.092393
0
VERTEX
8
1
10
15.423939
20
37.801872
42
-0.021269
0
VERTEX
8
1
10
15.567474
20
37.615288
42
0.078195
0
VERTEX
8
1
10
15.749139
20
37.468132
42
-0.161075
0
VERTEX
8
1
10
15.835523
20
37.354862
42
-0.140112
0
VERTEX
8
1
10
15.829594
20
37.293571
0
VERTEX
8
1
10
15.824291
20
37.288200
0
VERTEX
8
1
10
15.512102
20
37.120651
42
0.102187
0
VERTEX
8
1
10
15.733406
20
36.640251
42
0.063505
0
VERTEX
8
1
10
15.868790
20
36.517891
42
-0.045279
0
VERTEX
8
1
10
16.143108
20
36.264473
0
VERTEX
8
1
10
16.182552
20
36.210136
0
VERTEX
8
1
10
16.209084
20
36.157692
0
VERTEX
8
1
10
16.219376
20
36.108490
0
VERTEX
8
1
10
16.210094
20
36.063858
0
VERTEX
8
1
10
16.177906
20
36.025131
0
VERTEX
8
1
10
16.152031
20
36.033783
42
-0.002742
0
VERTEX
8
1
10
15.932494
20
36.201809
42
-0.034603
0
VERTEX
8
1
10
15.889812
20
36.249092
0
VERTEX
8
1
10
15.885895
20
36.233917
42
0.172071
0
VERTEX
8
1
10
15.958570
20
36.076988
42
-0.111984
0
VERTEX
8
1
10
16.070114
20
35.872032
42
0.108120
0
VERTEX
8
1
10
16.181694
20
35.695343
42
-0.088129
0
VERTEX
8
1
10
16.257195
20
35.561546
42
-0.022588
0
VERTEX
8
1
10
16.513882
20
34.883804
42
-0.165474
0
VERTEX
8
1
10
16.547485
20
34.571732
42
0.037050
0
VERTEX
8
1
10
16.497488
20
34.178116
42
-0.163641
0
VERTEX
8
1
10
16.234318
20
33.585922
0
VERTEX
8
1
10
16.218204
20
33.582909
42
-0.047062
0
VERTEX
8
1
10
16.270855
20
33.803352
0
VERTEX
8
1
10
16.275158
20
33.825760
42
-0.098861
0
VERTEX
8
1
10
16.327486
20
34.028397
42
0.179839
0
VERTEX
8
1
10
16.319118
20
34.210022
42
-0.075424
0
VERTEX
8
1
10
16.270382
20
34.420830
42
0.080492
0
VERTEX
8
1
10
16.211246
20
34.582504
42
0.054557
0
VERTEX
8
1
10
15.998352
20
34.919136
42
-0.032519
0
VERTEX
8
1
10
15.909648
20
35.110657
42
-0.017072
0
VERTEX
8
1
10
15.572216
20
35.780109
42
-0.059438
0
VERTEX
8
1
10
15.524771
20
35.971695
42
0.150493
0
VERTEX
8
1
10
15.457230
20
36.121361
42
-0.180970
0
VERTEX
8
1
10
15.451015
20
36.209087
42
0.132311
0
VERTEX
8
1
10
15.427043
20
36.348961
42
0.001589
0
VERTEX
8
1
10
15.307047
20
36.624504
42
-0.027888
0
VERTEX
8
1
10
15.227901
20
37.002258
42
-0.025285
0
VERTEX
8
1
10
15.225673
20
37.144642
42
0.079119
0
VERTEX
8
1
10
15.208172
20
37.212830
0
VERTEX
8
1
10
15.197387
20
37.205704
42
0.127789
0
VERTEX
8
1
10
15.057634
20
36.919804
42
0.119919
0
VERTEX
8
1
10
15.021817
20
37.111458
42
0.199532
0
VERTEX
8
1
10
14.545712
20
37.631302
42
-0.003452
0
VERTEX
8
1
10
14.446232
20
37.662407
42
-0.068112
0
VERTEX
8
1
10
14.547825
20
37.630646
42
0.047487
0
VERTEX
8
1
10
14.651455
20
37.603264
42
-0.036425
0
SEQEND
0
POLYLINE
8
1
66
1
70
1
0
VERTEX
8
1
10
13.022045
20
37.039558
42
0.109307
0
VERTEX
8
1
10
12.876316
20
37.236847
0
VERTEX
8
1
10
12.819698
20
37.291862
42
-0.096976
0
VERTEX
8
1
10
12.683777
20
37.467339
0
VERTEX
8
1
10
12.674164
20
37.497955
0
VERTEX
8
1
10
12.670330
20
37.528915
0
VERTEX
8
1
10
12.682018
20
37.548607
42
-0.021575
0
VERTEX
8
1
10
12.903027
20
37.577080
42
0.077359
0
VERTEX
8
1
10
13.175559
20
37.691727
42
-0.095544
0
VERTEX
8
1
10
13.372832
20
37.747631
42
-0.145706
0
VERTEX
8
1
10
13.526184
20
37.698799
42
0.069300
0
VERTEX
8
1
10
13.819736
20
37.583996
42
-0.080079
0
VERTEX
8
1
10
14.010143
20
37.485886
0
VERTEX
8
1
10
14.030651
20
37.465233
0
VERTEX
8
1
10
14.034424
20
37.447456
0
VERTEX
8
1
10
14.007629
20
37.440689
42
-0.060236
0
VERTEX
8
1
10
13.633030
20
37.437378
42
-0.069064
0
VERTEX
8
1
10
13.380389
20
37.478508
42
0.166352
0
VERTEX
8
1
10
13.156971
20
37.454819
0
VERTEX
8
1
10
13.136879
20
37.435608
42
0.070801
0
VERTEX
8
1
10
13.441696
20
37.200523
42
0.027619
0
VERTEX
8
1
10
13.478981
20
37.185928
0
VERTEX
8
1
10
14.572033
20
36.923317
0
VERTEX
8
1
10
14.585159
20
36.917297
42
-0.103771
0
VERTEX
8
1
10
14.793358
20
36.505035
42
-0.094457
0
VERTEX
8
1
10
14.837523
20
36.265079
42
-0.112959
0
VERTEX
8
1
10
14.822632
20
36.236214
42
0.094270
0
VERTEX
8
1
10
14.487904
20
36.559578
0
VERTEX
8
1
10
14.456978
20
36.583389
42
0.038748
0
VERTEX
8
1
10
14.136924
20
36.841694
42
0.072337
0
VERTEX
8
1
10
14.024017
20
36.884872
0
VERTEX
8
1
10
13.985687
20
36.886955
0
VERTEX
8
1
10
13.949927
20
36.879143
42
0.164908
0
VERTEX
8
1
10
14.029121
20
36.651279
42
0.061987
0
VERTEX
8
1
10
14.257019
20
36.390915
42
-0.034412
0
VERTEX
8
1
10
14.562958
20
36.060997
42
-0.029319
0
VERTEX
8
1
10
14.706608
20
35.910400
42
-0.334608
0
VERTEX
8
1
10
14.697824
20
35.750160
42
0.259996
0
VERTEX
8
1
10
14.686935
20
35.633682
42
-0.035231
0
VERTEX
8
1
10
14.730278
20
35.487572
0
VERTEX
8
1
10
14.745991
20
35.442299
42
0.077664
0
VERTEX
8
1
10
15.030361
20
34.979027
42
-0.022489
0
VERTEX
8
1
10
15.162281
20
34.779007
42
0.042366
0
VERTEX
8
1
10
15.312115
20
34.603073
0
VERTEX
8
1
10
15.302784
20
34.599342
0
VERTEX
8
1
10
15.282631
20
34.603287
42
-0.082811
0
VERTEX
8
1
10
15.092576
20
34.715576
42
-0.004198
0
VERTEX
8
1
10
14.761997
20
34.974106
42
-0.053224
0
VERTEX
8
1
10
14.326337
20
35.310825
42
-0.081028
0
VERTEX
8
1
10
14.180599
20
35.533699
0
VERTEX
8
1
10
14.165528
20
35.580063
42
0.000988
0
VERTEX
8
1
10
14.115839
20
35.834862
42
0.140475
0
VERTEX
8
1
10
13.988594
20
36.047699
42
-0.015254
0
VERTEX
8
1
10
13.773037
20
36.276405
42
0.008741
0
VERTEX
8
1
10
13.545166
20
36.505455
42
0.060998
0
VERTEX
8
1
10
13.253688
20
36.685040
42
-0.012363
0
VERTEX
8
1
10
13.189410
20
36.724243
42
-0.152346
0
VERTEX
8
1
10
13.236099
20
36.633976
42
-0.038345
0
VERTEX
8
1
10
13.282985
20
36.424175
42
0.068200
0
VERTEX
8
1
10
13.320720
20
36.332100
0
VERTEX
8
1
10
13.327524
20
36.313168
42
-0.096889
0
VERTEX
8
1
10
13.325668
20
36.024803
42
0.098656
0
VERTEX
8
1
10
13.278332
20
35.834061
42
-0.168323
0
VERTEX
8
1
10
13.164374
20
35.525021
42
-0.033053
0
VERTEX
8
1
10
13.112858
20
35.463242
0
VERTEX
8
1
10
13.110954
20
35.485527
42
0.039772
0
VERTEX
8
1
10
13.116913
20
35.889664
42
0.113801
0
VERTEX
8
1
10
12.988592
20
36.225857
42
0.058893
0
VERTEX
8
1
10
12.583147
20
36.769428
42
0.072308
0
VERTEX
8
1
10
12.349474
20
36.935749
42
0.047331
0
VERTEX
8
1
10
12.289204
20
36.952934
0
VERTEX
8
1
10
12.279568
20
36.992981
0
VERTEX
8
1
10
12.282169
20
36.995651
0
VERTEX
8
1
10
12.330166
20
36.994057
42
-0.039366
0
VERTEX
8
1
10
12.814768
20
36.977169
42
-0.095752
0
VERTEX
8
1
10
13.011692
20
36.899277
0
VERTEX
8
1
10
13.049328
20
36.865349
0
VERTEX
8
1
10
13.063743
20
36.859413
42
0.089582
0
SEQEND
0
POLYLINE
8
1
66
1
70
1
0
VERTEX
8
1
10
11.820595
20
35.137985
42
0.265677
0
VERTEX
8
1
10
12.174183
20
34.996117
42
-0.051349
0
VERTEX
8
1
10
12.372364
20
34.988327
0
VERTEX
8
1
10
12.381383
20
34.971764
42
-0.159990
0
VERTEX
8
1
10
12.283909
20
34.884193
42
-0.107057
0
VERTEX
8
1
10
11.835442
20
34.769363
42
-0.109513
0
VERTEX
8
1
10
11.557262
20
34.837585
42
-0.057071
0
VERTEX
8
1
10
10.944283
20
35.163406
42
-0.020585
0
VERTEX
8
1
10
10.759344
20
35.329636
42
0.085227
0
VERTEX
8
1
10
10.648906
20
35.388268
42
-0.228926
0
VERTEX
8
1
10
10.548860
20
35.503754
42
0.103207
0
VERTEX
8
1
10
10.476578
20
35.617706
42
-0.019527
0
VERTEX
8
1
10
10.242604
20
35.910538
42
-0.054086
0
VERTEX
8
1
10
10.178684
20
36.037041
42
0.195074
0
VERTEX
8
1
10
10.235363
20
36.152046
0
VERTEX
8
1
10
10.238691
20
36.153481
42
-0.000177
0
VERTEX
8
1
10
10.324075
20
36.113777
0
VERTEX
8
1
10
10.334183
20
36.136528
42
-0.687891
0
VERTEX
8
1
10
10.360883
20
36.144920
42
-0.142421
0
VERTEX
8
1
10
10.401016
20
36.072571
42
0.216553
0
VERTEX
8
1
10
10.529714
20
35.968769
42
-0.145853
0
VERTEX
8
1
10
10.677617
20
35.841011
42
0.214853
0
VERTEX
8
1
10
10.807369
20
35.783806
42
-0.046911
0
VERTEX
8
1
10
11.004985
20
35.690777
42
0.168127
0
VERTEX
8
1
10
11.255342
20
35.670494
42
-0.185127
0
VERTEX
8
1
10
11.413883
20
35.629379
42
0.131734
0
VERTEX
8
1
10
11.555515
20
35.591503
42
0.178080
0
VERTEX
8
1
10
12.017522
20
35.726295
42
0.124587
0
VERTEX
8
1
10
12.290796
20
36.027699
42
0.119793
0
VERTEX
8
1
10
12.323268
20
36.220161
42
-0.045159
0
VERTEX
8
1
10
12.341019
20
36.360870
0
VERTEX
8
1
10
12.350426
20
36.379021
0
VERTEX
8
1
10
12.360561
20
36.368950
0
VERTEX
8
1
10
12.371010
20
36.350403
42
-0.145374
0
VERTEX
8
1
10
12.420392
20
35.708237
42
-0.011621
0
VERTEX
8
1
10
12.378521
20
35.527893
42
-0.270383
0
VERTEX
8
1
10
12.288616
20
35.370811
42
-0.059604
0
VERTEX
8
1
10
12.181091
20
35.315041
42
-0.017467
0
VERTEX
8
1
10
12.054825
20
35.234505
42
-0.010415
0
VERTEX
8
1
10
11.841986
20
35.182861
42
0.024014
0
VERTEX
8
1
10
11.809059
20
35.169067
0
VERTEX
8
1
10
11.805458
20
35.155365
0
SEQEND
0
POLYLINE
8
1
66
1
70
1
0
VERTEX
8
1
10
11.929325
20
38.610794
42
0.026476
0
VERTEX
8
1
10
12.083210
20
38.544754
42
0.061528
0
VERTEX
8
1
10
12.188361
20
38.547424
42
-0.255906
0
VERTEX
8
1
10
12.224224
20
38.519066
0
VERTEX
8
1
10
12.222836
20
38.505585
0
VERTEX
8
1
10
12.212963
20
38.491211
0
VERTEX
8
1
10
12.196144
20
38.476387
42
-0.118971
0
VERTEX
8
1
10
11.923534
20
38.377266
42
-0.078517
0
VERTEX
8
1
10
11.721424
20
38.361969
42
-0.216409
0
VERTEX
8
1
10
11.535633
20
38.504211
42
-0.356628
0
VERTEX
8
1
10
11.561824
20
38.882454
42
-0.096655
0
VERTEX
8
1
10
11.696015
20
38.996590
42
0.152137
0
VERTEX
8
1
10
11.849003
20
38.665161
42
0.063160
0
SEQEND
0
POLYLINE
8
1
66
1
70
1
0
VERTEX
8
1
10
11.558277
20
41.734123
42
0.100171
0
VERTEX
8
1
10
11.350185
20
41.849327
42
0.104791
0
VERTEX
8
1
10
11.241293
20
41.845032
42
0.017894
0
VERTEX
8
1
10
11.070332
20
41.814598
0
VERTEX
8
1
10
11.066719
20
41.839417
42
-0.038587
0
VERTEX
8
1
10
11.025978
20
41.811752
0
VERTEX
8
1
10
11.018639
20
41.819176
0
VERTEX
8
1
10
11.016702
20
41.837662
42
-0.168079
0
VERTEX
8
1
10
11.076763
20
41.913193
42
-0.012279
0
VERTEX
8
1
10
11.223991
20
42.014198
42
-0.078819
0
VERTEX
8
1
10
11.362705
20
42.039146
42
-0.072209
0
VERTEX
8
1
10
11.530403
20
42.048218
42
-0.138998
0
VERTEX
8
1
10
11.717405
20
41.927032
42
-0.229420
0
VERTEX
8
1
10
11.737530
20
41.799591
42
-0.189366
0
VERTEX
8
1
10
11.654078
20
41.648472
42
-0.374447
0
VERTEX
8
1
10
11.634689
20
41.656837
42
0.043434
0
SEQEND
0
POLYLINE
8
1
66
1
70
1
0
VERTEX
8
1
10
11.433186
20
38.143372
42
0.007405
0
VERTEX
8
1
10
11.411865
20
38.207100
42
0.114508
0
VERTEX
8
1
10
11.525471
20
38.108780
42
-0.014465
0
VERTEX
8
1
10
11.481140
20
38.060410
42
0.083947
0
VERTEX
8
1
10
11.444244
20
38.095108
42
0.036406
0
SEQEND
0
POLYLINE
8
1
66
1
70
1
0
VERTEX
8
1
10
10.059059
20
36.820297
42
0.025876
0
VERTEX
8
1
10
10.056660
20
36.884720
42
-0.021562
0
VERTEX
8
1
10
10.372994
20
37.008423
42
0.105650
0
VERTEX
8
1
10
10.515331
20
37.115974
42
-0.211389
0
VERTEX
8
1
10
10.645226
20
37.164787
42
0.174406
0
VERTEX
8
1
10
10.782089
20
37.216228
42
-0.121504
0
VERTEX
8
1
10
11.069203
20
37.310982
42
0.006878
0
VERTEX
8
1
10
11.203403
20
37.333656
42
0.031503
0
VERTEX
8
1
10
11.414341
20
37.418175
42
-0.110177
0
VERTEX
8
1
10
11.719650
20
37.447884
42
0.032072
0
VERTEX
8
1
10
12.101418
20
37.444885
42
-0.150503
0
VERTEX
8
1
10
12.348312
20
37.361225
42
0.123269
0
VERTEX
8
1
10
12.480606
20
37.327965
42
0.081136
0
VERTEX
8
1
10
12.253048
20
37.295479
42
0.039625
0
VERTEX
8
1
10
12.061474
20
37.257912
42
-0.051823
0
VERTEX
8
1
10
12.008774
20
37.216316
42
-0.063591
0
VERTEX
8
1
10
11.886218
20
37.216465
42
0.245983
0
VERTEX
8
1
10
11.823956
20
37.178207
42
-0.199861
0
VERTEX
8
1
10
11.747189
20
37.165466
42
0.102780
0
VERTEX
8
1
10
11.608658
20
37.153770
42
0.023215
0
VERTEX
8
1
10
11.306637
20
37.061424
42
0.123855
0
VERTEX
8
1
10
10.867290
20
36.841347
0
VERTEX
8
1
10
10.878838
20
36.816689
42
0.112802
0
VERTEX
8
1
10
11.169262
20
36.767578
42
-0.012605
0
VERTEX
8
1
10
11.652889
20
36.773453
42
-0.033544
0
VERTEX
8
1
10
11.849403
20
36.723206
42
0.015290
0
VERTEX
8
1
10
11.925751
20
36.717621
0
VERTEX
8
1
10
11.914150
20
36.716621
42
0.123063
0
VERTEX
8
1
10
11.801151
20
36.701752
42
-0.002057
0
VERTEX
8
1
10
11.575244
20
36.622383
42
0.069216
0
VERTEX
8
1
10
11.186146
20
36.493156
42
0.063869
0
VERTEX
8
1
10
10.992275
20
36.347328
42
-0.106332
0
VERTEX
8
1
10
10.867583
20
36.226730
42
-0.269591
0
VERTEX
8
1
10
10.828236
20
36.238167
42
-0.010868
0
VERTEX
8
1
10
10.668919
20
36.383865
42
0.061767
0
VERTEX
8
1
10
10.516189
20
36.482174
42
0.083338
0
VERTEX
8
1
10
10.414707
20
36.500900
42
-0.028154
0
VERTEX
8
1
10
10.182472
20
36.556046
42
0.046002
0
VERTEX
8
1
10
10.105518
20
36.554573
42
-0.406053
0
VERTEX
8
1
10
10.045188
20
36.632401
42
0.089182
0
VERTEX
8
1
10
10.034157
20
36.730087
0
VERTEX
8
1
10
10.026302
20
36.743950
42
0.267401
0
VERTEX
8
1
10
10.058056
20
36.804352
0
SEQEND
0
POLYLINE
8
1
66
1
70
1
0
VERTEX
8
1
10
9.887676
20
35.318214
42
0.136451
0
VERTEX
8
1
10
10.022013
20
35.479603
42
-0.135487
0
VERTEX
8
1
10
10.087917
20
35.542641
0
VERTEX
8
1
10
10.101010
20
35.536026
42
0.127886
0
VERTEX
8
1
10
10.150863
20
35.428497
42
0.056123
0
VERTEX
8
1
10
10.325604
20
35.238361
0
VERTEX
8
1
10
10.354118
20
35.207157
42
0.029835
0
VERTEX
8
1
10
10.530316
20
34.999737
42
-0.042732
0
VERTEX
8
1
10
10.684362
20
34.795444
42
-0.102363
0
VERTEX
8
1
10
10.727047
20
34.638893
0
VERTEX
8
1
10
10.717022
20
34.636650
42
0.030755
0
VERTEX
8
1
10
10.599941
20
34.764534
42
0.017234
0
VERTEX
8
1
10
10.450549
20
34.852509
42
-0.050126
0
VERTEX
8
1
10
10.422119
20
34.880577
42
-0.024952
0
VERTEX
8
1
10
10.653687
20
34.505714
42
-0.088878
0
VERTEX
8
1
10
10.838006
20
34.106819
42
-0.159699
0
VERTEX
8
1
10
10.810174
20
33.907684
42
0.061594
0
VERTEX
8
1
10
10.779167
20
33.758141
0
VERTEX
8
1
10
10.775261
20
33.741585
0
VERTEX
8
1
10
10.761593
20
33.754677
42
-0.096850
0
VERTEX
8
1
10
10.696609
20
33.911491
42
0.037283
0
VERTEX
8
1
10
10.585075
20
34.159325
42
0.103860
0
VERTEX
8
1
10
10.505220
20
34.237427
42
-0.144983
0
VERTEX
8
1
10
10.450855
20
34.338577
42
0.111425
0
VERTEX
8
1
10
10.394444
20
34.419365
42
0.078773
0
VERTEX
8
1
10
10.186462
20
34.589020
42
0.052691
0
VERTEX
8
1
10
9.813017
20
34.828285
42
0.039740
0
VERTEX
8
1
10
9.657320
20
34.882133
42
-0.108214
0
VERTEX
8
1
10
9.507504
20
34.974609
42
0.067943
0
VERTEX
8
1
10
9.389599
20
35.052582
42
-0.023839
0
VERTEX
8
1
10
9.334454
20
35.218010
0
VERTEX
8
1
10
9.350626
20
35.169495
42
0.330978
0
VERTEX
8
1
10
9.467419
20
35.112118
42
0.105719
0
VERTEX
8
1
10
9.583385
20
35.140678
42
0.048766
0
SEQEND
0
POLYLINE
8
1
66
1
70
1
0
VERTEX
8
1
10
11.562157
20
31.610023
42
0.019141
0
VERTEX
8
1
10
11.559525
20
31.347748
42
-0.125074
0
VERTEX
8
1
10
11.441193
20
31.536484
42
0.125578
0
VERTEX
8
1
10
10.962236
20
32.306396
42
0.025596
0
VERTEX
8
1
10
10.694859
20
32.550133
42
0.030478
0
VERTEX
8
1
10
10.454433
20
32.770626
42
0.076134
0
VERTEX
8
1
10
10.354771
20
32.817741
0
VERTEX
8
1
10
10.346545
20
32.811745
42
0.001344
0
VERTEX
8
1
10
10.432563
20
32.656097
42
-0.158367
0
VERTEX
8
1
10
10.446435
20
32.505257
42
0.254224
0
VERTEX
8
1
10
10.483874
20
32.422340
42
-0.256797
0
VERTEX
8
1
10
10.507061
20
32.322193
42
-0.094617
0
VERTEX
8
1
10
10.465199
20
32.199753
42
0.142682
0
VERTEX
8
1
10
10.439908
20
31.965830
42
-0.010983
0
VERTEX
8
1
10
10.444954
20
31.883377
42
0.083508
0
VERTEX
8
1
10
10.313225
20
32.205360
42
0.051436
0
VERTEX
8
1
10
10.099451
20
32.545822
42
-0.002225
0
VERTEX
8
1
10
9.907413
20
32.732208
0
VERTEX
8
1
10
9.890495
20
32.752762
42
0.070141
0
VERTEX
8
1
10
9.624542
20
33.063522
0
VERTEX
8
1
10
9.437454
20
33.213310
42
0.023811
0
VERTEX
8
1
10
8.888290
20
33.622513
42
0.036696
0
VERTEX
8
1
10
8.601060
20
33.752331
42
-0.002655
0
VERTEX
8
1
10
8.230287
20
33.936970
0
VERTEX
8
1
10
8.259403
20
33.939690
42
-0.093226
0
VERTEX
8
1
10
9.096386
20
33.715111
42
-0.029941
0
VERTEX
8
1
10
9.409740
20
33.506813
42
-0.015294
0
VERTEX
8
1
10
9.638218
20
33.348679
42
0.033098
0
VERTEX
8
1
10
9.797500
20
33.191559
42
0.118716
0
VERTEX
8
1
10
9.870827
20
33.166725
0
VERTEX
8
1
10
9.881420
20
33.177284
42
0.037861
0
VERTEX
8
1
10
9.733128
20
33.482948
0
VERTEX
8
1
10
9.746441
20
33.484436
42
-0.101472
0
VERTEX
8
1
10
9.934929
20
33.353165
42
0.077769
0
VERTEX
8
1
10
10.171837
20
33.217117
42
0.064006
0
VERTEX
8
1
10
10.452908
20
33.099770
0
VERTEX
8
1
10
10.537735
20
33.073982
42
-0.104984
0
VERTEX
8
1
10
10.899685
20
32.886841
42
-0.110903
0
VERTEX
8
1
10
11.114933
20
32.661827
42
0.073837
0
VERTEX
8
1
10
11.203693
20
32.572838
42
-0.090100
0
VERTEX
8
1
10
11.297203
20
32.456039
42
-0.041627
0
VERTEX
8
1
10
11.499563
20
32.094894
42
-0.112860
0
VERTEX
8
1
10
11.563220
20
31.647202
0
VERTEX
8
1
10
11.562742
20
31.628611
0
SEQEND
0
POLYLINE
8
1
66
1
70
1
0
VERTEX
8
1
10
9.151325
20
36.987503
42
0.055807
0
VERTEX
8
1
10
9.224682
20
37.256767
42
-0.041604
0
VERTEX
8
1
10
9.223492
20
37.329201
0
VERTEX
8
1
10
9.264526
20
37.339035
0
VERTEX
8
1
10
9.268297
20
37.341469
42
-0.360074
0
VERTEX
8
1
10
9.363495
20
37.473373
0
VERTEX
8
1
10
9.382178
20
37.473343
42
-0.273418
0
VERTEX
8
1
10
9.381714
20
37.355286
0
VERTEX
8
1
10
9.370938
20
37.332520
42
0.232175
0
VERTEX
8
1
10
9.343893
20
37.127869
42
0.456165
0
VERTEX
8
1
10
9.387080
20
37.123775
42
-0.021900
0
VERTEX
8
1
10
9.465799
20
37.158596
42
-0.471712
0
VERTEX
8
1
10
9.564256
20
37.097057
42
-0.136634
0
VERTEX
8
1
10
9.512980
20
36.879318
42
0.106811
0
VERTEX
8
1
10
9.501769
20
36.685791
42
-0.004394
0
VERTEX
8
1
10
9.609366
20
36.802162
0
VERTEX
8
1
10
9.615955
20
36.799461
42
-0.062818
0
VERTEX
8
1
10
9.570908
20
36.610817
42
0.066908
0
VERTEX
8
1
10
9.552486
20
36.472466
42
-0.012241
0
VERTEX
8
1
10
9.510769
20
36.284073
0
VERTEX
8
1
10
9.507740
20
36.259773
0
VERTEX
8
1
10
9.507065
20
36.237076
0
VERTEX
8
1
10
9.515793
20
36.221733
42
0.288699
0
VERTEX
8
1
10
9.612501
20
36.241375
42
-0.022553
0
VERTEX
8
1
10
9.650558
20
36.263702
0
VERTEX
8
1
10
9.661475
20
36.259453
42
-0.166968
0
VERTEX
8
1
10
9.661556
20
36.201508
42
-0.079218
0
VERTEX
8
1
10
9.541443
20
35.983353
42
0.131412
0
VERTEX
8
1
10
9.493679
20
35.851746
0
VERTEX
8
1
10
9.487122
20
35.837631
42
0.017912
0
VERTEX
8
1
10
9.404064
20
35.819633
0
VERTEX
8
1
10
9.400654
20
35.810783
42
-0.328526
0
VERTEX
8
1
10
9.350609
20
35.723366
0
VERTEX
8
1
10
9.343465
20
35.733688
42
-0.130348
0
VERTEX
8
1
10
9.345844
20
35.990471
42
0.158392
0
VERTEX
8
1
10
9.383404
20
36.137787
42
0.101676
0
VERTEX
8
1
10
9.362606
20
36.269211
0
VERTEX
8
1
10
9.349030
20
36.286301
0
VERTEX
8
1
10
9.331196
20
36.290901
0
VERTEX
8
1
10
9.308647
20
36.279892
0
VERTEX
8
1
10
9.280926
20
36.250183
0
VERTEX
8
1
10
9.273633
20
36.252075
42
-0.081095
0
VERTEX
8
1
10
9.323311
20
36.377808
42
0.034344
0
VERTEX
8
1
10
9.372574
20
36.565521
42
-0.019667
0
VERTEX
8
1
10
9.383358
20
36.592934
0
VERTEX
8
1
10
9.372444
20
36.599663
42
0.011668
0
VERTEX
8
1
10
9.244934
20
36.613190
0
VERTEX
8
1
10
9.230423
20
36.617401
42
0.046834
0
VERTEX
8
1
10
9.309452
20
36.927525
42
-0.018475
0
VERTEX
8
1
10
9.326660
20
36.983253
42
0.385366
0
VERTEX
8
1
10
9.236229
20
36.977150
0
VERTEX
8
1
10
9.221569
20
36.965851
42
-0.308134
0
VERTEX
8
1
10
9.135181
20
36.946968
0
SEQEND
0
POLYLINE
8
1
66
1
70
1
0
VERTEX
8
1
10
8.304173
20
41.063828
42
0.123758
0
VERTEX
8
1
10
8.439137
20
41.178532
42
-0.114189
0
VERTEX
8
1
10
8.665333
20
41.339096
42
-0.021553
0
VERTEX
8
1
10
9.037369
20
41.491333
42
-0.019969
0
VERTEX
8
1
10
9.354100
20
41.562233
42
-0.189024
0
VERTEX
8
1
10
9.508644
20
41.517593
0
VERTEX
8
1
10
9.520199
20
41.501961
0
VERTEX
8
1
10
9.519920
20
41.489487
0
VERTEX
8
1
10
9.510220
20
41.479797
0
VERTEX
8
1
10
9.493500
20
41.472511
42
-0.037881
0
VERTEX
8
1
10
9.322712
20
41.454575
42
0.036652
0
VERTEX
8
1
10
9.266090
20
41.428925
42
-0.221590
0
VERTEX
8
1
10
9.236961
20
41.436859
42
0.078573
0
VERTEX
8
1
10
9.060984
20
41.374058
42
0.003811
0
VERTEX
8
1
10
8.846001
20
41.274017
42
-0.036192
0
VERTEX
8
1
10
8.737865
20
41.203125
0
VERTEX
8
1
10
8.549286
20
41.122101
42
0.081878
0
VERTEX
8
1
10
8.427292
20
41.065041
42
-0.203815
0
VERTEX
8
1
10
8.325741
20
40.999840
42
0.090302
0
VERTEX
8
1
10
8.279526
20
40.975868
0
VERTEX
8
1
10
8.283745
20
40.925232
0
VERTEX
8
1
10
8.283394
20
40.925133
42
0.235714
0
VERTEX
8
1
10
8.260121
20
40.943642
42
-0.158870
0
VERTEX
8
1
10
8.279514
20
40.976044
0
VERTEX
8
1
10
8.278831
20
40.984200
42
-0.443663
0
VERTEX
8
1
10
8.246777
20
40.969986
42
-0.324431
0
VERTEX
8
1
10
8.270031
20
41.040070
0
VERTEX
8
1
10
8.286343
20
41.052620
0
SEQEND
0
POLYLINE
8
1
66
1
70
1
0
VERTEX
8
1
10
8.909065
20
37.906326
42
0.033683
0
VERTEX
8
1
10
8.759791
20
37.844421
42
-0.181222
0
VERTEX
8
1
10
8.600548
20
37.853985
42
-0.121030
0
VERTEX
8
1
10
8.399174
20
37.980576
42
0.094527
0
VERTEX
8
1
10
8.313423
20
38.094292
42
-0.068631
0
VERTEX
8
1
10
8.253616
20
38.243179
42
-0.029102
0
VERTEX
8
1
10
8.257996
20
38.360893
0
VERTEX
8
1
10
8.262730
20
38.374062
0
VERTEX
8
1
10
8.269717
20
38.386185
42
-0.196434
0
VERTEX
8
1
10
8.366719
20
38.601440
42
-0.080724
0
VERTEX
8
1
10
8.396168
20
38.614410
0
VERTEX
8
1
10
8.461576
20
38.588249
42
0.312948
0
VERTEX
8
1
10
8.484970
20
38.517685
42
-0.093828
0
VERTEX
8
1
10
8.541328
20
38.424530
42
0.164144
0
VERTEX
8
1
10
8.658836
20
38.322586
0
VERTEX
8
1
10
8.669765
20
38.314316
42
0.153570
0
VERTEX
8
1
10
8.835470
20
38.208454
42
0.050817
0
VERTEX
8
1
10
9.053837
20
38.151642
0
VERTEX
8
1
10
9.104595
20
38.139954
0
VERTEX
8
1
10
9.154369
20
38.126541
42
-0.185430
0
VERTEX
8
1
10
9.067017
20
38.034584
42
0.080831
0
VERTEX
8
1
10
8.964664
20
37.952415
42
-0.302295
0
SEQEND
0
POLYLINE
8
1
66
1
70
1
0
VERTEX
8
1
10
7.272606
20
36.326889
42
0.048291
0
VERTEX
8
1
10
7.481670
20
36.187004
42
0.074158
0
VERTEX
8
1
10
7.753770
20
36.053921
42
0.036223
0
VERTEX
8
1
10
7.804859
20
36.046509
0
VERTEX
8
1
10
7.801399
20
36.058861
42
-0.130354
0
VERTEX
8
1
10
7.698982
20
36.264198
42
0.045528
0
VERTEX
8
1
10
7.625248
20
36.509911
42
-0.082022
0
VERTEX
8
1
10
7.611946
20
36.637405
42
-0.096461
0
VERTEX
8
1
10
7.622906
20
36.819672
0
VERTEX
8
1
10
7.628906
20
36.823257
0
VERTEX
8
1
10
7.636826
20
36.817436
42
-0.023401
0
VERTEX
8
1
10
7.774426
20
36.640923
42
0.011081
0
VERTEX
8
1
10
7.945179
20
36.462418
42
0.057736
0
VERTEX
8
1
10
8.175909
20
36.319252
42
-0.068107
0
VERTEX
8
1
10
8.296561
20
36.225418
42
0.394717
0
VERTEX
8
1
10
8.400575
20
36.243484
42
-0.130290
0
VERTEX
8
1
10
8.457753
20
36.279209
42
-10.297212
0
VERTEX
8
1
10
8.476007
20
36.278702
42
-0.019439
0
VERTEX
8
1
10
8.556473
20
36.266571
0
VERTEX
8
1
10
8.560947
20
36.249023
42
-0.076418
0
VERTEX
8
1
10
8.479847
20
36.052311
42
0.152041
0
VERTEX
8
1
10
8.448960
20
35.778381
42
0.154862
0
VERTEX
8
1
10
8.598860
20
35.448921
42
0.092704
0
VERTEX
8
1
10
8.713799
20
35.374573
42
-0.072535
0
VERTEX
8
1
10
8.401840
20
35.488991
42
0.035076
0
VERTEX
8
1
10
8.253933
20
35.593018
0
VERTEX
8
1
10
8.238773
20
35.598907
0
VERTEX
8
1
10
8.229195
20
35.597229
42
0.004343
0
VERTEX
8
1
10
8.317375
20
35.379951
42
0.141096
0
VERTEX
8
1
10
8.483051
20
35.206879
42
0.063557
0
VERTEX
8
1
10
8.785034
20
35.057617
0
VERTEX
8
1
10
8.809959
20
35.053513
42
-0.101899
0
VERTEX
8
1
10
9.048256
20
35.040596
0
VERTEX
8
1
10
9.058403
20
35.033966
42
-0.159470
0
VERTEX
8
1
10
8.827602
20
35.044426
0
VERTEX
8
1
10
8.802448
20
35.051964
42
-0.043042
0
VERTEX
8
1
10
8.676952
20
35.055565
0
VERTEX
8
1
10
8.548870
20
35.077408
0
VERTEX
8
1
10
8.506737
20
35.084740
42
-0.166572
0
VERTEX
8
1
10
7.848150
20
35.403801
42
-0.118006
0
VERTEX
8
1
10
7.729542
20
35.620834
0
VERTEX
8
1
10
7.721779
20
35.681091
0
VERTEX
8
1
10
7.724838
20
35.743637
0
VERTEX
8
1
10
7.714565
20
35.743088
42
0.037593
0
VERTEX
8
1
10
7.634002
20
35.681000
42
0.176072
0
VERTEX
8
1
10
7.556349
20
35.392601
42
0.061010
0
VERTEX
8
1
10
7.574879
20
35.238960
42
0.210378
0
VERTEX
8
1
10
7.903113
20
34.947678
42
0.036704
0
VERTEX
8
1
10
8.946230
20
34.786419
42
0.000627
0
VERTEX
8
1
10
9.229187
20
34.756500
42
-0.097679
0
VERTEX
8
1
10
9.439426
20
34.670280
42
-0.081087
0
VERTEX
8
1
10
9.676329
20
34.505608
42
-0.126545
0
VERTEX
8
1
10
9.719490
20
34.418198
0
VERTEX
8
1
10
9.706585
20
34.408852
42
0.045977
0
VERTEX
8
1
10
8.988816
20
34.609913
42
0.094205
0
VERTEX
8
1
10
8.789143
20
34.597916
0
VERTEX
8
1
10
8.789398
20
34.582573
0
VERTEX
8
1
10
8.801331
20
34.567047
42
0.098929
0
VERTEX
8
1
10
8.956032
20
34.479919
42
-0.110980
0
VERTEX
8
1
10
9.188937
20
34.316734
42
0.079662
0
VERTEX
8
1
10
9.381531
20
34.193817
42
-0.244061
0
VERTEX
8
1
10
9.714333
20
33.680511
0
VERTEX
8
1
10
9.709270
20
33.669487
42
-0.064035
0
VERTEX
8
1
10
9.616930
20
33.723053
42
-0.003858
0
VERTEX
8
1
10
9.339970
20
33.923622
42
0.043954
0
VERTEX
8
1
10
8.742523
20
34.177353
42
0.037069
0
VERTEX
8
1
10
8.134117
20
34.359962
42
0.050408
0
VERTEX
8
1
10
7.798416
20
34.385551
42
-0.152057
0
VERTEX
8
1
10
7.370575
20
34.539085
0
VERTEX
8
1
10
7.344299
20
34.563293
0
VERTEX
8
1
10
7.322122
20
34.587791
42
-0.184495
0
VERTEX
8
1
10
7.173133
20
35.143486
42
-0.084156
0
VERTEX
8
1
10
7.314205
20
35.516479
42
0.033749
0
VERTEX
8
1
10
7.428339
20
35.675240
42
0.299187
0
VERTEX
8
1
10
7.407917
20
35.812752
42
-0.070296
0
VERTEX
8
1
10
7.259548
20
36.065071
42
-0.019038
0
VERTEX
8
1
10
7.142944
20
36.354622
0
VERTEX
8
1
10
7.138916
20
36.379578
0
VERTEX
8
1
10
7.153679
20
36.382133
42
-0.135295
0
SEQEND
0
POLYLINE
8
1
66
1
70
1
0
VERTEX
8
1
10
5.939877
20
40.094528
0
VERTEX
8
1
10
5.941952
20
40.094257
42
0.352192
0
VERTEX
8
1
10
5.965839
20
40.148018
42
-0.043589
0
VERTEX
8
1
10
5.958244
20
40.245865
0
VERTEX
8
1
10
5.963310
20
40.262978
42
-0.226718
0
VERTEX
8
1
10
6.356944
20
40.507732
42
-0.013215
0
VERTEX
8
1
10
6.522926
20
40.541046
42
0.222247
0
VERTEX
8
1
10
6.647194
20
40.454483
0
VERTEX
8
1
10
6.667076
20
40.448860
0
VERTEX
8
1
10
6.681769
20
40.441780
42
-0.216543
0
VERTEX
8
1
10
6.666634
20
40.351593
0
VERTEX
8
1
10
6.653469
20
40.346222
42
0.066670
0
VERTEX
8
1
10
6.468281
20
40.355064
42
0.130454
0
VERTEX
8
1
10
6.420383
20
40.327881
0
VERTEX
8
1
10
6.408428
20
40.302773
0
VERTEX
8
1
10
6.395889
20
40.286385
0
VERTEX
8
1
10
6.336643
20
40.286827
42
0.333482
0
VERTEX
8
1
10
6.164577
20
40.180740
42
-0.197990
0
VERTEX
8
1
10
6.113667
20
40.142784
0
VERTEX
8
1
10
6.140263
20
40.156105
0
VERTEX
8
1
10
6.139893
20
40.156883
0
VERTEX
8
1
10
6.072768
20
40.181992
42
-0.485909
0
VERTEX
8
1
10
6.008742
20
40.089169
42
-0.154213
0
SEQEND
0
POLYLINE
8
1
66
1
70
1
0
VERTEX
8
1
10
5.960636
20
37.093246
42
0.052330
0
VERTEX
8
1
10
5.926838
20
37.159378
42
-0.365998
0
VERTEX
8
1
10
5.846061
20
37.232624
42
-0.120817
0
VERTEX
8
1
10
5.846161
20
37.344246
0
VERTEX
8
1
10
5.847027
20
37.362198
0
VERTEX
8
1
10
5.868397
20
37.315300
42
0.038262
0
VERTEX
8
1
10
6.037289
20
37.335663
42
-0.128282
0
VERTEX
8
1
10
6.108002
20
37.320847
42
0.011255
0
VERTEX
8
1
10
6.248311
20
37.459816
42
0.113256
0
VERTEX
8
1
10
6.320875
20
37.647278
42
-0.012716
0
VERTEX
8
1
10
6.330124
20
37.675575
42
-0.025305
0
VERTEX
8
1
10
6.442543
20
37.401390
42
-0.113744
0
VERTEX
8
1
10
6.448509
20
37.241676
42
0.016640
0
VERTEX
8
1
10
6.408504
20
37.152237
0
VERTEX
8
1
10
6.420634
20
37.069878
42
-0.404465
0
VERTEX
8
1
10
6.261477
20
36.942036
42
-0.143512
0
VERTEX
8
1
10
6.016112
20
37.011375
42
-0.139027
0
SEQEND
0
POLYLINE
8
1
66
1
70
1
0
VERTEX
8
1
10
6.925663
20
35.721840
42
-0.125934
0
VERTEX
8
1
10
6.727688
20
35.758110
42
0.061674
0
VERTEX
8
1
10
6.653290
20
35.770672
42
-0.196298
0
VERTEX
8
1
10
6.177293
20
36.040161
42
-0.183584
0
VERTEX
8
1
10
5.970992
20
36.577652
42
-0.017199
0
VERTEX
8
1
10
5.967087
20
36.726372
42
0.130633
0
VERTEX
8
1
10
6.120861
20
36.690758
42
0.115373
0
VERTEX
8
1
10
6.495925
20
36.714417
42
0.157726
0
SEQEND
0
POLYLINE
8
1
66
1
70
1
0
VERTEX
8
1
10
11.984146
20
30.418251
42
-0.011151
0
VERTEX
8
1
10
11.949471
20
30.156136
42
0.014772
0
VERTEX
8
1
10
11.951176
20
29.867485
42
-0.105918
0
VERTEX
8
1
10
11.880681
20
29.566690
42
-0.011363
0
VERTEX
8
1
10
11.788734
20
29.352247
42
-0.118787
0
VERTEX
8
1
10
11.421693
20
28.937294
42
-0.024944
0
VERTEX
8
1
10
11.061214
20
28.686600
42
-0.007199
0
VERTEX
8
1
10
10.540313
20
28.339180
42
0.072622
0
VERTEX
8
1
10
10.456203
20
28.255711
42
-0.051073
0
VERTEX
8
1
10
10.299450
20
28.102743
42
-0.270916
0
VERTEX
8
1
10
10.249817
20
28.106476
42
-0.070909
0
VERTEX
8
1
10
10.065186
20
28.284950
42
0.161681
0
VERTEX
8
1
10
9.833042
20
28.532963
42
0.090297
0
VERTEX
8
1
10
9.335531
20
28.738008
42
0.125962
0
VERTEX
8
1
10
8.906097
20
28.697363
42
-0.121647
0
VERTEX
8
1
10
8.700094
20
28.689947
42
-0.069844
0
VERTEX
8
1
10
8.668011
20
28.708473
0
VERTEX
8
1
10
8.666817
20
28.751740
42
-0.031619
0
VERTEX
8
1
10
8.756519
20
29.274925
42
0.039571
0
VERTEX
8
1
10
8.834667
20
29.861618
42
-0.088753
0
VERTEX
8
1
10
9.025125
20
30.556805
42
-0.048390
0
VERTEX
8
1
10
9.389816
20
31.195417
42
0.082819
0
VERTEX
8
1
10
9.546312
20
31.547010
42
0.126006
0
VERTEX
8
1
10
9.528450
20
31.783043
0
VERTEX
8
1
10
9.504028
20
31.817116
42
0.130319
0
VERTEX
8
1
10
9.316128
20
31.659286
42
0.029075
0
VERTEX
8
1
10
9.110256
20
31.321037
42
-0.035675
0
VERTEX
8
1
10
8.989960
20
31.151451
0
VERTEX
8
1
10
8.904186
20
31.045586
42
0.096366
0
VERTEX
8
1
10
8.691109
20
30.667259
42
0.098024
0
VERTEX
8
1
10
8.605450
20
30.217682
42
-0.014888
0
VERTEX
8
1
10
8.580475
20
29.438902
42
-0.124827
0
VERTEX
8
1
10
8.255132
20
28.524200
42
-0.027351
0
VERTEX
8
1
10
8.092006
20
28.298899
42
0.035804
0
VERTEX
8
1
10
7.899520
20
28.003353
42
0.081879
0
VERTEX
8
1
10
7.838467
20
27.785545
0
VERTEX
8
1
10
7.827169
20
27.749372
42
-0.000976
0
VERTEX
8
1
10
7.612233
20
27.273643
42
0.018748
0
VERTEX
8
1
10
7.181077
20
25.729483
42
0.031950
0
VERTEX
8
1
10
7.146404
20
25.488701
0
VERTEX
8
1
10
7.153553
20
25.447205
0
VERTEX
8
1
10
7.174644
20
25.441917
42
0.126717
0
VERTEX
8
1
10
7.292107
20
25.526588
42
0.125974
0
VERTEX
8
1
10
7.657526
20
26.290363
42
-0.056651
0
VERTEX
8
1
10
8.003764
20
27.214760
42
-0.053523
0
VERTEX
8
1
10
8.220634
20
27.520081
42
0.022099
0
VERTEX
8
1
10
8.746925
20
28.201868
42
0.008600
0
VERTEX
8
1
10
8.786739
20
28.266808
42
-0.104894
0
VERTEX
8
1
10
8.937553
20
28.263924
42
-0.065686
0
VERTEX
8
1
10
9.407228
20
28.129559
42
-0.152621
0
VERTEX
8
1
10
9.505482
20
28.020370
42
0.007966
0
VERTEX
8
1
10
9.600285
20
27.822121
42
0.089735
0
VERTEX
8
1
10
9.769068
20
27.651300
42
-0.106375
0
VERTEX
8
1
10
9.885818
20
27.498520
42
-0.224166
0
VERTEX
8
1
10
9.863785
20
27.322639
42
-0.056586
0
VERTEX
8
1
10
9.710091
20
27.126625
42
0.025168
0
VERTEX
8
1
10
9.384003
20
26.651873
42
-0.005447
0
VERTEX
8
1
10
9.307648
20
26.541321
0
VERTEX
8
1
10
9.294979
20
26.530693
42
-0.340436
0
VERTEX
8
1
10
9.224609
20
26.601051
42
0.205158
0
VERTEX
8
1
10
9.129757
20
26.549110
42
0.015811
0
VERTEX
8
1
10
8.995087
20
26.377716
42
0.015752
0
VERTEX
8
1
10
8.753635
20
26.138954
42
0.103105
0
VERTEX
8
1
10
8.236928
20
25.017504
42
-0.007655
0
VERTEX
8
1
10
8.065582
20
24.410698
0
VERTEX
8
1
10
8.057167
20
24.369751
42
-0.028745
0
VERTEX
8
1
10
7.972467
20
23.841879
42
-0.084295
0
VERTEX
8
1
10
7.889508
20
23.668499
42
-0.139271
0
VERTEX
8
1
10
7.791420
20
23.603249
0
VERTEX
8
1
10
7.774914
20
23.654449
42
-0.092771
0
VERTEX
8
1
10
7.791466
20
23.907661
42
0.013728
0
VERTEX
8
1
10
7.896813
20
24.340805
42
0.105585
0
VERTEX
8
1
10
7.884613
20
24.551483
0
VERTEX
8
1
10
7.861683
20
24.603767
0
VERTEX
8
1
10
7.829857
20
24.639648
0
VERTEX
8
1
10
7.800503
20
24.636124
0
VERTEX
8
1
10
7.772903
20
24.622353
42
0.127919
0
VERTEX
8
1
10
7.679466
20
24.489693
0
VERTEX
8
1
10
7.660236
20
24.443283
42
0.047929
0
VERTEX
8
1
10
7.527683
20
23.865858
42
-0.122230
0
VERTEX
8
1
10
7.449057
20
23.688383
42
-0.345634
0
VERTEX
8
1
10
7.294333
20
23.674431
42
-0.150257
0
VERTEX
8
1
10
7.227406
20
23.815338
42
0.058140
0
VERTEX
8
1
10
7.073030
20
24.233273
42
0.114048
0
VERTEX
8
1
10
6.875851
20
24.444443
42
0.013481
0
VERTEX
8
1
10
6.549885
20
24.660660
42
0.070022
0
VERTEX
8
1
10
6.344173
20
24.718506
42
-0.023516
0
VERTEX
8
1
10
6.182281
20
24.760452
42
0.163825
0
VERTEX
8
1
10
5.949493
20
24.685053
42
0.012494
0
VERTEX
8
1
10
5.902489
20
24.655853
0
VERTEX
8
1
10
5.897224
20
24.639786
0
VERTEX
8
1
10
5.903976
20
24.603394
42
0.339214
0
VERTEX
8
1
10
6.061256
20
24.448372
42
0.037909
0
VERTEX
8
1
10
6.308904
20
24.441410
42
-0.152919
0
VERTEX
8
1
10
6.696080
20
24.311682
42
-0.229697
0
VERTEX
8
1
10
6.838342
20
23.982128
42
-0.179566
0
VERTEX
8
1
10
6.727998
20
23.671095
42
-0.191539
0
VERTEX
8
1
10
6.551739
20
23.594917
42
-0.199930
0
VERTEX
8
1
10
6.032790
20
23.766689
42
-0.152881
0
VERTEX
8
1
10
5.868881
20
24.079567
42
0.066471
0
VERTEX
8
1
10
5.754287
20
24.429352
0
VERTEX
8
1
10
5.743742
20
24.442680
42
0.427664
0
VERTEX
8
1
10
5.607632
20
24.463486
42
0.288353
0
VERTEX
8
1
10
5.486323
20
24.221861
42
0.089495
0
VERTEX
8
1
10
5.526337
20
24.041552
42
0.006722
0
VERTEX
8
1
10
5.688495
20
23.663519
42
-0.074555
0
VERTEX
8
1
10
5.717995
20
23.503761
0
VERTEX
8
1
10
5.669800
20
23.490135
0
VERTEX
8
1
10
5.619511
20
23.492744
0
VERTEX
8
1
10
5.570923
20
23.507996
42
-0.127685
0
VERTEX
8
1
10
5.395969
20
23.666191
0
VERTEX
8
1
10
5.357674
20
23.722702
42
-0.070841
0
VERTEX
8
1
10
5.119180
20
24.296597
42
-0.155998
0
VERTEX
8
1
10
5.160568
20
24.678940
42
-0.050344
0
VERTEX
8
1
10
5.316071
20
24.878702
42
0.148791
0
VERTEX
8
1
10
5.383289
20
25.043320
42
0.214053
0
VERTEX
8
1
10
5.252445
20
25.031822
42
-0.059926
0
VERTEX
8
1
10
5.109504
20
24.976160
42
-0.380774
0
VERTEX
8
1
10
4.991283
20
25.060173
42
0.054574
0
VERTEX
8
1
10
5.115002
20
25.410492
42
-0.052393
0
VERTEX
8
1
10
5.283855
20
25.768654
0
VERTEX
8
1
10
5.305431
20
25.808632
42
-0.166652
0
VERTEX
8
1
10
5.929786
20
26.444754
42
0.039974
0
VERTEX
8
1
10
6.265259
20
26.665192
42
0.061301
0
VERTEX
8
1
10
6.492096
20
26.919853
42
-0.062693
0
VERTEX
8
1
10
6.693325
20
27.128479
42
0.132727
0
VERTEX
8
1
10
6.834873
20
27.339905
42
-0.080355
0
VERTEX
8
1
10
6.932755
20
27.503639
42
0.071963
0
VERTEX
8
1
10
7.065693
20
27.760521
42
0.065050
0
VERTEX
8
1
10
7.169341
20
28.051344
42
0.083750
0
VERTEX
8
1
10
7.163681
20
28.184120
0
VERTEX
8
1
10
7.152176
20
28.211334
42
0.183690
0
VERTEX
8
1
10
7.060364
20
28.142319
42
0.062920
0
VERTEX
8
1
10
6.977784
20
27.996704
42
0.014738
0
VERTEX
8
1
10
6.866074
20
27.748215
42
-0.052919
0
VERTEX
8
1
10
6.539822
20
27.282791
42
-0.082843
0
VERTEX
8
1
10
6.235310
20
27.055305
42
0.021167
0
VERTEX
8
1
10
5.855774
20
26.818169
42
0.064599
0
VERTEX
8
1
10
5.689668
20
26.637634
42
-0.138680
0
VERTEX
8
1
10
5.567455
20
26.558716
42
-0.163846
0
VERTEX
8
1
10
5.589334
20
26.806789
42
0.114671
0
VERTEX
8
1
10
5.605743
20
27.031330
42
-0.160440
0
VERTEX
8
1
10
5.640176
20
27.182199
42
0.098476
0
VERTEX
8
1
10
5.678402
20
27.328972
42
0.027719
0
VERTEX
8
1
10
5.741428
20
27.644592
0
VERTEX
8
1
10
5.759052
20
27.721573
42
0.086019
0
VERTEX
8
1
10
5.774224
20
28.008781
42
-0.140853
0
VERTEX
8
1
10
5.819183
20
28.164352
42
0.068174
0
VERTEX
8
1
10
5.832292
20
28.394531
42
-0.096078
0
VERTEX
8
1
10
5.871340
20
28.638987
42
0.003613
0
VERTEX
8
1
10
6.029082
20
29.116722
42
-0.032005
0
VERTEX
8
1
10
6.314152
20
30.003849
42
-0.011150
0
VERTEX
8
1
10
6.850576
20
31.343546
42
0.135249
0
VERTEX
8
1
10
6.891122
20
31.663227
0
VERTEX
8
1
10
6.884068
20
31.694115
0
VERTEX
8
1
10
6.862598
20
31.709259
0
VERTEX
8
1
10
6.834030
20
31.698639
42
0.130178
0
VERTEX
8
1
10
6.678806
20
31.534302
0
VERTEX
8
1
10
6.656088
20
31.496794
42
-0.007109
0
VERTEX
8
1
10
6.386706
20
30.981491
42
0.107280
0
VERTEX
8
1
10
6.380619
20
31.044220
42
0.212403
0
VERTEX
8
1
10
6.298004
20
30.994255
42
0.045663
0
VERTEX
8
1
10
6.172958
20
30.765371
42
-0.113878
0
VERTEX
8
1
10
6.090141
20
30.675224
0
VERTEX
8
1
10
6.067665
20
30.667191
42
-0.174500
0
VERTEX
8
1
10
6.082573
20
30.896751
42
0.114993
0
VERTEX
8
1
10
6.114587
20
31.193562
42
-0.016427
0
VERTEX
8
1
10
6.114605
20
31.320816
42
-0.026225
0
VERTEX
8
1
10
6.163506
20
31.516220
42
0.018985
0
VERTEX
8
1
10
6.185783
20
31.735184
42
-0.047709
0
VERTEX
8
1
10
6.245831
20
31.942795
42
-0.018594
0
VERTEX
8
1
10
6.384459
20
32.398819
42
0.007951
0
VERTEX
8
1
10
6.605057
20
32.864281
42
0.032719
0
VERTEX
8
1
10
6.684399
20
33.101997
42
-0.532190
0
VERTEX
8
1
10
6.719612
20
33.037140
42
-0.010699
0
VERTEX
8
1
10
6.666835
20
32.919174
42
0.076153
0
VERTEX
8
1
10
6.663315
20
32.728188
42
-0.033315
0
VERTEX
8
1
10
6.662269
20
32.450359
42
0.086431
0
VERTEX
8
1
10
6.698095
20
32.226147
42
0.144667
0
VERTEX
8
1
10
6.749134
20
32.173615
0
VERTEX
8
1
10
6.766239
20
32.176781
42
-0.066743
0
VERTEX
8
1
10
6.889965
20
32.506264
42
0.049403
0
VERTEX
8
1
10
6.982773
20
32.805031
42
-0.021857
0
VERTEX
8
1
10
7.096294
20
33.208542
42
-0.045994
0
VERTEX
8
1
10
7.241600
20
33.649063
42
0.050232
0
VERTEX
8
1
10
7.383192
20
33.972160
42
0.086742
0
VERTEX
8
1
10
7.390900
20
34.101265
0
VERTEX
8
1
10
7.403736
20
34.102852
42
-0.173492
0
VERTEX
8
1
10
7.491253
20
34.005585
42
-0.037766
0
VERTEX
8
1
10
7.565826
20
33.817680
0
VERTEX
8
1
10
7.618505
20
33.655670
42
-0.126472
0
VERTEX
8
1
10
7.633695
20
33.099178
42
-0.025905
0
VERTEX
8
1
10
7.568501
20
32.822899
0
VERTEX
8
1
10
7.510914
20
32.617241
0
VERTEX
8
1
10
7.492535
20
32.549202
0
VERTEX
8
1
10
7.510963
20
32.507706
0
VERTEX
8
1
10
7.557995
20
32.501762
0
VERTEX
8
1
10
7.605076
20
32.513123
0
VERTEX
8
1
10
7.651859
20
32.539734
42
0.097001
0
VERTEX
8
1
10
7.829536
20
32.758224
42
0.050827
0
VERTEX
8
1
10
8.083672
20
33.350166
42
0.043615
0
VERTEX
8
1
10
8.257147
20
32.654129
42
0.022810
0
VERTEX
8
1
10
8.324234
20
32.502609
0
VERTEX
8
1
10
8.341049
20
32.484688
42
-0.042470
0
VERTEX
8
1
10
8.349312
20
33.128159
42
-0.068986
0
VERTEX
8
1
10
8.427336
20
33.399693
42
-0.383197
0
VERTEX
8
1
10
8.555527
20
33.437462
42
-0.090413
0
VERTEX
8
1
10
8.760597
20
33.297195
42
-0.015638
0
VERTEX
8
1
10
9.049881
20
33.040894
42
0.042308
0
VERTEX
8
1
10
9.051483
20
32.989319
0
VERTEX
8
1
10
9.057671
20
33.034668
0
VERTEX
8
1
10
9.059380
20
33.034462
0
VERTEX
8
1
10
9.103166
20
32.993530
42
-0.168373
0
VERTEX
8
1
10
8.946327
20
32.254539
0
VERTEX
8
1
10
8.919743
20
32.218430
0
VERTEX
8
1
10
8.890961
20
32.185081
42
-0.308467
0
VERTEX
8
1
10
8.482334
20
32.074638
42
0.266404
0
VERTEX
8
1
10
8.289598
20
32.097225
42
0.109808
0
VERTEX
8
1
10
7.812776
20
31.832123
42
0.093493
0
VERTEX
8
1
10
7.661125
20
31.608711
42
0.034733
0
VERTEX
8
1
10
7.475567
20
31.242590
42
0.113616
0
VERTEX
8
1
10
7.450157
20
31.020630
0
VERTEX
8
1
10
7.466881
20
31.001564
42
-0.026427
0
VERTEX
8
1
10
7.768133
20
30.899265
42
0.123183
0
VERTEX
8
1
10
7.918713
20
30.892000
42
-0.255683
0
VERTEX
8
1
10
7.993309
20
30.855263
42
0.237337
0
VERTEX
8
1
10
8.041481
20
30.837082
42
0.178468
0
VERTEX
8
1
10
8.142521
20
30.858582
0
VERTEX
8
1
10
8.155281
20
30.863876
42
0.061641
0
VERTEX
8
1
10
8.429565
20
30.970205
42
0.050391
0
VERTEX
8
1
10
8.540512
20
31.056046
42
0.047481
0
VERTEX
8
1
10
8.814167
20
31.283318
42
0.102800
0
VERTEX
8
1
10
8.981063
20
31.609760
42
-0.009990
0
VERTEX
8
1
10
9.011765
20
31.819883
42
-0.137378
0
VERTEX
8
1
10
9.095913
20
31.961632
42
-0.125474
0
VERTEX
8
1
10
9.612912
20
32.318932
42
-0.031948
0
VERTEX
8
1
10
9.683865
20
32.334579
0
VERTEX
8
1
10
9.705392
20
32.310425
42
-0.015051
0
VERTEX
8
1
10
10.112034
20
31.756851
42
-0.026272
0
VERTEX
8
1
10
10.534507
20
30.986912
42
0.001831
0
VERTEX
8
1
10
10.590917
20
30.879606
0
VERTEX
8
1
10
10.625828
20
30.903824
42
0.110993
0
VERTEX
8
1
10
10.682636
20
31.189018
42
0.024901
0
VERTEX
8
1
10
10.641170
20
31.668728
42
-0.093248
0
VERTEX
8
1
10
10.677564
20
31.995430
42
-0.045752
0
VERTEX
8
1
10
10.717823
20
32.077026
0
VERTEX
8
1
10
10.757900
20
32.035065
42
-0.095061
0
VERTEX
8
1
10
10.985203
20
31.610626
42
-0.011161
0
VERTEX
8
1
10
11.196967
20
30.891420
42
-0.080542
0
VERTEX
8
1
10
11.253216
20
30.146698
0
VERTEX
8
1
10
11.292080
20
30.175827
0
VERTEX
8
1
10
11.338985
20
30.230698
0
VERTEX
8
1
10
11.383148
20
30.288048
42
0.083115
0
VERTEX
8
1
10
11.736121
20
31.050127
42
-0.007600
0
VERTEX
8
1
10
11.787884
20
31.206017
42
-0.185042
0
VERTEX
8
1
10
11.878712
20
31.072136
42
-0.026572
0
VERTEX
8
1
10
11.950428
20
30.744164
42
-0.077665
0
SEQEND
0
POLYLINE
8
1
66
1
70
1
0
VERTEX
8
1
10
7.691513
20
31.209221
42
0.070575
0
VERTEX
8
1
10
7.745613
20
31.348488
0
VERTEX
8
1
10
7.745419
20
31.363235
0
VERTEX
8
1
10
7.741844
20
31.375465
0
VERTEX
8
1
10
7.832439
20
31.332603
42
0.330629
0
VERTEX
8
1
10
8.788090
20
31.560257
42
-0.175083
0
VERTEX
8
1
10
8.675050
20
31.380241
42
-0.117433
0
VERTEX
8
1
10
8.357586
20
31.208801
42
-0.032963
0
VERTEX
8
1
10
7.906191
20
31.179329
42
0.125971
0
VERTEX
8
1
10
7.683464
20
31.108826
0
VERTEX
8
1
10
7.669418
20
31.103859
42
-0.799853
0
VERTEX
8
1
10
7.654003
20
31.124130
42
-0.039885
0
SEQEND
0
POLYLINE
8
1
66
1
70
1
0
VERTEX
8
1
10
12.091129
20
32.365051
42
-0.089916
0
VERTEX
8
1
10
12.117591
20
31.735207
42
-0.024962
0
VERTEX
8
1
10
12.099857
20
31.666946
0
VERTEX
8
1
10
12.091972
20
31.670250
0
VERTEX
8
1
10
12.084534
20
31.677414
42
-0.099223
0
VERTEX
8
1
10
12.033048
20
31.857050
42
0.038114
0
VERTEX
8
1
10
11.975319
20
32.071304
42
0.107030
0
VERTEX
8
1
10
11.723211
20
32.592655
42
0.069032
0
VERTEX
8
1
10
11.192966
20
33.156895
42
0.095860
0
VERTEX
8
1
10
10.561250
20
33.475502
42
0.028648
0
VERTEX
8
1
10
10.398949
20
33.506813
0
VERTEX
8
1
10
10.390335
20
33.549706
0
VERTEX
8
1
10
10.391431
20
33.550095
42
0.844510
0
VERTEX
8
1
10
10.418431
20
33.560020
42
0.094624
0
VERTEX
8
1
10
10.415104
20
33.598549
42
-0.188441
0
VERTEX
8
1
10
10.982909
20
33.555256
42
-0.089695
0
VERTEX
8
1
10
11.435707
20
33.249794
42
-0.037556
0
VERTEX
8
1
10
11.952801
20
32.705242
42
-0.114412
0
SEQEND
0
POLYLINE
8
1
66
1
70
1
0
VERTEX
8
1
10
13.503017
20
33.999336
42
0.031932
0
VERTEX
8
1
10
13.562515
20
34.019272
0
VERTEX
8
1
10
13.576733
20
34.017372
0
VERTEX
8
1
10
13.580856
20
33.959061
0
VERTEX
8
1
10
13.545017
20
33.901917
0
VERTEX
8
1
10
13.476944
20
33.846718
0
VERTEX
8
1
10
13.384384
20
33.794273
0
VERTEX
8
1
10
13.275066
20
33.745392
42
-0.043599
0
VERTEX
8
1
10
12.652892
20
33.563236
42
-0.124202
0
VERTEX
8
1
10
12.080718
20
33.624424
42
-0.046274
0
VERTEX
8
1
10
11.465824
20
33.887459
42
-0.069961
0
VERTEX
8
1
10
11.206399
20
34.111122
42
0.024300
0
VERTEX
8
1
10
11.166523
20
34.143791
42
-0.082083
0
VERTEX
8
1
10
11.115494
20
34.155174
42
-0.066713
0
VERTEX
8
1
10
11.093281
20
34.221695
42
-0.068973
0
VERTEX
8
1
10
10.933670
20
34.474953
0
VERTEX
8
1
10
10.909035
20
34.523972
42
0.044224
0
VERTEX
8
1
10
10.868149
20
34.650253
0
VERTEX
8
1
10
10.859383
20
34.662933
0
VERTEX
8
1
10
10.863529
20
34.667923
42
-0.194771
0
VERTEX
8
1
10
10.971748
20
34.611816
42
-0.037735
0
VERTEX
8
1
10
10.954735
20
34.659065
42
-0.065324
0
VERTEX
8
1
10
10.997833
20
34.589340
0
VERTEX
8
1
10
10.977322
20
34.606888
0
VERTEX
8
1
10
10.977612
20
34.605087
42
0.007585
0
VERTEX
8
1
10
11.027046
20
34.512878
0
VERTEX
8
1
10
11.039661
20
34.506989
42
-0.274957
0
VERTEX
8
1
10
11.129154
20
34.467361
0
VERTEX
8
1
10
11.143684
20
34.450783
42
0.148702
0
VERTEX
8
1
10
11.331104
20
34.306068
0
VERTEX
8
1
10
11.411530
20
34.269096
42
0.120107
0
VERTEX
8
1
10
11.730839
20
34.185539
42
-0.005518
0
VERTEX
8
1
10
11.929920
20
34.150558
42
0.050935
0
VERTEX
8
1
10
12.044659
20
34.150719
42
-0.038337
0
VERTEX
8
1
10
12.278496
20
34.139183
42
-0.047509
0
VERTEX
8
1
10
12.313343
20
34.106865
42
0.392415
0
VERTEX
8
1
10
12.356503
20
34.127007
42
-0.276203
0
VERTEX
8
1
10
12.383987
20
34.141556
42
-0.044781
0
VERTEX
8
1
10
12.538002
20
34.148460
42
0.085584
0
VERTEX
8
1
10
12.799412
20
34.235924
42
0.148644
0
VERTEX
8
1
10
12.927385
20
34.323418
42
-0.095147
0
VERTEX
8
1
10
12.961389
20
34.341904
42
-0.330440
0
VERTEX
8
1
10
12.938145
20
34.180653
42
-0.101818
0
VERTEX
8
1
10
12.778731
20
34.057442
42
-0.060906
0
VERTEX
8
1
10
12.673847
20
34.005081
42
-0.010000
0
VERTEX
8
1
10
12.581661
20
33.977974
42
0.007560
0
VERTEX
8
1
10
12.490361
20
33.913715
42
-0.115627
0
VERTEX
8
1
10
12.459778
20
33.909805
0
VERTEX
8
1
10
12.461639
20
33.900444
0
VERTEX
8
1
10
12.479610
20
33.885803
42
0.144365
0
VERTEX
8
1
10
12.636539
20
33.864807
42
-0.039733
0
VERTEX
8
1
10
12.959446
20
33.857601
42
0.127915
0
VERTEX
8
1
10
13.162907
20
33.905228
42
-0.109816
0
VERTEX
8
1
10
13.257264
20
33.916096
42
0.207854
0
VERTEX
8
1
10
13.294319
20
33.941750
42
-0.283162
0
VERTEX
8
1
10
13.367734
20
33.946083
42
0.312945
0
VERTEX
8
1
10
13.429230
20
33.976471
42
-0.040220
0
SEQEND
0
POLYLINE
8
1
66
1
70
1
0
VERTEX
8
1
10
13.057899
20
33.265190
42
0.020564
0
VERTEX
8
1
10
13.062119
20
33.233673
42
-0.155375
0
VERTEX
8
1
10
13.030987
20
33.255341
0
VERTEX
8
1
10
13.033241
20
33.259583
0
VERTEX
8
1
10
13.053226
20
33.266624
0
SEQEND
0
POLYLINE
8
1
66
1
70
1
0
VERTEX
8
1
10
12.660927
20
33.151360
42
0.022392
0
VERTEX
8
1
10
12.979839
20
33.241325
42
0.039543
0
VERTEX
8
1
10
13.046825
20
33.081009
42
-0.263905
0
VERTEX
8
1
10
13.021175
20
32.980774
42
0.062266
0
VERTEX
8
1
10
12.929527
20
32.863083
0
VERTEX
8
1
10
12.888214
20
32.802773
42
0.102342
0
VERTEX
8
1
10
12.821960
20
32.656929
42
-0.097564
0
VERTEX
8
1
10
12.735176
20
32.485802
0
VERTEX
8
1
10
12.707359
20
32.430199
42
0.067229
0
VERTEX
8
1
10
12.666973
20
32.361221
0
VERTEX
8
1
10
12.665307
20
32.370308
42
0.204057
0
VERTEX
8
1
10
12.392868
20
33.071472
0
VERTEX
8
1
10
12.405731
20
33.099281
42
0.014948
0
SEQEND
0
POLYLINE
8
1
66
1
70
1
0
VERTEX
8
1
10
13.723808
20
31.254837
0
VERTEX
8
1
10
13.705259
20
31.201988
42
0.261236
0
VERTEX
8
1
10
13.737473
20
31.076370
42
-0.012090
0
VERTEX
8
1
10
13.777298
20
31.022148
42
0.092108
0
VERTEX
8
1
10
13.510686
20
31.095652
42
0.006608
0
VERTEX
8
1
10
13.393079
20
31.075500
42
-0.015937
0
VERTEX
8
1
10
12.580124
20
31.011566
0
VERTEX
8
1
10
12.413868
20
31.676811
42
0.083935
0
VERTEX
8
1
10
12.613472
20
32.073753
0
VERTEX
8
1
10
12.619789
20
32.071686
0
VERTEX
8
1
10
12.635142
20
32.048515
42
0.354004
0
VERTEX
8
1
10
12.711964
20
32.012150
42
-0.344811
0
VERTEX
8
1
10
12.734165
20
31.988121
42
0.431510
0
VERTEX
8
1
10
12.863117
20
31.992348
42
0.243854
0
VERTEX
8
1
10
12.912616
20
32.081474
42
-0.145562
0
VERTEX
8
1
10
12.965023
20
32.130806
42
0.054805
0
VERTEX
8
1
10
13.154421
20
32.284920
42
-0.117674
0
VERTEX
8
1
10
13.342703
20
32.384525
42
0.122556
0
VERTEX
8
1
10
13.414253
20
32.435547
0
VERTEX
8
1
10
13.422840
20
32.453796
0
VERTEX
8
1
10
13.426414
20
32.472076
0
VERTEX
8
1
10
13.461304
20
32.458115
0
VERTEX
8
1
10
13.467113
20
32.460865
42
0.079795
0
VERTEX
8
1
10
13.525579
20
32.463249
42
-0.185119
0
VERTEX
8
1
10
13.606606
20
32.431549
42
-0.029010
0
VERTEX
8
1
10
13.732830
20
32.309837
0
VERTEX
8
1
10
13.813747
20
32.234787
42
-0.115078
0
VERTEX
8
1
10
14.077671
20
31.870476
0
VERTEX
8
1
10
14.086086
20
31.842743
42
0.072314
0
VERTEX
8
1
10
14.187074
20
31.528601
0
VERTEX
8
1
10
14.200672
20
31.494667
0
VERTEX
8
1
10
14.132229
20
31.481003
42
-0.008775
0
VERTEX
8
1
10
13.920967
20
31.399048
0
VERTEX
8
1
10
13.894573
20
31.392967
0
VERTEX
8
1
10
13.867405
20
31.389275
42
0.303565
0
VERTEX
8
1
10
13.733673
20
31.279716
0
SEQEND
0
POLYLINE
8
1
66
1
70
1
0
VERTEX
8
1
10
14.439812
20
33.032494
42
0.096207
0
VERTEX
8
1
10
14.535957
20
33.084038
0
VERTEX
8
1
10
14.541626
20
33.094696
0
VERTEX
8
1
10
14.542004
20
33.106445
42
-0.053973
0
VERTEX
8
1
10
14.336170
20
33.052460
0
VERTEX
8
1
10
14.324575
20
33.053749
0
VERTEX
8
1
10
14.313237
20
33.056488
42
-0.151108
0
VERTEX
8
1
10
14.349057
20
33.132206
42
0.129574
0
VERTEX
8
1
10
14.353626
20
33.160431
0
VERTEX
8
1
10
14.345291
20
33.156982
42
-0.049719
0
VERTEX
8
1
10
14.237193
20
33.054028
42
-0.213109
0
VERTEX
8
1
10
14.202343
20
33.056046
0
VERTEX
8
1
10
14.205333
20
33.072029
42
-0.101198
0
VERTEX
8
1
10
14.283858
20
33.159092
42
0.216860
0
VERTEX
8
1
10
14.306541
20
33.230766
0
VERTEX
8
1
10
14.299641
20
33.237816
42
0.094496
0
VERTEX
8
1
10
14.225269
20
33.172028
42
-0.154293
0
VERTEX
8
1
10
14.107239
20
33.133751
42
0.184217
0
VERTEX
8
1
10
14.234174
20
33.251419
42
0.089877
0
VERTEX
8
1
10
14.235619
20
33.278198
0
VERTEX
8
1
10
14.226383
20
33.278290
42
0.041895
0
VERTEX
8
1
10
14.132599
20
33.220741
42
-0.268290
0
VERTEX
8
1
10
13.962746
20
33.222969
42
0.287791
0
VERTEX
8
1
10
13.904980
20
33.186836
42
-0.087342
0
VERTEX
8
1
10
13.867249
20
33.143921
42
-0.256153
0
VERTEX
8
1
10
13.770829
20
33.177750
42
-0.139930
0
VERTEX
8
1
10
13.777021
20
33.245037
42
0.305089
0
VERTEX
8
1
10
13.761933
20
33.264442
42
-0.187402
0
VERTEX
8
1
10
13.642894
20
33.152649
42
-0.477463
0
VERTEX
8
1
10
13.602079
20
33.187210
42
0.043441
0
VERTEX
8
1
10
13.586948
20
33.238266
0
VERTEX
8
1
10
13.578594
20
33.247108
0
VERTEX
8
1
10
13.567224
20
33.253105
42
-0.124943
0
VERTEX
8
1
10
13.538740
20
33.146988
42
-0.834181
0
VERTEX
8
1
10
13.477556
20
33.203217
42
-0.061446
0
VERTEX
8
1
10
13.541393
20
33.294434
42
0.182871
0
VERTEX
8
1
10
13.412666
20
33.213924
42
-0.032692
0
VERTEX
8
1
10
13.348475
20
33.152241
42
-0.291396
0
VERTEX
8
1
10
13.308533
20
33.158127
0
VERTEX
8
1
10
13.316875
20
33.168262
42
0.387466
0
VERTEX
8
1
10
13.316533
20
33.252968
42
-0.203479
0
VERTEX
8
1
10
13.230057
20
33.180634
0
VERTEX
8
1
10
13.222172
20
33.181656
42
-0.156790
0
VERTEX
8
1
10
13.114105
20
33.281425
0
VERTEX
8
1
10
13.123913
20
33.292915
0
VERTEX
8
1
10
13.324436
20
33.378914
0
VERTEX
8
1
10
13.502899
20
33.472198
0
VERTEX
8
1
10
13.660759
20
33.571289
42
0.143807
0
VERTEX
8
1
10
14.396137
20
34.470413
0
VERTEX
8
1
10
14.482468
20
34.487000
42
-0.020757
0
VERTEX
8
1
10
15.242196
20
34.170830
42
0.038710
0
VERTEX
8
1
10
15.535347
20
34.072014
0
VERTEX
8
1
10
15.615936
20
34.057808
0
VERTEX
8
1
10
15.695538
20
34.052063
0
VERTEX
8
1
10
15.762775
20
34.040024
0
VERTEX
8
1
10
15.819901
20
33.999840
0
VERTEX
8
1
10
15.868740
20
33.936386
0
VERTEX
8
1
10
15.909924
20
33.854927
0
VERTEX
8
1
10
15.944073
20
33.760712
42
-0.054659
0
VERTEX
8
1
10
16.038734
20
33.185295
0
VERTEX
8
1
10
16.050903
20
33.172478
0
VERTEX
8
1
10
16.107590
20
33.173325
0
VERTEX
8
1
10
16.183132
20
33.200974
0
VERTEX
8
1
10
16.273781
20
33.255409
0
VERTEX
8
1
10
16.375782
20
33.336617
0
VERTEX
8
1
10
16.485386
20
33.444618
0
VERTEX
8
1
10
16.598831
20
33.579399
0
VERTEX
8
1
10
16.712376
20
33.740959
0
VERTEX
8
1
10
16.822262
20
33.929306
0
VERTEX
8
1
10
16.924744
20
34.144440
0
VERTEX
8
1
10
17.016060
20
34.386353
0
VERTEX
8
1
10
17.092468
20
34.655060
0
VERTEX
8
1
10
17.150208
20
34.950539
0
VERTEX
8
1
10
17.259245
20
34.989212
42
0.000413
0
VERTEX
8
1
10
18.019045
20
34.446186
42
0.031713
0
VERTEX
8
1
10
18.519569
20
34.155159
0
VERTEX
8
1
10
18.691387
20
34.081070
0
VERTEX
8
1
10
18.865589
20
34.023293
0
VERTEX
8
1
10
19.041946
20
33.984711
0
VERTEX
8
1
10
19.208160
20
33.965454
42
0.016086
0
VERTEX
8
1
10
19.747948
20
33.141403
0
VERTEX
8
1
10
19.740978
20
33.136574
0
VERTEX
8
1
10
19.757545
20
33.114517
0
VERTEX
8
1
10
19.767403
20
33.114517
0
VERTEX
8
1
10
19.799507
20
33.070740
0
VERTEX
8
1
10
19.807137
20
32.971573
0
VERTEX
8
1
10
19.803707
20
32.971565
0
VERTEX
8
1
10
19.035095
20
33.075874
0
VERTEX
8
1
10
19.033981
20
33.073273
0
VERTEX
8
1
10
18.969345
20
32.895508
0
VERTEX
8
1
10
18.968140
20
32.893456
0
VERTEX
8
1
10
18.599800
20
32.640572
0
VERTEX
8
1
10
18.599037
20
32.648514
0
VERTEX
8
1
10
18.582623
20
33.577942
42
0.181372
0
VERTEX
8
1
10
18.357592
20
33.991383
42
0.077966
0
VERTEX
8
1
10
18.223743
20
34.065506
0
VERTEX
8
1
10
18.131535
20
34.089806
0
VERTEX
8
1
10
18.029938
20
34.095146
0
VERTEX
8
1
10
17.939125
20
34.082619
42
0.270403
0
VERTEX
8
1
10
17.563877
20
33.726234
0
VERTEX
8
1
10
17.551411
20
33.688713
42
-0.020217
0
VERTEX
8
1
10
17.506859
20
33.748512
0
VERTEX
8
1
10
17.413399
20
33.561592
0
VERTEX
8
1
10
17.431210
20
32.505142
0
VERTEX
8
1
10
17.430660
20
32.490036
42
0.019367
0
VERTEX
8
1
10
17.250628
20
32.492981
42
0.140852
0
VERTEX
8
1
10
17.193810
20
32.466042
42
0.013640
0
VERTEX
8
1
10
17.140091
20
32.479652
42
0.312200
0
VERTEX
8
1
10
17.113018
20
32.505119
42
-0.158030
0
VERTEX
8
1
10
17.065018
20
32.556854
42
0.154097
0
VERTEX
8
1
10
16.951923
20
32.643181
42
0.124395
0
VERTEX
8
1
10
16.871799
20
32.701385
42
0.113470
0
VERTEX
8
1
10
16.612133
20
32.780190
42
0.129829
0
VERTEX
8
1
10
16.395229
20
32.767212
42
-0.049931
0
VERTEX
8
1
10
16.152428
20
32.747963
42
-0.034393
0
VERTEX
8
1
10
15.830666
20
32.716003
42
-0.041793
0
VERTEX
8
1
10
14.773582
20
32.681519
0
VERTEX
8
1
10
14.752689
20
32.695435
42
-0.189596
0
VERTEX
8
1
10
14.719688
20
32.720078
42
0.082439
0
VERTEX
8
1
10
14.672720
20
32.730343
42
-0.588163
0
VERTEX
8
1
10
14.676543
20
32.769852
42
0.167650
0
VERTEX
8
1
10
14.702938
20
32.805672
42
0.088054
0
VERTEX
8
1
10
14.638561
20
32.787605
42
-0.248195
0
VERTEX
8
1
10
14.580830
20
32.800804
0
VERTEX
8
1
10
14.580368
20
32.809433
42
-0.164675
0
VERTEX
8
1
10
14.647569
20
32.880024
42
0.037802
0
VERTEX
8
1
10
14.657909
20
32.891228
42
0.123876
0
VERTEX
8
1
10
14.498085
20
32.867783
42
-0.106354
0
VERTEX
8
1
10
14.460711
20
32.870911
42
-0.263369
0
VERTEX
8
1
10
14.464619
20
32.891464
42
0.167857
0
VERTEX
8
1
10
14.588558
20
32.993912
0
VERTEX
8
1
10
14.591084
20
33.005829
0
VERTEX
8
1
10
14.584641
20
33.008743
42
0.064085
0
VERTEX
8
1
10
14.498924
20
32.984444
42
-0.095991
0
VERTEX
8
1
10
14.380089
20
32.989708
0
VERTEX
8
1
10
14.380669
20
32.996437
42
-0.107069
0
SEQEND
0
POLYLINE
8
1
66
1
70
1
0
VERTEX
8
1
10
17.625862
20
30.995102
0
VERTEX
8
1
10
17.626038
20
30.994087
42
-0.035877
0
VERTEX
8
1
10
17.550865
20
30.996391
0
SEQEND
0
POLYLINE
8
1
66
1
70
1
0
VERTEX
8
1
10
17.446350
20
31.614227
0
VERTEX
8
1
10
16.966465
20
31.376991
0
VERTEX
8
1
10
16.999565
20
31.354942
0
VERTEX
8
1
10
17.037594
20
31.371231
0
VERTEX
8
1
10
17.038162
20
31.371109
0
VERTEX
8
1
10
17.028545
20
31.039421
0
VERTEX
8
1
10
17.022802
20
31.035593
42
0.001486
0
VERTEX
8
1
10
16.550344
20
31.038874
0
VERTEX
8
1
10
16.543510
20
31.053566
42
-0.152671
0
VERTEX
8
1
10
16.787804
20
31.379623
42
0.000943
0
VERTEX
8
1
10
16.983131
20
31.527641
42
-0.001255
0
VERTEX
8
1
10
17.226017
20
31.768120
42
0.102589
0
VERTEX
8
1
10
17.315132
20
31.920313
42
0.151450
0
VERTEX
8
1
10
17.309280
20
31.975525
42
0.171028
0
VERTEX
8
1
10
17.304054
20
32.078438
0
VERTEX
8
1
10
17.286161
20
32.138214
42
-0.167751
0
VERTEX
8
1
10
17.278194
20
32.234985
0
VERTEX
8
1
10
17.291542
20
32.249496
0
VERTEX
8
1
10
17.311073
20
32.256615
0
VERTEX
8
1
10
17.326279
20
32.249763
0
VERTEX
8
1
10
17.337700
20
32.231628
42
-0.073756
0
VERTEX
8
1
10
17.358364
20
32.005402
42
0.254451
0
VERTEX
8
1
10
17.397400
20
32.034660
0
VERTEX
8
1
10
17.402401
20
32.038177
0
VERTEX
8
1
10
17.406963
20
32.036591
42
-0.206684
0
VERTEX
8
1
10
17.412605
20
31.929596
42
-0.189574
0
VERTEX
8
1
10
17.286472
20
31.680664
0
VERTEX
8
1
10
17.295490
20
31.675636
0
VERTEX
8
1
10
17.314262
20
31.678268
0
VERTEX
8
1
10
17.332085
20
31.684273
42
0.156780
0
VERTEX
8
1
10
17.443012
20
31.810738
0
SEQEND
0
POLYLINE
8
1
66
1
70
1
0
VERTEX
8
1
10
17.214855
20
31.365959
0
VERTEX
8
1
10
17.369125
20
31.365959
0
VERTEX
8
1
10
17.369125
20
31.016525
42
-0.253799
0
VERTEX
8
1
10
17.214680
20
31.011833
0
VERTEX
8
1
10
17.214680
20
31.359734
0
SEQEND
0
POLYLINE
8
1
66
1
70
1
0
VERTEX
8
1
10
17.432339
20
32.438622
0
VERTEX
8
1
10
17.432507
20
32.428646
42
-0.988213
0
SEQEND
0
POLYLINE
8
1
66
1
70
1
0
VERTEX
8
1
10
14.586910
20
30.761887
42
-0.079225
0
VERTEX
8
1
10
14.436241
20
30.756439
0
VERTEX
8
1
10
14.419575
20
30.762650
0
VERTEX
8
1
10
14.417206
20
30.775276
42
-0.195639
0
VERTEX
8
1
10
14.469349
20
30.857140
0
VERTEX
8
1
10
14.485264
20
30.870819
0
VERTEX
8
1
10
14.622269
20
30.878288
42
0.250533
0
VERTEX
8
1
10
14.519806
20
30.897285
42
0.109142
0
VERTEX
8
1
10
14.821619
20
31.169100
42
-0.181010
0
VERTEX
8
1
10
14.869827
20
31.184975
42
-0.138727
0
VERTEX
8
1
10
14.917728
20
31.189461
42
0.083591
0
VERTEX
8
1
10
15.077797
20
31.199944
0
VERTEX
8
1
10
15.087467
20
31.198647
42
-0.054129
0
VERTEX
8
1
10
15.270878
20
31.197058
42
0.072459
0
VERTEX
8
1
10
15.343502
20
31.206650
42
0.010964
0
VERTEX
8
1
10
15.606981
20
31.229900
0
VERTEX
8
1
10
15.641425
20
31.236897
42
0.003197
0
VERTEX
8
1
10
15.998858
20
31.338305
0
VERTEX
8
1
10
16.011919
20
31.345572
0
VERTEX
8
1
10
16.024147
20
31.354164
42
-0.226017
0
VERTEX
8
1
10
16.147781
20
31.031670
0
VERTEX
8
1
10
16.137432
20
31.030167
42
0.471123
0
VERTEX
8
1
10
16.073208
20
31.001884
42
0.157847
0
VERTEX
8
1
10
15.854105
20
31.008923
42
-0.063311
0
VERTEX
8
1
10
15.596976
20
30.999250
42
0.192309
0
VERTEX
8
1
10
15.533981
20
30.965889
42
-0.198893
0
VERTEX
8
1
10
15.444584
20
30.944786
42
0.051192
0
VERTEX
8
1
10
15.273788
20
30.948563
42
0.132635
0
VERTEX
8
1
10
15.228321
20
30.916130
42
-0.146960
0
VERTEX
8
1
10
15.194988
20
30.906158
42
-0.002728
0
VERTEX
8
1
10
15.041138
20
30.912216
42
0.098959
0
VERTEX
8
1
10
15.047371
20
30.951981
0
VERTEX
8
1
10
15.053379
20
30.958687
0
VERTEX
8
1
10
15.070534
20
30.969337
42
0.093246
0
VERTEX
8
1
10
15.146713
20
31.085579
42
0.205169
0
VERTEX
8
1
10
15.101721
20
31.091539
42
0.016213
0
VERTEX
8
1
10
15.033413
20
31.101418
42
-0.413833
0
VERTEX
8
1
10
15.018738
20
31.101532
42
0.192906
0
VERTEX
8
1
10
14.883846
20
31.090591
42
-0.235823
0
VERTEX
8
1
10
14.844315
20
31.064331
0
VERTEX
8
1
10
14.834499
20
31.056915
42
0.088148
0
VERTEX
8
1
10
14.811707
20
30.998055
0
VERTEX
8
1
10
14.815678
20
30.987823
42
-0.214858
0
VERTEX
8
1
10
14.848362
20
30.913742
42
0.023470
0
VERTEX
8
1
10
14.678509
20
30.880615
42
-0.023801
0
VERTEX
8
1
10
14.822437
20
30.874939
0
VERTEX
8
1
10
14.815994
20
30.866913
0
VERTEX
8
1
10
14.802071
20
30.858986
42
0.072894
0
VERTEX
8
1
10
14.645362
20
30.782104
42
-0.068264
0
SEQEND
0
POLYLINE
8
1
66
1
70
1
0
VERTEX
8
1
10
15.759266
20
30.374222
42
-0.108735
0
VERTEX
8
1
10
15.704082
20
30.391212
0
VERTEX
8
1
10
15.705582
20
30.399391
42
0.532773
0
VERTEX
8
1
10
15.683674
20
30.444611
0
VERTEX
8
1
10
15.668396
20
30.448906
0
VERTEX
8
1
10
15.670279
20
30.477570
42
-0.539310
0
VERTEX
8
1
10
15.717483
20
30.500040
42
0.298761
0
VERTEX
8
1
10
15.818130
20
30.552765
42
-0.138947
0
VERTEX
8
1
10
15.937176
20
30.668671
42
-0.043227
0
VERTEX
8
1
10
16.095661
20
30.751373
42
0.018841
0
VERTEX
8
1
10
16.123608
20
30.746346
0
VERTEX
8
1
10
16.114159
20
30.727432
42
0.320514
0
VERTEX
8
1
10
16.104843
20
30.714111
0
VERTEX
8
1
10
16.094669
20
30.711708
42
-0.062325
0
VERTEX
8
1
10
15.979174
20
30.485397
42
-0.083574
0
VERTEX
8
1
10
15.878586
20
30.398079
42
0.041299
0
VERTEX
8
1
10
15.784374
20
30.374146
0
VERTEX
8
1
10
15.771908
20
30.373703
0
SEQEND
0
POLYLINE
8
1
66
1
70
1
0
VERTEX
8
1
10
15.554543
20
30.594994
42
-0.148572
0
VERTEX
8
1
10
15.482265
20
30.458549
42
0.068544
0
VERTEX
8
1
10
15.437080
20
30.387199
42
0.030838
0
VERTEX
8
1
10
15.194752
20
30.378586
42
0.064695
0
VERTEX
8
1
10
15.136551
20
30.346191
42
-0.166747
0
VERTEX
8
1
10
15.041851
20
30.347834
42
0.060260
0
VERTEX
8
1
10
14.965034
20
30.352448
0
VERTEX
8
1
10
14.955509
20
30.348480
0
VERTEX
8
1
10
14.946415
20
30.318634
0
VERTEX
8
1
10
14.937969
20
30.318008
0
VERTEX
8
1
10
14.877457
20
30.324089
0
VERTEX
8
1
10
14.873955
20
30.323753
0
VERTEX
8
1
10
14.854515
20
30.319740
42
0.014574
0
VERTEX
8
1
10
14.485973
20
30.602310
0
VERTEX
8
1
10
14.494392
20
30.605171
42
0.067514
0
VERTEX
8
1
10
14.660526
20
30.634773
42
0.131339
0
VERTEX
8
1
10
14.736824
20
30.640900
42
0.302398
0
VERTEX
8
1
10
14.746941
20
30.638893
42
-0.090876
0
VERTEX
8
1
10
14.852638
20
30.652935
42
0.351101
0
VERTEX
8
1
10
14.919479
20
30.731304
42
-0.155178
0
VERTEX
8
1
10
14.994427
20
30.838058
42
-0.087857
0
VERTEX
8
1
10
15.141155
20
30.791023
42
0.100625
0
VERTEX
8
1
10
15.290104
20
30.770309
0
VERTEX
8
1
10
15.344074
20
30.771881
42
-0.029894
0
VERTEX
8
1
10
15.599800
20
30.784225
42
-0.071503
0
VERTEX
8
1
10
15.690334
20
30.761520
42
0.212603
0
SEQEND
0
POLYLINE
8
1
66
1
70
1
0
VERTEX
8
1
10
19.791111
20
30.367569
42
0.055477
0
VERTEX
8
1
10
18.924877
20
29.295944
42
-0.099264
0
VERTEX
8
1
10
18.489496
20
28.865822
42
-0.057149
0
VERTEX
8
1
10
18.186914
20
28.725990
42
0.096794
0
VERTEX
8
1
10
18.015751
20
28.613541
0
VERTEX
8
1
10
17.972004
20
28.581383
42
0.028346
0
VERTEX
8
1
10
17.629168
20
28.359488
42
0.171264
0
VERTEX
8
1
10
17.279720
20
27.818489
0
VERTEX
8
1
10
17.256386
20
27.689888
0
VERTEX
8
1
10
17.245544
20
27.545998
42
0.028998
0
VERTEX
8
1
10
17.278296
20
26.838852
42
-0.010294
0
VERTEX
8
1
10
17.353443
20
25.962231
42
-0.022288
0
VERTEX
8
1
10
17.349529
20
25.729294
0
VERTEX
8
1
10
17.333466
20
25.651642
0
VERTEX
8
1
10
17.305645
20
25.606873
0
VERTEX
8
1
10
17.264343
20
25.599205
0
VERTEX
8
1
10
17.207829
20
25.632866
42
0.068109
0
VERTEX
8
1
10
16.681160
20
25.992687
42
0.057633
0
VERTEX
8
1
10
16.538589
20
26.032799
0
VERTEX
8
1
10
16.483791
20
26.029884
0
VERTEX
8
1
10
16.439510
20
26.010139
0
VERTEX
8
1
10
16.407539
20
25.971550
0
VERTEX
8
1
10
16.389679
20
25.912117
0
VERTEX
8
1
10
16.387733
20
25.829834
0
VERTEX
8
1
10
16.403500
20
25.722687
42
-0.075719
0
VERTEX
8
1
10
16.478962
20
25.114746
42
-0.075828
0
VERTEX
8
1
10
16.438118
20
24.955023
42
-0.149599
0
VERTEX
8
1
10
16.377666
20
24.899727
0
VERTEX
8
1
10
16.345726
20
24.897186
0
VERTEX
8
1
10
16.310925
20
24.908226
0
VERTEX
8
1
10
16.273743
20
24.933205
42
-0.130342
0
VERTEX
8
1
10
16.131649
20
25.153259
42
-0.049022
0
VERTEX
8
1
10
16.013659
20
25.571922
42
0.009902
0
VERTEX
8
1
10
15.861836
20
26.297024
42
0.047573
0
VERTEX
8
1
10
15.733287
20
26.636538
42
-0.140238
0
VERTEX
8
1
10
15.594345
20
27.750938
0
VERTEX
8
1
10
15.613209
20
27.874834
42
-0.015346
0
VERTEX
8
1
10
15.839449
20
28.873161
42
0.033104
0
VERTEX
8
1
10
15.891376
20
29.192665
0
VERTEX
8
1
10
15.890163
20
29.241722
42
0.311118
0
VERTEX
8
1
10
15.804829
20
29.358643
42
-0.077194
0
VERTEX
8
1
10
15.680199
20
29.459862
0
VERTEX
8
1
10
15.691803
20
29.463257
42
0.006179
0
VERTEX
8
1
10
15.972726
20
29.475403
42
0.004286
0
VERTEX
8
1
10
16.278893
20
29.524864
42
0.071486
0
VERTEX
8
1
10
16.477650
20
29.548136
42
0.123257
0
VERTEX
8
1
10
16.508270
20
29.574570
42
0.053170
0
VERTEX
8
1
10
16.101040
20
29.708237
42
0.019606
0
VERTEX
8
1
10
16.459709
20
29.704918
42
0.030146
0
VERTEX
8
1
10
17.184929
20
29.678146
42
0.025130
0
VERTEX
8
1
10
17.860596
20
29.697716
42
-0.021547
0
VERTEX
8
1
10
18.129879
20
29.688568
42
-0.012440
0
VERTEX
8
1
10
18.669865
20
29.688385
42
0.101029
0
VERTEX
8
1
10
19.055853
20
29.786173
0
VERTEX
8
1
10
19.085363
20
29.798710
0
VERTEX
8
1
10
19.114769
20
29.811493
0
VERTEX
8
1
10
19.124462
20
29.820953
42
0.206745
0
VERTEX
8
1
10
19.095413
20
29.845505
42
0.114563
0
VERTEX
8
1
10
18.859608
20
29.855873
42
-0.067200
0
VERTEX
8
1
10
18.554804
20
29.855528
42
0.005103
0
VERTEX
8
1
10
17.951134
20
29.873848
42
-0.015454
0
VERTEX
8
1
10
17.593727
20
29.903831
0
VERTEX
8
1
10
17.572414
20
29.909174
0
VERTEX
8
1
10
17.551376
20
29.915522
42
0.160563
0
VERTEX
8
1
10
17.130085
20
29.951492
42
-0.162900
0
VERTEX
8
1
10
16.935768
20
29.981255
42
0.139583
0
VERTEX
8
1
10
16.661377
20
30.022797
42
-0.080342
0
VERTEX
8
1
10
16.505291
20
30.046700
0
VERTEX
8
1
10
16.487270
20
30.056129
0
VERTEX
8
1
10
16.471485
20
30.067833
0
VERTEX
8
1
10
16.490925
20
30.082703
42
-0.093472
0
VERTEX
8
1
10
16.763851
20
30.132423
42
0.059216
0
VERTEX
8
1
10
17.053158
20
30.170525
42
-0.041089
0
VERTEX
8
1
10
17.286930
20
30.181274
42
0.036916
0
VERTEX
8
1
10
17.478306
20
30.203186
42
-0.051403
0
VERTEX
8
1
10
17.653297
20
30.186302
42
0.227579
0
VERTEX
8
1
10
17.855207
20
30.260561
42
0.829902
0
VERTEX
8
1
10
17.797174
20
30.314856
0
VERTEX
8
1
10
17.784262
20
30.311214
42
-0.237557
0
VERTEX
8
1
10
17.704260
20
30.324783
0
VERTEX
8
1
10
17.685347
20
30.335938
0
VERTEX
8
1
10
17.667328
20
30.348488
42
0.192709
0
VERTEX
8
1
10
17.582386
20
30.336098
42
-0.193836
0
VERTEX
8
1
10
17.454369
20
30.336918
42
0.162037
0
VERTEX
8
1
10
17.330456
20
30.318018
42
-0.118142
0
VERTEX
8
1
10
17.240387
20
30.312462
42
-0.140676
0
VERTEX
8
1
10
17.194252
20
30.351120
42
-0.158142
0
VERTEX
8
1
10
16.963385
20
30.344625
42
0.211987
0
VERTEX
8
1
10
16.862137
20
30.317757
0
VERTEX
8
1
10
16.851467
20
30.318039
42
0.208202
0
VERTEX
8
1
10
16.570858
20
30.359966
42
0.008570
0
VERTEX
8
1
10
16.524601
20
30.342052
42
-0.382987
0
VERTEX
8
1
10
16.490776
20
30.370850
42
0.055064
0
VERTEX
8
1
10
16.367043
20
30.394386
42
-0.071609
0
VERTEX
8
1
10
16.244785
20
30.383896
42
0.150193
0
VERTEX
8
1
10
16.115562
20
30.406578
42
-0.072265
0
VERTEX
8
1
10
16.368813
20
30.598814
42
0.173097
0
VERTEX
8
1
10
16.440290
20
30.705597
42
-0.001532
0
VERTEX
8
1
10
16.651772
20
30.742577
42
0.004602
0
VERTEX
8
1
10
17.033943
20
30.755730
42
-0.072653
0
VERTEX
8
1
10
17.106510
20
30.740677
42
0.180863
0
VERTEX
8
1
10
17.190416
20
30.773140
42
-0.257780
0
VERTEX
8
1
10
17.265451
20
30.764658
42
0.071305
0
VERTEX
8
1
10
17.341637
20
30.743834
42
0.257863
0
VERTEX
8
1
10
17.383064
20
30.771210
0
VERTEX
8
1
10
17.389709
20
30.777733
42
0.088578
0
VERTEX
8
1
10
17.461246
20
30.743248
42
0.032915
0
VERTEX
8
1
10
17.368404
20
30.711754
42
-0.029047
0
VERTEX
8
1
10
17.206738
20
30.699982
42
0.203619
0
VERTEX
8
1
10
17.056990
20
30.616608
42
0.373303
0
VERTEX
8
1
10
17.069756
20
30.566818
42
0.213840
0
VERTEX
8
1
10
17.259125
20
30.550171
42
-0.091753
0
VERTEX
8
1
10
17.518505
20
30.580582
42
0.036923
0
VERTEX
8
1
10
17.974232
20
30.594307
42
0.026300
0
VERTEX
8
1
10
18.368977
20
30.617821
42
0.050369
0
VERTEX
8
1
10
18.705162
20
30.650848
42
-0.034807
0
VERTEX
8
1
10
19.081301
20
30.664074
42
0.104746
0
VERTEX
8
1
10
19.210630
20
30.695070
42
-0.050256
0
VERTEX
8
1
10
19.289295
20
30.712488
42
-0.314933
0
VERTEX
8
1
10
19.331600
20
30.675728
0
VERTEX
8
1
10
19.317726
20
30.666542
42
0.025742
0
VERTEX
8
1
10
18.983192
20
30.584867
42
0.085413
0
VERTEX
8
1
10
18.898270
20
30.534264
0
VERTEX
8
1
10
18.883934
20
30.515831
0
VERTEX
8
1
10
18.884480
20
30.501022
42
0.100707
0
VERTEX
8
1
10
19.114243
20
30.491753
42
0.036053
0
VERTEX
8
1
10
19.569218
20
30.527885
42
0.022604
0
VERTEX
8
1
10
19.962439
20
30.576939
0
VERTEX
8
1
10
19.978100
20
30.578033
0
VERTEX
8
1
10
19.959507
20
30.544579
0
SEQEND
0
POLYLINE
8
1
66
1
70
1
0
VERTEX
8
1
10
20.214901
20
35.427490
0
VERTEX
8
1
10
20.178699
20
35.518410
42
0.106371
0
VERTEX
8
1
10
20.084171
20
35.674843
0
VERTEX
8
1
10
20.050980
20
35.698433
0
VERTEX
8
1
10
20.012180
20
35.712334
42
0.139017
0
VERTEX
8
1
10
20.003061
20
35.332680
42
0.016744
0
VERTEX
8
1
10
20.087795
20
34.991043
42
-0.082384
0
VERTEX
8
1
10
20.107185
20
34.696102
42
-0.075678
0
VERTEX
8
1
10
20.074318
20
34.603134
42
0.127581
0
VERTEX
8
1
10
20.045277
20
34.398544
42
0.040865
0
VERTEX
8
1
10
20.094982
20
33.939552
42
-0.019640
0
VERTEX
8
1
10
20.116325
20
33.738907
42
-0.026925
0
VERTEX
8
1
10
20.165014
20
33.513081
42
-0.071673
0
VERTEX
8
1
10
20.158913
20
33.462555
0
VERTEX
8
1
10
20.148804
20
33.461861
0
VERTEX
8
1
10
20.138256
20
33.473557
42
-0.085264
0
VERTEX
8
1
10
20.077785
20
33.656952
42
0.006242
0
VERTEX
8
1
10
19.965897
20
33.918762
42
0.054558
0
VERTEX
8
1
10
19.623495
20
34.641701
42
-0.044587
0
VERTEX
8
1
10
19.523453
20
34.869362
42
-0.073275
0
VERTEX
8
1
10
19.501078
20
35.162006
42
0.108669
0
VERTEX
8
1
10
19.466953
20
35.308624
42
-0.106705
0
VERTEX
8
1
10
19.454323
20
35.465675
42
0.131223
0
VERTEX
8
1
10
19.420235
20
35.638504
42
-0.042734
0
VERTEX
8
1
10
19.359589
20
35.824821
42
0.023258
0
VERTEX
8
1
10
19.243515
20
36.073494
0
VERTEX
8
1
10
19.227650
20
36.097389
42
0.229254
0
VERTEX
8
1
10
19.142227
20
36.156662
42
0.179716
0
VERTEX
8
1
10
19.035784
20
36.081547
42
-0.032904
0
VERTEX
8
1
10
19.001572
20
36.051476
42
0.418287
0
VERTEX
8
1
10
18.895269
20
35.969139
42
-0.388688
0
VERTEX
8
1
10
18.850445
20
35.943748
0
VERTEX
8
1
10
18.842709
20
35.955238
42
-0.084182
0
VERTEX
8
1
10
18.835285
20
36.134323
0
VERTEX
8
1
10
18.840183
20
36.194756
42
0.154214
0
VERTEX
8
1
10
18.776249
20
36.506752
42
0.013351
0
VERTEX
8
1
10
18.547707
20
36.916229
42
0.059964
0
VERTEX
8
1
10
18.432205
20
37.048195
0
VERTEX
8
1
10
18.420078
20
37.054199
42
0.015563
0
VERTEX
8
1
10
18.335270
20
37.051445
42
-0.029110
0
VERTEX
8
1
10
18.347153
20
37.101746
42
-0.063705
0
VERTEX
8
1
10
18.420090
20
37.057976
0
VERTEX
8
1
10
18.431107
20
37.054123
42
-0.175611
0
VERTEX
8
1
10
18.717493
20
36.964935
42
0.023165
0
VERTEX
8
1
10
18.841467
20
36.901646
42
-0.245020
0
VERTEX
8
1
10
18.888784
20
36.806004
0
VERTEX
8
1
10
18.895479
20
36.785480
42
0.064345
0
VERTEX
8
1
10
19.071115
20
36.512314
42
0.534545
0
VERTEX
8
1
10
19.238623
20
36.554691
42
-0.078527
0
VERTEX
8
1
10
19.298948
20
36.672493
42
-0.420700
0
VERTEX
8
1
10
19.476204
20
36.671246
42
-0.111783
0
VERTEX
8
1
10
19.581417
20
36.523483
42
-0.006148
0
VERTEX
8
1
10
19.715504
20
36.206467
42
0.053802
0
VERTEX
8
1
10
19.734661
20
36.117912
42
0.539258
0
VERTEX
8
1
10
19.840057
20
36.140228
0
VERTEX
8
1
10
19.858116
20
36.173466
42
0.028744
0
VERTEX
8
1
10
20.048313
20
36.513725
0
VERTEX
8
1
10
20.058788
20
36.528549
42
0.046850
0
VERTEX
8
1
10
20.148424
20
36.491840
0
VERTEX
8
1
10
20.155081
20
36.486176
0
VERTEX
8
1
10
20.160238
20
36.479122
42
-0.007925
0
VERTEX
8
1
10
20.207504
20
36.360794
0
VERTEX
8
1
10
20.392387
20
35.693741
42
-0.030884
0
VERTEX
8
1
10
20.324192
20
35.281235
0
VERTEX
8
1
10
20.299133
20
35.290359
42
-0.125009
0
SEQEND
0
POLYLINE
8
1
66
1
70
1
0
VERTEX
8
1
10
20.747925
20
34.468399
42
0.062413
0
VERTEX
8
1
10
21.031971
20
33.757389
42
0.035522
0
VERTEX
8
1
10
21.144489
20
33.601089
0
VERTEX
8
1
10
21.215096
20
33.534225
0
VERTEX
8
1
10
21.290257
20
33.488487
0
VERTEX
8
1
10
21.369678
20
33.468285
0
VERTEX
8
1
10
21.453091
20
33.478035
0
VERTEX
8
1
10
21.540203
20
33.522133
0
VERTEX
8
1
10
21.630741
20
33.605019
0
VERTEX
8
1
10
21.724422
20
33.731094
0
VERTEX
8
1
10
21.820965
20
33.904778
0
VERTEX
8
1
10
21.920094
20
34.130478
0
VERTEX
8
1
10
21.941868
20
34.160530
42
-0.118124
0
VERTEX
8
1
10
22.590374
20
33.977928
0
VERTEX
8
1
10
22.692852
20
33.908859
0
VERTEX
8
1
10
22.788998
20
33.824265
0
VERTEX
8
1
10
22.875492
20
33.722588
0
VERTEX
8
1
10
22.949009
20
33.602242
0
VERTEX
8
1
10
23.006214
20
33.461662
0
VERTEX
8
1
10
23.043789
20
33.299263
0
VERTEX
8
1
10
23.058407
20
33.113487
0
VERTEX
8
1
10
23.046741
20
32.902748
0
VERTEX
8
1
10
23.005466
20
32.665489
0
VERTEX
8
1
10
22.931255
20
32.400124
0
VERTEX
8
1
10
22.820812
20
32.105141
42
-0.134642
0
VERTEX
8
1
10
22.643795
20
31.905380
42
-0.054333
0
VERTEX
8
1
10
22.315779
20
31.725044
42
-0.028338
0
VERTEX
8
1
10
21.759808
20
31.505699
0
VERTEX
8
1
10
21.759861
20
31.586601
0
VERTEX
8
1
10
21.902782
20
31.603096
0
VERTEX
8
1
10
21.902790
20
31.603981
0
VERTEX
8
1
10
21.445347
20
32.491257
0
VERTEX
8
1
10
21.417858
20
32.513245
42
-0.021585
0
VERTEX
8
1
10
21.013863
20
32.721077
42
-0.056010
0
VERTEX
8
1
10
20.943462
20
32.800102
0
VERTEX
8
1
10
20.364292
20
32.893875
0
VERTEX
8
1
10
20.364319
20
33.077347
0
VERTEX
8
1
10
20.378765
20
33.118217
0
VERTEX
8
1
10
20.408295
20
33.114532
0
VERTEX
8
1
10
20.413906
20
33.142029
0
VERTEX
8
1
10
20.391273
20
33.154167
42
0.011681
0
VERTEX
8
1
10
20.581226
20
33.759995
0
SEQEND
0
POLYLINE
8
1
66
1
70
1
0
VERTEX
8
1
10
24.342274
20
34.227249
0
VERTEX
8
1
10
24.307171
20
34.120651
42
-0.172840
0
VERTEX
8
1
10
24.255669
20
34.257713
42
0.142175
0
VERTEX
8
1
10
24.116236
20
34.540340
42
0.334219
0
VERTEX
8
1
10
24.076809
20
34.537781
42
0.022155
0
VERTEX
8
1
10
23.874332
20
34.415352
42
0.085132
0
VERTEX
8
1
10
23.764978
20
34.288017
42
0.017547
0
VERTEX
8
1
10
23.635426
20
34.088753
42
0.064980
0
VERTEX
8
1
10
23.531521
20
33.778847
0
VERTEX
8
1
10
23.514172
20
33.782547
42
-0.215902
0
VERTEX
8
1
10
23.481625
20
33.868416
0
VERTEX
8
1
10
23.480495
20
33.898697
42
0.005395
0
VERTEX
8
1
10
23.491459
20
34.149719
42
-0.073154
0
VERTEX
8
1
10
23.551205
20
34.343376
42
-0.086430
0
VERTEX
8
1
10
23.630316
20
34.538033
0
VERTEX
8
1
10
23.640705
20
34.559517
0
VERTEX
8
1
10
23.639523
20
34.565582
0
VERTEX
8
1
10
23.342571
20
35.055443
0
VERTEX
8
1
10
23.338184
20
35.062210
42
0.050144
0
VERTEX
8
1
10
23.261711
20
34.876133
42
-0.144266
0
VERTEX
8
1
10
23.134163
20
34.728745
42
0.214900
0
VERTEX
8
1
10
23.095707
20
34.639091
42
-0.089259
0
VERTEX
8
1
10
23.101482
20
34.683769
42
-0.062291
0
VERTEX
8
1
10
23.131329
20
34.839386
42
0.065305
0
VERTEX
8
1
10
23.171658
20
34.890129
0
VERTEX
8
1
10
23.168140
20
34.905968
0
VERTEX
8
1
10
23.118725
20
35.088547
0
VERTEX
8
1
10
23.108715
20
35.120834
0
VERTEX
8
1
10
22.931965
20
35.660667
0
VERTEX
8
1
10
23.042637
20
35.552727
0
VERTEX
8
1
10
23.040302
20
35.581711
42
0.137598
0
VERTEX
8
1
10
23.279034
20
35.420967
42
-0.005537
0
VERTEX
8
1
10
23.551830
20
35.295486
42
0.057018
0
VERTEX
8
1
10
23.865705
20
35.221863
42
-0.373482
0
VERTEX
8
1
10
24.001760
20
35.038239
42
-0.020316
0
VERTEX
8
1
10
24.000805
20
34.946510
0
VERTEX
8
1
10
24.004749
20
34.923332
42
0.250606
0
VERTEX
8
1
10
24.164791
20
34.782768
0
VERTEX
8
1
10
24.213245
20
34.768394
42
-0.328330
0
VERTEX
8
1
10
24.402020
20
34.572311
0
VERTEX
8
1
10
24.404919
20
34.518456
42
-0.076083
0
SEQEND
0
POLYLINE
8
1
66
1
70
1
0
VERTEX
8
1
10
24.807095
20
35.621109
42
0.074359
0
VERTEX
8
1
10
24.860035
20
35.641739
42
0.103288
0
VERTEX
8
1
10
24.775562
20
35.314323
42
0.003912
0
VERTEX
8
1
10
24.318867
20
35.492966
42
-0.125141
0
VERTEX
8
1
10
24.387577
20
35.503319
42
0.123085
0
VERTEX
8
1
10
24.568380
20
35.549442
42
-0.056697
0
SEQEND
0
POLYLINE
8
1
66
1
70
1
0
VERTEX
8
1
10
24.829620
20
36.459797
42
-0.188611
0
VERTEX
8
1
10
24.905666
20
36.430008
0
VERTEX
8
1
10
24.767788
20
36.385658
42
-0.268695
0
VERTEX
8
1
10
24.732525
20
36.437820
42
-0.252492
0
VERTEX
8
1
10
24.363361
20
36.145073
42
-0.075408
0
VERTEX
8
1
10
24.056652
20
36.127914
0
VERTEX
8
1
10
24.021030
20
36.134926
0
VERTEX
8
1
10
23.977207
20
36.150703
42
0.101177
0
VERTEX
8
1
10
24.032759
20
36.049206
42
0.086515
0
VERTEX
8
1
10
24.257463
20
35.835339
42
0.161020
0
VERTEX
8
1
10
24.611418
20
35.762699
42
0.142811
0
VERTEX
8
1
10
24.825039
20
35.864334
0
VERTEX
8
1
10
24.857708
20
35.889938
42
0.148312
0
VERTEX
8
1
10
25.010603
20
36.083084
42
0.136283
0
VERTEX
8
1
10
25.025339
20
36.361015
42
0.280736
0
VERTEX
8
1
10
24.918110
20
36.452248
42
0.082721
0
SEQEND
0
POLYLINE
8
1
66
1
70
1
0
VERTEX
8
1
10
25.485455
20
35.027267
42
0.093327
0
VERTEX
8
1
10
25.337765
20
35.039261
42
-0.281561
0
VERTEX
8
1
10
25.304924
20
35.033249
42
-0.104171
0
VERTEX
8
1
10
25.235050
20
35.058136
42
-0.046633
0
VERTEX
8
1
10
25.083050
20
35.119545
0
VERTEX
8
1
10
25.063557
20
35.135056
42
-0.185290
0
VERTEX
8
1
10
24.944698
20
35.449432
42
0.086310
0
VERTEX
8
1
10
24.959591
20
35.591133
42
-0.079447
0
VERTEX
8
1
10
25.018276
20
35.739334
42
-0.023353
0
VERTEX
8
1
10
25.098904
20
35.819771
42
0.095819
0
VERTEX
8
1
10
25.167629
20
35.865974
42
-0.138618
0
VERTEX
8
1
10
25.347958
20
35.922188
42
-0.104226
0
VERTEX
8
1
10
25.374752
20
35.911095
0
VERTEX
8
1
10
25.404758
20
35.847359
42
0.330415
0
VERTEX
8
1
10
25.373348
20
35.777222
42
-0.091739
0
VERTEX
8
1
10
25.350073
20
35.670448
42
0.158178
0
VERTEX
8
1
10
25.364574
20
35.529541
42
-0.059932
0
VERTEX
8
1
10
25.373386
20
35.431076
42
0.099010
0
VERTEX
8
1
10
25.487255
20
35.200508
0
VERTEX
8
1
10
25.547184
20
35.114204
0
VERTEX
8
1
10
25.575947
20
35.070930
0
VERTEX
8
1
10
25.590954
20
35.035355
42
-0.171467
0
SEQEND
0
POLYLINE
8
1
66
1
0
VERTEX
8
1
10
8.885075
20
36.434097
42
0.209037
0
VERTEX
8
1
10
8.875888
20
36.162704
42
0.090553
0
VERTEX
8
1
10
8.971806
20
35.981865
0
VERTEX
8
1
10
9.048744
20
35.885849
0
VERTEX
8
1
10
9.081654
20
35.838638
42
-0.205350
0
VERTEX
8
1
10
9.176774
20
35.392326
0
SEQEND
0
POLYLINE
8
1
66
1
0
VERTEX
8
1
10
8.186291
20
31.684937
42
0.162539
0
VERTEX
8
1
10
8.290602
20
31.666178
42
0.072912
0
VERTEX
8
1
10
8.431660
20
31.691734
0
SEQEND
0
LINE
8
1
10
20.300598
20
31.383011
11
20.300598
21
30.737747
0
POLYLINE
8
1
66
1
0
VERTEX
8
1
10
19.181927
20
32.855141
0
VERTEX
8
1
10
19.530602
20
32.699097
0
VERTEX
8
1
10
19.851383
20
32.502785
0
VERTEX
8
1
10
20.302338
20
31.516182
0
VERTEX
8
1
10
21.404148
20
31.526253
0
SEQEND
0
POLYLINE
8
1
66
1
70
1
0
VERTEX
8
1
10
18.626064
20
31.093910
0
VERTEX
8
1
10
18.372372
20
31.093910
0
VERTEX
8
1
10
18.372372
20
31.347603
0
VERTEX
8
1
10
18.626064
20
31.347603
0
SEQEND
0
POLYLINE
8
1
66
1
70
1
0
VERTEX
8
1
10
20.098595
20
31.077362
0
VERTEX
8
1
10
19.844902
20
31.077362
0
VERTEX
8
1
10
19.844902
20
31.331062
0
VERTEX
8
1
10
20.098595
20
31.331062
0
SEQEND
0
POLYLINE
8
1
66
1
70
1
0
VERTEX
8
1
10
20.677677
20
31.082878
0
VERTEX
8
1
10
20.550831
20
31.082878
0
VERTEX
8
1
10
20.550831
20
31.342087
0
VERTEX
8
1
10
20.677677
20
31.342087
0
SEQEND
0
POLYLINE
8
1
66
1
70
1
0
VERTEX
8
1
10
20.994797
20
31.096664
0
VERTEX
8
1
10
20.867947
20
31.096664
0
VERTEX
8
1
10
20.867947
20
31.355881
0
VERTEX
8
1
10
20.994797
20
31.355881
0
SEQEND
0
POLYLINE
8
1
66
1
70
1
0
VERTEX
8
1
10
21.281582
20
31.107697
0
VERTEX
8
1
10
21.154732
20
31.107697
0
VERTEX
8
1
10
21.154732
20
31.366905
0
VERTEX
8
1
10
21.281582
20
31.366905
0
SEQEND
0
POLYLINE
8
1
66
1
70
1
0
VERTEX
8
1
10
21.546307
20
31.118729
0
VERTEX
8
1
10
21.419453
20
31.118729
0
VERTEX
8
1
10
21.419453
20
31.377937
0
VERTEX
8
1
10
21.546307
20
31.377937
0
SEQEND
0
POLYLINE
8
1
66
1
70
1
0
VERTEX
8
1
10
19.769562
20
32.021812
0
VERTEX
8
1
10
19.598595
20
32.021812
0
VERTEX
8
1
10
19.598595
20
32.225868
0
VERTEX
8
1
10
19.769562
20
32.225868
0
SEQEND
0
POLYLINE
8
1
66
1
0
VERTEX
8
1
10
17.586452
20
32.332115
42
-0.047024
0
VERTEX
8
1
10
17.905586
20
32.306862
0
VERTEX
8
1
10
17.923500
20
32.300747
42
-0.823563
0
VERTEX
8
1
10
17.926640
20
32.276726
42
0.129285
0
VERTEX
8
1
10
17.765791
20
32.148945
42
0.465124
0
VERTEX
8
1
10
17.793564
20
32.102692
0
VERTEX
8
1
10
17.813423
20
32.097496
42
0.007470
0
VERTEX
8
1
10
18.072887
20
32.087246
42
-0.568503
0
VERTEX
8
1
10
18.081091
20
32.033455
0
VERTEX
8
1
10
18.073137
20
32.022678
42
0.428301
0
VERTEX
8
1
10
18.077366
20
31.908234
42
0.442116
0
VERTEX
8
1
10
18.270699
20
31.901421
42
-0.056806
0
VERTEX
8
1
10
18.505173
20
32.129494
0
VERTEX
8
1
10
18.516228
20
32.134651
0
VERTEX
8
1
10
18.522804
20
32.134140
0
VERTEX
8
1
10
18.524269
20
32.127235
0
VERTEX
8
1
10
18.519985
20
32.113235
42
0.106514
0
VERTEX
8
1
10
18.404573
20
31.788750
42
0.178949
0
VERTEX
8
1
10
18.421642
20
31.748917
0
VERTEX
8
1
10
18.433189
20
31.747467
0
VERTEX
8
1
10
18.448307
20
31.752960
0
VERTEX
8
1
10
18.467175
20
31.766068
42
-0.103311
0
VERTEX
8
1
10
18.899158
20
32.035751
0
VERTEX
8
1
10
18.922173
20
32.040085
0
VERTEX
8
1
10
18.937824
20
32.038719
0
VERTEX
8
1
10
18.944969
20
32.031029
0
VERTEX
8
1
10
18.942455
20
32.016418
0
VERTEX
8
1
10
18.929123
20
31.994247
42
-0.022833
0
VERTEX
8
1
10
18.737989
20
31.794357
42
0.444057
0
VERTEX
8
1
10
18.746246
20
31.782791
42
0.225808
0
VERTEX
8
1
10
19.181812
20
31.897263
0
VERTEX
8
1
10
19.190575
20
31.890732
42
-0.290523
0
VERTEX
8
1
10
18.873680
20
31.564371
42
-0.062696
0
VERTEX
8
1
10
18.626385
20
31.521812
42
-0.081597
0
VERTEX
8
1
10
18.087048
20
31.714796
42
0.075928
0
VERTEX
8
1
10
18.035824
20
31.725182
0
VERTEX
8
1
10
18.024086
20
31.720428
0
VERTEX
8
1
10
18.015625
20
31.710083
42
0.497382
0
VERTEX
8
1
10
18.181923
20
31.452362
42
-0.398216
0
VERTEX
8
1
10
17.922825
20
31.496048
42
0.124146
0
VERTEX
8
1
10
17.876333
20
31.197847
42
0.095929
0
VERTEX
8
1
10
17.904144
20
31.132927
42
-0.191779
0
VERTEX
8
1
10
17.702759
20
31.535446
42
0.100509
0
VERTEX
8
1
10
17.626373
20
31.827362
0
SEQEND
0
POLYLINE
8
1
66
1
0
VERTEX
8
1
10
13.820816
20
30.869034
42
0.088461
0
VERTEX
8
1
10
13.914661
20
30.638212
42
0.195794
0
VERTEX
8
1
10
13.968445
20
30.614281
42
-0.038318
0
VERTEX
8
1
10
14.047394
20
30.591194
0
VERTEX
8
1
10
14.328056
20
30.330238
0
SEQEND
0
POLYLINE
8
1
66
1
0
VERTEX
8
1
10
15.806927
20
30.299591
42
0.017602
0
VERTEX
8
1
10
15.581125
20
30.120018
42
0.005154
0
VERTEX
8
1
10
15.258864
20
29.952482
42
0.072396
0
VERTEX
8
1
10
15.209099
20
29.905807
0
VERTEX
8
1
10
15.208729
20
29.892738
0
VERTEX
8
1
10
15.220871
20
29.877319
0
VERTEX
8
1
10
15.244152
20
29.859329
42
0.105677
0
VERTEX
8
1
10
15.592419
20
29.736588
0
VERTEX
8
1
10
15.626316
20
29.738121
0
VERTEX
8
1
10
15.651428
20
29.746567
0
VERTEX
8
1
10
15.665764
20
29.762878
42
0.080570
0
VERTEX
8
1
10
15.659818
20
29.914288
42
-0.275239
0
VERTEX
8
1
10
15.692875
20
29.964447
42
0.142949
0
VERTEX
8
1
10
15.769890
20
30.058327
42
-0.125459
0
VERTEX
8
1
10
15.820816
20
30.105141
0
SEQEND
0
POLYLINE
8
1
66
1
0
VERTEX
8
1
10
15.382038
20
30.225349
42
0.120592
0
VERTEX
8
1
10
15.570868
20
30.257425
42
0.244459
0
VERTEX
8
1
10
15.592125
20
30.299347
0
SEQEND
0
LINE
8
1
10
18.024033
20
33.881729
11
18.024033
21
32.360970
0
LINE
8
1
10
17.586552
20
33.485916
11
17.586552
21
32.610962
0
LINE
8
1
10
17.607384
20
30.819382
11
20.107262
21
30.840218
0
POLYLINE
8
1
66
1
70
1
0
VERTEX
8
1
10
29.632473
20
16.064995
42
-0.011565
0
VERTEX
8
1
10
29.630871
20
16.219696
42
0.233104
0
VERTEX
8
1
10
29.524555
20
16.400139
42
-0.030163
0
VERTEX
8
1
10
29.358891
20
16.534081
42
0.005254
0
VERTEX
8
1
10
29.162350
20
16.663658
42
0.056661
0
VERTEX
8
1
10
29.077131
20
16.724304
42
0.001178
0
VERTEX
8
1
10
28.937698
20
16.757324
42
-0.165175
0
VERTEX
8
1
10
28.889370
20
16.803383
42
0.249129
0
VERTEX
8
1
10
28.804852
20
16.834831
42
-0.297581
0
VERTEX
8
1
10
28.731274
20
16.885910
42
-0.169057
0
VERTEX
8
1
10
28.451992
20
16.921967
42
0.049341
0
VERTEX
8
1
10
28.327824
20
16.938881
42
0.120982
0
VERTEX
8
1
10
27.910633
20
16.927422
42
0.236417
0
VERTEX
8
1
10
27.177860
20
16.346397
42
0.018606
0
VERTEX
8
1
10
26.985958
20
15.963211
42
-0.016718
0
VERTEX
8
1
10
26.808064
20
15.707406
0
VERTEX
8
1
10
26.790173
20
15.677783
42
-0.003090
0
VERTEX
8
1
10
26.561766
20
15.231528
0
VERTEX
8
1
10
26.546192
20
15.207146
42
0.216386
0
VERTEX
8
1
10
26.386532
20
15.501771
42
0.229996
0
VERTEX
8
1
10
26.181608
20
15.517985
42
0.179273
0
VERTEX
8
1
10
25.918407
20
15.322113
0
VERTEX
8
1
10
25.663708
20
15.216606
42
-0.125632
0
VERTEX
8
1
10
25.734615
20
15.102468
42
-0.354961
0
VERTEX
8
1
10
25.683964
20
15.037940
42
-0.240023
0
VERTEX
8
1
10
25.581612
20
15.046247
42
0.176544
0
VERTEX
8
1
10
25.485615
20
15.044701
42
-0.222319
0
VERTEX
8
1
10
25.407696
20
15.065010
42
-0.149530
0
VERTEX
8
1
10
25.245968
20
15.225426
42
-0.120092
0
VERTEX
8
1
10
25.199665
20
15.708351
42
0.053227
0
VERTEX
8
1
10
25.193325
20
15.923737
42
-0.067082
0
VERTEX
8
1
10
25.204922
20
16.075699
42
-0.003204
0
VERTEX
8
1
10
25.240887
20
16.306602
42
-0.258561
0
VERTEX
8
1
10
25.231915
20
16.368965
0
VERTEX
8
1
10
25.263966
20
16.453838
42
-0.000552
0
VERTEX
8
1
10
25.279797
20
16.737923
42
-0.037510
0
VERTEX
8
1
10
25.333347
20
16.876350
42
0.114521
0
VERTEX
8
1
10
25.341763
20
16.988266
42
-0.121438
0
VERTEX
8
1
10
25.392752
20
17.164223
42
0.130276
0
VERTEX
8
1
10
25.408833
20
17.304466
42
-0.090397
0
VERTEX
8
1
10
25.437405
20
17.435791
42
0.021038
0
VERTEX
8
1
10
25.566547
20
17.819641
42
0.092660
0
VERTEX
8
1
10
25.577869
20
18.065147
42
0.080873
0
VERTEX
8
1
10
25.545513
20
18.258163
42
0.050794
0
VERTEX
8
1
10
25.413944
20
18.447304
42
-0.062334
0
VERTEX
8
1
10
25.256308
20
18.598692
42
0.173164
0
VERTEX
8
1
10
25.156086
20
18.646507
42
-0.268332
0
VERTEX
8
1
10
25.119617
20
18.680092
0
VERTEX
8
1
10
25.106838
20
18.684715
42
0.187589
0
VERTEX
8
1
10
24.825287
20
18.473814
42
0.068986
0
VERTEX
8
1
10
24.730656
20
18.290947
42
-0.076723
0
VERTEX
8
1
10
24.663235
20
18.182259
42
0.005506
0
VERTEX
8
1
10
24.589146
20
18.018036
42
-0.125438
0
VERTEX
8
1
10
24.359381
20
17.764677
42
-0.121930
0
VERTEX
8
1
10
24.288189
20
17.749458
42
-0.237109
0
VERTEX
8
1
10
24.208561
20
17.822884
42
-0.161820
0
VERTEX
8
1
10
24.181341
20
18.143442
42
0.000690
0
VERTEX
8
1
10
24.249905
20
18.458447
42
0.007309
0
VERTEX
8
1
10
24.283478
20
18.757992
42
0.191867
0
VERTEX
8
1
10
24.217808
20
18.904045
42
0.052882
0
VERTEX
8
1
10
24.012104
20
19.116343
42
0.129821
0
VERTEX
8
1
10
23.772465
20
19.212626
42
0.225031
0
VERTEX
8
1
10
23.503941
20
19.101673
42
0.115146
0
VERTEX
8
1
10
23.325993
20
18.824951
42
-0.054362
0
VERTEX
8
1
10
23.214962
20
18.611015
42
0.039598
0
VERTEX
8
1
10
23.151119
20
18.443573
42
-0.056231
0
VERTEX
8
1
10
23.024593
20
18.205185
42
-0.009972
0
VERTEX
8
1
10
22.943752
20
18.034248
42
-0.032173
0
VERTEX
8
1
10
22.888103
20
17.978088
42
0.088021
0
VERTEX
8
1
10
22.860073
20
17.911430
42
-0.035668
0
VERTEX
8
1
10
22.796589
20
17.701904
42
-0.094444
0
VERTEX
8
1
10
22.746906
20
17.652306
42
0.115776
0
VERTEX
8
1
10
22.702236
20
17.547096
42
-0.071980
0
VERTEX
8
1
10
22.647907
20
17.440895
42
-0.065771
0
VERTEX
8
1
10
22.393406
20
17.080017
42
-0.050247
0
VERTEX
8
1
10
21.883266
20
16.551132
42
-0.104011
0
VERTEX
8
1
10
21.650318
20
16.439857
42
-0.046910
0
VERTEX
8
1
10
21.507442
20
16.460121
42
0.193762
0
VERTEX
8
1
10
21.435131
20
16.436096
0
VERTEX
8
1
10
21.389622
20
16.442024
42
-0.104091
0
VERTEX
8
1
10
21.335636
20
16.507401
42
-0.013414
0
VERTEX
8
1
10
21.270493
20
16.574211
42
-0.130030
0
VERTEX
8
1
10
21.261715
20
16.665794
42
-0.118202
0
VERTEX
8
1
10
21.541924
20
16.720514
42
0.063620
0
VERTEX
8
1
10
21.737492
20
16.758629
0
VERTEX
8
1
10
21.757908
20
16.770119
0
VERTEX
8
1
10
21.773762
20
16.783890
0
VERTEX
8
1
10
21.767590
20
16.797585
42
0.179456
0
VERTEX
8
1
10
21.704035
20
16.817465
42
0.076692
0
VERTEX
8
1
10
21.557522
20
16.806007
42
-0.044568
0
VERTEX
8
1
10
21.392887
20
16.808126
42
-0.000531
0
VERTEX
8
1
10
21.277925
20
16.804037
0
VERTEX
8
1
10
21.276089
20
16.810356
42
-0.274365
0
VERTEX
8
1
10
21.525410
20
17.124458
42
0.157839
0
VERTEX
8
1
10
21.636318
20
17.164894
42
-0.193165
0
VERTEX
8
1
10
21.684246
20
17.170624
42
0.110896
0
VERTEX
8
1
10
21.769348
20
17.401060
42
0.268881
0
VERTEX
8
1
10
21.706478
20
17.501549
0
VERTEX
8
1
10
21.681866
20
17.514893
42
0.190255
0
VERTEX
8
1
10
21.344875
20
17.512947
42
0.154604
0
VERTEX
8
1
10
21.103298
20
17.269089
42
0.030591
0
VERTEX
8
1
10
20.987118
20
17.097473
42
0.124771
0
VERTEX
8
1
10
20.932451
20
16.807487
0
VERTEX
8
1
10
20.932125
20
16.792404
42
0.070776
0
VERTEX
8
1
10
20.550858
20
16.683826
42
-0.025387
0
VERTEX
8
1
10
20.270641
20
16.594666
42
0.027489
0
VERTEX
8
1
10
20.265278
20
16.618546
42
0.121150
0
VERTEX
8
1
10
20.391972
20
16.748703
42
0.219760
0
VERTEX
8
1
10
20.182688
20
16.816481
42
0.059371
0
VERTEX
8
1
10
19.983505
20
16.787436
42
-0.000097
0
VERTEX
8
1
10
19.923061
20
16.789680
42
0.119926
0
VERTEX
8
1
10
20.220932
20
16.934357
42
0.081546
0
VERTEX
8
1
10
20.683611
20
17.437649
42
-0.004645
0
VERTEX
8
1
10
20.940987
20
17.820284
0
VERTEX
8
1
10
20.974922
20
17.875618
42
-0.038229
0
VERTEX
8
1
10
21.141972
20
18.184700
42
0.088226
0
VERTEX
8
1
10
21.195446
20
18.352337
42
-0.057133
0
VERTEX
8
1
10
21.268406
20
18.559380
42
0.037617
0
VERTEX
8
1
10
21.327003
20
18.826157
42
-0.099880
0
VERTEX
8
1
10
21.345074
20
18.873665
42
0.248732
0
VERTEX
8
1
10
21.390041
20
18.936821
42
0.041831
0
VERTEX
8
1
10
21.409954
20
19.074883
42
0.014749
0
VERTEX
8
1
10
21.499725
20
19.627871
42
0.085780
0
VERTEX
8
1
10
21.473331
20
19.914604
42
0.084820
0
VERTEX
8
1
10
21.281368
20
20.414848
42
0.176035
0
VERTEX
8
1
10
20.720407
20
20.831482
42
0.040145
0
VERTEX
8
1
10
20.604858
20
20.850334
42
0.227431
0
VERTEX
8
1
10
20.638340
20
20.898186
0
VERTEX
8
1
10
20.635593
20
20.898727
0
VERTEX
8
1
10
20.316940
20
20.797493
42
0.011142
0
VERTEX
8
1
10
20.471725
20
20.793020
42
-0.033671
0
VERTEX
8
1
10
20.492496
20
20.787239
0
VERTEX
8
1
10
20.552605
20
20.754028
42
-0.173035
0
VERTEX
8
1
10
20.782543
20
20.525459
42
-0.032635
0
VERTEX
8
1
10
20.800636
20
20.443398
0
VERTEX
8
1
10
20.806309
20
20.451103
42
-0.374850
0
VERTEX
8
1
10
20.819077
20
20.398720
0
VERTEX
8
1
10
20.817238
20
20.399696
42
-0.165413
0
VERTEX
8
1
10
20.800453
20
20.443146
0
VERTEX
8
1
10
20.772137
20
20.404716
42
0.323421
0
VERTEX
8
1
10
20.660662
20
20.468569
42
-0.209745
0
VERTEX
8
1
10
20.596069
20
20.509499
42
0.119697
0
VERTEX
8
1
10
20.525482
20
20.529877
42
-0.034060
0
VERTEX
8
1
10
20.458817
20
20.564209
42
-0.007015
0
VERTEX
8
1
10
20.067310
20
20.633377
42
0.115903
0
VERTEX
8
1
10
19.901411
20
20.599661
42
-0.108180
0
VERTEX
8
1
10
19.854496
20
20.598061
0
VERTEX
8
1
10
19.847912
20
20.605049
0
VERTEX
8
1
10
19.847027
20
20.615356
42
-0.191532
0
VERTEX
8
1
10
19.975655
20
20.741425
42
-0.093312
0
VERTEX
8
1
10
20.196255
20
20.803444
42
-0.185753
0
VERTEX
8
1
10
20.311779
20
20.798500
0
VERTEX
8
1
10
20.308960
20
20.803940
42
0.140115
0
VERTEX
8
1
10
20.036884
20
20.914856
0
VERTEX
8
1
10
19.960899
20
20.920456
42
0.144003
0
VERTEX
8
1
10
19.372864
20
20.742470
42
-0.175833
0
VERTEX
8
1
10
19.254143
20
20.677557
42
0.168523
0
VERTEX
8
1
10
19.186089
20
20.632257
42
0.038523
0
VERTEX
8
1
10
19.104748
20
20.530754
42
-0.037798
0
VERTEX
8
1
10
18.996155
20
20.419029
42
0.118704
0
VERTEX
8
1
10
18.692623
20
19.908766
42
0.007105
0
VERTEX
8
1
10
18.555351
20
19.461548
42
0.096606
0
VERTEX
8
1
10
18.472773
20
19.178459
42
0.000647
0
VERTEX
8
1
10
18.421139
20
18.879234
42
0.029090
0
VERTEX
8
1
10
18.426308
20
18.680565
42
-0.042817
0
VERTEX
8
1
10
18.388531
20
18.443436
42
0.072069
0
VERTEX
8
1
10
18.383244
20
18.281425
42
0.072417
0
VERTEX
8
1
10
18.522064
20
17.569611
0
VERTEX
8
1
10
18.521378
20
17.559990
42
0.054870
0
VERTEX
8
1
10
18.091221
20
17.589613
42
0.146237
0
VERTEX
8
1
10
17.698002
20
17.426258
42
-0.087242
0
VERTEX
8
1
10
17.512997
20
17.346901
42
-0.098424
0
VERTEX
8
1
10
17.389824
20
17.368179
42
0.064054
0
VERTEX
8
1
10
17.157085
20
17.384506
42
0.086061
0
VERTEX
8
1
10
17.432701
20
17.498146
42
0.074812
0
VERTEX
8
1
10
17.772690
20
17.756996
0
VERTEX
8
1
10
17.828583
20
17.804153
42
0.157602
0
VERTEX
8
1
10
17.920868
20
17.918617
42
-0.017035
0
VERTEX
8
1
10
17.938625
20
18.039757
42
-0.007657
0
VERTEX
8
1
10
17.999285
20
18.155643
42
0.254697
0
VERTEX
8
1
10
17.984142
20
18.216789
42
-0.201546
0
VERTEX
8
1
10
17.989185
20
18.312996
42
0.145729
0
VERTEX
8
1
10
17.984539
20
18.467354
42
0.213379
0
VERTEX
8
1
10
17.827457
20
18.691864
42
0.302905
0
VERTEX
8
1
10
17.581459
20
18.651695
42
0.195469
0
VERTEX
8
1
10
17.533508
20
18.478241
0
VERTEX
8
1
10
17.536114
20
18.444405
0
VERTEX
8
1
10
17.540794
20
18.410248
0
VERTEX
8
1
10
17.533550
20
18.392380
42
0.195793
0
VERTEX
8
1
10
17.467457
20
18.266321
42
-0.235871
0
VERTEX
8
1
10
17.161472
20
17.965309
0
VERTEX
8
1
10
17.146755
20
17.963211
42
0.021886
0
VERTEX
8
1
10
16.999649
20
17.964577
42
-0.170514
0
VERTEX
8
1
10
16.838821
20
17.962433
42
0.003971
0
VERTEX
8
1
10
16.664970
20
18.003899
42
-0.154989
0
VERTEX
8
1
10
16.270569
20
18.285303
42
-0.044960
0
VERTEX
8
1
10
15.994061
20
18.689087
42
-0.060164
0
VERTEX
8
1
10
15.859089
20
19.076241
42
-0.026659
0
VERTEX
8
1
10
15.808899
20
19.295609
42
-0.075255
0
VERTEX
8
1
10
15.832279
20
19.413694
42
0.251740
0
VERTEX
8
1
10
15.806980
20
19.475861
0
VERTEX
8
1
10
15.805523
20
19.506058
42
-0.101249
0
VERTEX
8
1
10
15.954773
20
20.072777
42
-0.060668
0
VERTEX
8
1
10
16.073288
20
20.336531
42
-0.251772
0
VERTEX
8
1
10
16.244080
20
20.409988
0
VERTEX
8
1
10
16.258789
20
20.442345
0
VERTEX
8
1
10
16.259331
20
20.444336
0
VERTEX
8
1
10
16.241638
20
20.586113
42
-0.165384
0
VERTEX
8
1
10
16.508722
20
20.785002
42
-0.058006
0
VERTEX
8
1
10
16.833500
20
20.873215
42
-0.070598
0
VERTEX
8
1
10
16.957615
20
20.856834
42
0.127581
0
VERTEX
8
1
10
17.061604
20
20.872276
42
-0.106743
0
VERTEX
8
1
10
17.154556
20
20.875748
42
-0.139010
0
VERTEX
8
1
10
17.510036
20
20.756897
42
-0.237229
0
VERTEX
8
1
10
17.758545
20
20.124763
42
-0.198266
0
VERTEX
8
1
10
17.704201
20
20.054008
42
0.213805
0
VERTEX
8
1
10
17.673874
20
19.961998
42
-0.208929
0
VERTEX
8
1
10
17.619770
20
19.820953
42
-0.039943
0
VERTEX
8
1
10
17.455481
20
19.669790
42
0.119521
0
VERTEX
8
1
10
17.356941
20
19.527328
42
0.254428
0
VERTEX
8
1
10
17.429535
20
19.338997
42
0.364038
0
VERTEX
8
1
10
17.491898
20
19.345146
42
-0.185038
0
VERTEX
8
1
10
17.550793
20
19.350899
42
0.184427
0
VERTEX
8
1
10
17.803778
20
19.398010
42
0.131565
0
VERTEX
8
1
10
18.158234
20
19.732946
42
0.053456
0
VERTEX
8
1
10
18.268707
20
19.944237
42
0.198605
0
VERTEX
8
1
10
18.256653
20
20.042656
0
VERTEX
8
1
10
18.255043
20
20.050255
42
-0.055973
0
VERTEX
8
1
10
18.269581
20
20.187035
42
0.105538
0
VERTEX
8
1
10
18.232483
20
20.389832
42
0.073154
0
VERTEX
8
1
10
18.044779
20
20.945272
42
0.153416
0
VERTEX
8
1
10
17.774197
20
21.180351
42
0.160763
0
VERTEX
8
1
10
17.635025
20
21.242943
42
-0.034816
0
VERTEX
8
1
10
17.426960
20
21.280014
42
-0.038863
0
VERTEX
8
1
10
17.339806
20
21.336174
42
0.054034
0
VERTEX
8
1
10
17.163170
20
21.341225
42
-0.044475
0
VERTEX
8
1
10
17.015041
20
21.357964
42
0.069889
0
VERTEX
8
1
10
16.710838
20
21.322945
42
0.079624
0
VERTEX
8
1
10
16.171419
20
21.030508
42
0.119802
0
VERTEX
8
1
10
15.523457
20
20.261932
42
0.019100
0
VERTEX
8
1
10
15.441231
20
20.019753
42
0.092151
0
VERTEX
8
1
10
15.336048
20
19.731606
42
0.230542
0
VERTEX
8
1
10
15.357533
20
19.632401
0
VERTEX
8
1
10
15.360378
20
19.625038
42
-0.120042
0
VERTEX
8
1
10
15.339375
20
19.448723
42
0.133208
0
VERTEX
8
1
10
15.314682
20
18.842079
42
0.193682
0
VERTEX
8
1
10
15.353813
20
18.698555
42
-0.077738
0
VERTEX
8
1
10
15.393871
20
18.531578
42
0.117825
0
VERTEX
8
1
10
15.605406
20
18.040590
42
0.031536
0
VERTEX
8
1
10
15.910652
20
17.653877
0
VERTEX
8
1
10
15.908573
20
17.652435
0
VERTEX
8
1
10
15.881710
20
17.650955
42
0.132694
0
VERTEX
8
1
10
15.639219
20
17.520685
42
-0.016200
0
VERTEX
8
1
10
15.590111
20
17.487366
42
0.049623
0
VERTEX
8
1
10
15.394154
20
17.423248
42
0.137562
0
VERTEX
8
1
10
15.129879
20
17.372879
42
-0.039217
0
VERTEX
8
1
10
14.915104
20
17.297401
0
VERTEX
8
1
10
14.913376
20
17.300484
42
0.141920
0
VERTEX
8
1
10
14.996529
20
17.720078
42
0.018808
0
VERTEX
8
1
10
15.011475
20
17.959518
42
0.105454
0
VERTEX
8
1
10
15.016701
20
18.150047
42
-0.047507
0
VERTEX
8
1
10
15.031860
20
18.298279
42
0.111629
0
VERTEX
8
1
10
15.012974
20
18.431145
42
-0.198174
0
VERTEX
8
1
10
15.037690
20
18.534515
42
0.404221
0
VERTEX
8
1
10
15.000141
20
18.644806
42
-0.236286
0
VERTEX
8
1
10
14.974352
20
18.736450
42
0.374107
0
VERTEX
8
1
10
14.900700
20
18.827217
42
0.390809
0
VERTEX
8
1
10
14.708996
20
18.743187
42
-0.044089
0
VERTEX
8
1
10
14.623344
20
18.519859
42
0.081938
0
VERTEX
8
1
10
14.580994
20
18.349876
42
-0.058187
0
VERTEX
8
1
10
14.478466
20
17.927002
0
VERTEX
8
1
10
14.448421
20
17.860641
0
VERTEX
8
1
10
14.413269
20
17.798660
42
-0.180437
0
VERTEX
8
1
10
14.164173
20
17.599037
42
-0.060622
0
VERTEX
8
1
10
13.645456
20
17.487007
0
VERTEX
8
1
10
13.636040
20
17.483910
42
0.136207
0
VERTEX
8
1
10
13.670860
20
17.542480
0
VERTEX
8
1
10
13.668449
20
17.547127
42
0.239173
0
VERTEX
8
1
10
13.601159
20
17.529209
42
0.037416
0
VERTEX
8
1
10
13.491251
20
17.445601
42
-0.297617
0
VERTEX
8
1
10
13.440699
20
17.440575
42
-0.013449
0
VERTEX
8
1
10
13.362469
20
17.464317
42
-0.142136
0
VERTEX
8
1
10
13.258381
20
17.698120
42
-0.000811
0
VERTEX
8
1
10
13.217049
20
18.024666
42
-0.171584
0
VERTEX
8
1
10
13.221336
20
18.192764
42
0.083341
0
VERTEX
8
1
10
13.209388
20
18.396942
42
0.002777
0
VERTEX
8
1
10
13.152116
20
18.712303
0
VERTEX
8
1
10
13.151417
20
18.730558
42
-0.175653
0
VERTEX
8
1
10
13.178182
20
18.810879
42
0.204971
0
VERTEX
8
1
10
13.181713
20
18.903557
42
-0.140241
0
VERTEX
8
1
10
13.175480
20
19.129257
42
0.096691
0
VERTEX
8
1
10
13.160213
20
19.315178
42
-0.092199
0
VERTEX
8
1
10
13.171963
20
19.449409
42
0.053809
0
VERTEX
8
1
10
13.156348
20
19.650585
42
-0.116635
0
VERTEX
8
1
10
13.174599
20
19.760635
42
0.115185
0
VERTEX
8
1
10
13.170640
20
19.848825
42
-0.087843
0
VERTEX
8
1
10
13.173878
20
19.983536
42
0.095011
0
VERTEX
8
1
10
13.120144
20
20.692921
42
0.133329
0
VERTEX
8
1
10
13.012858
20
20.853186
42
0.145863
0
VERTEX
8
1
10
12.885117
20
20.897667
42
0.128721
0
VERTEX
8
1
10
12.719605
20
20.891777
42
-0.165692
0
VERTEX
8
1
10
12.617592
20
20.839622
42
0.017235
0
VERTEX
8
1
10
12.334304
20
20.787045
42
0.176600
0
VERTEX
8
1
10
12.112358
20
20.621056
42
0.174488
0
VERTEX
8
1
10
12.075504
20
20.544403
0
VERTEX
8
1
10
12.078560
20
20.532463
42
0.252400
0
VERTEX
8
1
10
12.214474
20
20.449669
42
0.076196
0
VERTEX
8
1
10
12.345917
20
20.452286
0
VERTEX
8
1
10
12.339783
20
20.494354
0
VERTEX
8
1
10
12.333134
20
20.518303
42
0.279032
0
VERTEX
8
1
10
12.400383
20
20.507217
42
-0.094598
0
VERTEX
8
1
10
12.616611
20
20.456253
0
VERTEX
8
1
10
12.625607
20
20.448418
42
-0.178574
0
VERTEX
8
1
10
12.669390
20
20.267014
42
0.255581
0
VERTEX
8
1
10
12.721676
20
20.194008
42
-0.450219
0
VERTEX
8
1
10
12.719782
20
20.113960
42
0.258471
0
VERTEX
8
1
10
12.704067
20
20.028778
42
-0.061412
0
VERTEX
8
1
10
12.729095
20
19.887741
42
0.021418
0
VERTEX
8
1
10
12.709206
20
19.794579
42
-0.045862
0
VERTEX
8
1
10
12.718342
20
19.673096
42
-0.012546
0
VERTEX
8
1
10
12.686607
20
19.607780
42
0.117029
0
VERTEX
8
1
10
12.702175
20
19.498711
42
-0.142442
0
VERTEX
8
1
10
12.688320
20
19.381493
42
0.045053
0
VERTEX
8
1
10
12.697057
20
19.249849
42
-0.170774
0
VERTEX
8
1
10
12.672054
20
19.192329
42
0.239172
0
VERTEX
8
1
10
12.677794
20
19.074745
42
-0.108328
0
VERTEX
8
1
10
12.688774
20
18.973518
42
-0.012866
0
VERTEX
8
1
10
12.658913
20
18.914474
42
0.130457
0
VERTEX
8
1
10
12.669613
20
18.806778
42
-0.125570
0
VERTEX
8
1
10
12.670134
20
18.627829
42
0.001965
0
VERTEX
8
1
10
12.653152
20
18.354120
42
0.083816
0
VERTEX
8
1
10
12.671564
20
18.250757
42
-0.120928
0
VERTEX
8
1
10
12.663723
20
18.135017
42
0.140899
0
VERTEX
8
1
10
12.668869
20
17.951591
42
-0.155000
0
VERTEX
8
1
10
12.655872
20
17.818939
42
0.055455
0
VERTEX
8
1
10
12.665442
20
17.695858
42
-0.183655
0
VERTEX
8
1
10
12.639420
20
17.630875
42
0.173361
0
VERTEX
8
1
10
12.636219
20
17.526321
42
-0.158545
0
VERTEX
8
1
10
12.625061
20
17.421127
42
0.085532
0
VERTEX
8
1
10
12.619770
20
17.347916
42
-0.062709
0
VERTEX
8
1
10
12.571347
20
17.547426
42
0.083705
0
VERTEX
8
1
10
12.495824
20
17.752350
42
0.166026
0
VERTEX
8
1
10
12.426296
20
17.797241
42
-0.031953
0
VERTEX
8
1
10
12.373913
20
17.630989
42
0.042257
0
VERTEX
8
1
10
12.365934
20
17.480099
42
-0.176794
0
VERTEX
8
1
10
12.324253
20
17.404770
42
0.191338
0
VERTEX
8
1
10
12.293869
20
17.306900
42
-0.227211
0
VERTEX
8
1
10
12.189610
20
17.059601
42
0.062503
0
VERTEX
8
1
10
11.997867
20
16.823793
42
-0.012211
0
VERTEX
8
1
10
11.916412
20
16.715675
0
VERTEX
8
1
10
11.913483
20
16.726067
42
0.058202
0
VERTEX
8
1
10
11.880769
20
16.947578
42
-0.183924
0
VERTEX
8
1
10
11.896172
20
17.011520
42
0.144285
0
VERTEX
8
1
10
11.907353
20
17.219717
42
-0.110630
0
VERTEX
8
1
10
11.923782
20
17.334160
42
0.066632
0
VERTEX
8
1
10
11.973484
20
17.419716
0
VERTEX
8
1
10
11.975338
20
17.432823
0
VERTEX
8
1
10
11.975262
20
17.447342
42
0.118650
0
VERTEX
8
1
10
11.551586
20
16.707741
42
-0.025701
0
VERTEX
8
1
10
11.439591
20
16.294937
42
-0.077287
0
VERTEX
8
1
10
11.326660
20
16.103294
0
VERTEX
8
1
10
11.296398
20
16.081406
42
0.042054
0
VERTEX
8
1
10
10.883217
20
16.493538
0
VERTEX
8
1
10
10.674309
20
16.565720
0
VERTEX
8
1
10
10.672852
20
16.566475
42
-0.073341
0
VERTEX
8
1
10
10.880901
20
16.668453
42
0.084637
0
VERTEX
8
1
10
11.052031
20
16.775307
42
0.002072
0
VERTEX
8
1
10
11.278650
20
16.917664
0
VERTEX
8
1
10
11.292686
20
16.929544
42
0.145808
0
VERTEX
8
1
10
11.341743
20
17.006847
42
-0.103894
0
VERTEX
8
1
10
11.402681
20
17.077112
42
0.129998
0
VERTEX
8
1
10
11.442673
20
17.157166
42
0.028653
0
VERTEX
8
1
10
11.548542
20
17.613770
42
0.014218
0
VERTEX
8
1
10
11.563576
20
17.946602
42
0.065430
0
VERTEX
8
1
10
11.583286
20
18.038818
0
VERTEX
8
1
10
11.545792
20
18.115410
42
-0.290464
0
VERTEX
8
1
10
11.555576
20
18.177727
42
0.188117
0
VERTEX
8
1
10
11.446791
20
18.338604
42
0.384725
0
VERTEX
8
1
10
11.370491
20
18.316826
42
0.082676
0
VERTEX
8
1
10
11.243103
20
18.137314
42
-0.040737
0
VERTEX
8
1
10
11.171600
20
17.851688
0
VERTEX
8
1
10
11.164936
20
17.821930
42
-0.175358
0
VERTEX
8
1
10
10.974899
20
17.452644
42
-0.047812
0
VERTEX
8
1
10
10.797924
20
17.300323
42
0.039570
0
VERTEX
8
1
10
10.631638
20
17.198555
0
VERTEX
8
1
10
10.611248
20
17.176437
42
-0.229322
0
VERTEX
8
1
10
10.476608
20
17.113647
0
VERTEX
8
1
10
10.430504
20
17.115814
42
-0.224252
0
VERTEX
8
1
10
10.259514
20
17.194305
42
-0.044580
0
VERTEX
8
1
10
10.004830
20
17.470482
42
-0.154823
0
VERTEX
8
1
10
9.960374
20
17.671015
42
0.134039
0
VERTEX
8
1
10
9.914913
20
17.804001
42
-0.148482
0
VERTEX
8
1
10
9.879433
20
17.952774
42
-0.037051
0
VERTEX
8
1
10
9.863377
20
18.120697
42
-0.115892
0
VERTEX
8
1
10
9.918880
20
18.269096
42
-0.245843
0
VERTEX
8
1
10
10.000004
20
18.341805
42
0.211342
0
VERTEX
8
1
10
10.038887
20
18.381088
42
-0.066714
0
VERTEX
8
1
10
10.148499
20
18.352608
42
-0.188593
0
VERTEX
8
1
10
10.243202
20
18.227089
42
-0.250573
0
VERTEX
8
1
10
10.244282
20
17.993576
0
VERTEX
8
1
10
10.212429
20
17.918747
0
VERTEX
8
1
10
10.212669
20
17.922173
42
0.355123
0
VERTEX
8
1
10
10.215317
20
17.852974
42
0.335538
0
VERTEX
8
1
10
10.418480
20
17.878036
42
0.223194
0
VERTEX
8
1
10
10.635388
20
18.314745
42
0.052336
0
VERTEX
8
1
10
10.625378
20
18.574417
42
0.174880
0
VERTEX
8
1
10
10.583851
20
18.738869
42
0.136976
0
VERTEX
8
1
10
10.366055
20
18.961899
42
0.326850
0
VERTEX
8
1
10
10.130282
20
18.877253
42
0.395380
0
VERTEX
8
1
10
10.171165
20
18.761284
0
VERTEX
8
1
10
10.182037
20
18.753593
42
-0.458994
0
VERTEX
8
1
10
10.213848
20
18.637306
42
0.029638
0
VERTEX
8
1
10
10.187317
20
18.580681
42
0.267471
0
VERTEX
8
1
10
10.093204
20
18.562073
42
-0.225407
0
VERTEX
8
1
10
9.958094
20
18.557180
42
-0.198491
0
VERTEX
8
1
10
9.761002
20
18.719994
42
-0.057624
0
VERTEX
8
1
10
9.614021
20
19.083801
42
-0.152227
0
VERTEX
8
1
10
9.644722
20
19.376732
42
-0.096142
0
VERTEX
8
1
10
9.715721
20
19.512299
0
VERTEX
8
1
10
9.725979
20
19.519524
0
VERTEX
8
1
10
9.749428
20
19.489052
0
VERTEX
8
1
10
9.788567
20
19.505829
0
VERTEX
8
1
10
9.781372
20
19.541313
42
-0.140510
0
VERTEX
8
1
10
10.024449
20
19.618952
42
0.078760
0
VERTEX
8
1
10
10.170506
20
19.666506
42
-0.000213
0
VERTEX
8
1
10
10.410428
20
19.774254
42
-0.110023
0
VERTEX
8
1
10
10.522972
20
19.780891
42
0.094358
0
VERTEX
8
1
10
10.651653
20
19.820999
42
-0.046077
0
VERTEX
8
1
10
10.800758
20
19.837334
0
VERTEX
8
1
10
10.844135
20
19.824921
42
-0.321591
0
VERTEX
8
1
10
10.937603
20
19.689148
42
-0.024329
0
VERTEX
8
1
10
10.927845
20
19.478270
42
0.162314
0
VERTEX
8
1
10
10.984214
20
19.317932
42
0.241694
0
VERTEX
8
1
10
11.046463
20
19.304588
0
VERTEX
8
1
10
11.075451
20
19.316223
42
0.143770
0
VERTEX
8
1
10
11.248291
20
19.528877
42
0.093271
0
VERTEX
8
1
10
11.379585
20
20.043304
42
0.100543
0
VERTEX
8
1
10
11.389362
20
20.188210
42
-0.080982
0
VERTEX
8
1
10
11.292441
20
20.316668
42
0.246408
0
VERTEX
8
1
10
11.093483
20
20.418327
42
-0.023911
0
VERTEX
8
1
10
10.877312
20
20.431435
42
0.011196
0
VERTEX
8
1
10
10.637444
20
20.422974
42
0.034460
0
VERTEX
8
1
10
10.541687
20
20.424690
42
0.054292
0
VERTEX
8
1
10
10.420306
20
20.373949
42
-0.210485
0
VERTEX
8
1
10
10.331711
20
20.378906
42
0.198725
0
VERTEX
8
1
10
10.264870
20
20.366478
0
VERTEX
8
1
10
10.233818
20
20.349289
42
-0.280061
0
VERTEX
8
1
10
10.166763
20
20.348099
0
VERTEX
8
1
10
10.153511
20
20.350410
42
-0.169136
0
VERTEX
8
1
10
9.906952
20
20.219810
42
0.014239
0
VERTEX
8
1
10
9.683521
20
20.101610
42
0.097353
0
VERTEX
8
1
10
9.405593
20
19.838900
42
0.216739
0
VERTEX
8
1
10
9.209496
20
18.994057
42
0.020967
0
VERTEX
8
1
10
9.270565
20
18.609161
42
-0.030390
0
VERTEX
8
1
10
9.275841
20
18.325096
42
0.053741
0
VERTEX
8
1
10
9.298450
20
18.118835
42
-0.001585
0
VERTEX
8
1
10
9.420609
20
17.267426
42
0.055117
0
VERTEX
8
1
10
9.436592
20
17.082268
42
-0.008786
0
VERTEX
8
1
10
9.506878
20
16.890556
42
0.136519
0
VERTEX
8
1
10
9.667881
20
16.477032
42
0.223411
0
VERTEX
8
1
10
10.068985
20
16.293907
42
0.127590
0
VERTEX
8
1
10
10.191597
20
16.340324
42
0.023598
0
VERTEX
8
1
10
10.193287
20
16.054596
0
VERTEX
8
1
10
10.193386
20
15.601410
42
-0.177109
0
VERTEX
8
1
10
9.948849
20
15.887306
42
0.053693
0
VERTEX
8
1
10
9.930336
20
16.034691
42
0.044011
0
VERTEX
8
1
10
9.927708
20
16.176666
42
0.307153
0
VERTEX
8
1
10
9.865822
20
16.121178
42
0.033918
0
VERTEX
8
1
10
9.726418
20
15.776413
42
-0.004701
0
VERTEX
8
1
10
9.706146
20
15.670517
0
VERTEX
8
1
10
9.702465
20
15.665543
42
-0.115725
0
VERTEX
8
1
10
9.634357
20
15.729591
42
0.100780
0
VERTEX
8
1
10
9.402080
20
15.911062
0
VERTEX
8
1
10
9.384933
20
15.915346
42
0.416993
0
VERTEX
8
1
10
9.335789
20
15.893768
42
0.081575
0
VERTEX
8
1
10
9.431370
20
15.740479
42
-0.028987
0
VERTEX
8
1
10
9.479843
20
15.628494
42
0.051259
0
VERTEX
8
1
10
9.533562
20
15.559944
42
0.005871
0
VERTEX
8
1
10
9.596619
20
15.428711
42
-0.057409
0
VERTEX
8
1
10
9.625290
20
15.302299
42
-0.077679
0
VERTEX
8
1
10
9.636559
20
15.263138
0
VERTEX
8
1
10
9.554504
20
15.219704
42
0.147362
0
VERTEX
8
1
10
8.748768
20
16.080948
0
VERTEX
8
1
10
8.516834
20
16.259636
42
0.044824
0
VERTEX
8
1
10
7.859570
20
16.535988
0
VERTEX
8
1
10
7.847454
20
16.545975
0
VERTEX
8
1
10
7.838982
20
16.577026
0
VERTEX
8
1
10
7.831684
20
16.608376
42
0.065159
0
VERTEX
8
1
10
7.763583
20
16.864759
42
-0.152698
0
VERTEX
8
1
10
7.764290
20
16.939850
42
0.153983
0
VERTEX
8
1
10
7.737385
20
17.030006
42
-0.016993
0
VERTEX
8
1
10
7.653210
20
17.198288
42
-0.136454
0
VERTEX
8
1
10
7.655006
20
17.269516
42
0.149419
0
VERTEX
8
1
10
7.624990
20
17.360956
42
-0.082641
0
VERTEX
8
1
10
7.589581
20
17.483582
42
-0.068479
0
VERTEX
8
1
10
7.542259
20
17.866529
42
-0.053347
0
VERTEX
8
1
10
7.572655
20
18.597786
42
-0.090715
0
VERTEX
8
1
10
7.662907
20
18.815720
42
-0.084142
0
VERTEX
8
1
10
7.791060
20
18.906073
42
0.204779
0
VERTEX
8
1
10
7.824554
20
18.963264
42
-0.405028
0
VERTEX
8
1
10
7.916901
20
18.995087
42
0.076737
0
VERTEX
8
1
10
8.031685
20
18.988533
42
-0.178548
0
VERTEX
8
1
10
8.093849
20
18.947350
42
-0.189038
0
VERTEX
8
1
10
8.259282
20
18.608635
42
-0.131176
0
VERTEX
8
1
10
8.216419
20
18.446068
42
0.154249
0
VERTEX
8
1
10
8.158516
20
18.342636
42
-0.176986
0
VERTEX
8
1
10
8.123730
20
18.302696
42
0.076706
0
VERTEX
8
1
10
8.204623
20
18.103735
42
0.318663
0
VERTEX
8
1
10
8.338463
20
18.068680
42
0.197279
0
VERTEX
8
1
10
8.604809
20
18.302299
42
0.159573
0
VERTEX
8
1
10
8.621033
20
18.630417
0
VERTEX
8
1
10
8.612610
20
18.717247
42
0.187345
0
VERTEX
8
1
10
8.479465
20
19.014557
42
0.063092
0
VERTEX
8
1
10
8.146862
20
19.292175
42
0.230083
0
VERTEX
8
1
10
7.652489
20
19.411774
42
-0.008240
0
VERTEX
8
1
10
7.373337
20
19.300873
42
0.151985
0
VERTEX
8
1
10
7.045029
20
18.999620
42
0.161233
0
VERTEX
8
1
10
6.879251
20
18.356949
42
0.014091
0
VERTEX
8
1
10
6.943394
20
17.695869
42
-0.034794
0
VERTEX
8
1
10
6.981422
20
17.444550
42
0.059935
0
VERTEX
8
1
10
7.031024
20
17.311440
42
-0.175065
0
VERTEX
8
1
10
7.031628
20
17.235840
42
0.201854
0
VERTEX
8
1
10
7.056118
20
17.164536
42
-0.132188
0
VERTEX
8
1
10
7.085298
20
17.034218
42
-0.101907
0
VERTEX
8
1
10
7.134381
20
16.674997
42
-0.179594
0
VERTEX
8
1
10
7.067418
20
16.569954
42
0.159558
0
VERTEX
8
1
10
7.032894
20
16.508179
42
-0.209038
0
VERTEX
8
1
10
6.838493
20
16.580368
42
-0.033862
0
VERTEX
8
1
10
6.667596
20
16.705486
42
0.070285
0
VERTEX
8
1
10
6.576958
20
16.753120
42
-0.159355
0
VERTEX
8
1
10
6.510391
20
16.816536
0
VERTEX
8
1
10
6.455288
20
16.808479
0
VERTEX
8
1
10
6.451469
20
16.810989
42
-0.016691
0
VERTEX
8
1
10
6.413284
20
16.866455
42
-0.029594
0
VERTEX
8
1
10
6.269042
20
16.857513
42
0.219205
0
VERTEX
8
1
10
6.196352
20
16.803734
42
0.146924
0
VERTEX
8
1
10
6.082520
20
16.520828
42
0.014268
0
VERTEX
8
1
10
6.052949
20
16.062071
42
-0.091650
0
VERTEX
8
1
10
5.995394
20
15.870477
42
-0.110279
0
VERTEX
8
1
10
5.951283
20
15.829796
42
-0.265470
0
VERTEX
8
1
10
5.889694
20
15.868950
42
-0.043110
0
VERTEX
8
1
10
5.648396
20
16.178741
42
-0.022737
0
VERTEX
8
1
10
5.567329
20
16.370705
42
0.042660
0
VERTEX
8
1
10
5.446796
20
16.556480
0
VERTEX
8
1
10
5.436411
20
16.574244
42
0.002798
0
VERTEX
8
1
10
5.281485
20
16.901995
42
0.011194
0
VERTEX
8
1
10
4.957411
20
17.377619
42
0.059837
0
VERTEX
8
1
10
4.702309
20
17.628792
0
VERTEX
8
1
10
4.600796
20
17.710396
42
0.058462
0
VERTEX
8
1
10
4.337898
20
17.910667
42
0.089348
0
VERTEX
8
1
10
4.027805
20
17.988190
0
VERTEX
8
1
10
3.995918
20
17.992729
0
VERTEX
8
1
10
3.964096
20
17.997688
42
0.164353
0
VERTEX
8
1
10
3.656258
20
17.967430
42
0.007625
0
VERTEX
8
1
10
3.454132
20
17.878914
42
0.073495
0
VERTEX
8
1
10
3.400723
20
17.818893
42
0.022319
0
VERTEX
8
1
10
3.317661
20
17.754036
42
-0.017948
0
VERTEX
8
1
10
3.273842
20
17.666183
42
0.119721
0
VERTEX
8
1
10
3.128326
20
17.466164
42
-0.063880
0
VERTEX
8
1
10
3.001004
20
17.264473
42
0.140371
0
VERTEX
8
1
10
2.967625
20
17.143272
42
0.065752
0
VERTEX
8
1
10
2.982299
20
16.818356
42
0.209407
0
VERTEX
8
1
10
3.329259
20
16.354261
42
0.178351
0
VERTEX
8
1
10
3.570592
20
16.330093
42
0.197950
0
VERTEX
8
1
10
3.717919
20
16.463987
42
0.169099
0
VERTEX
8
1
10
3.772324
20
16.753036
0
VERTEX
8
1
10
3.892204
20
16.994576
0
VERTEX
8
1
10
3.885899
20
16.996849
42
-0.127961
0
VERTEX
8
1
10
3.767248
20
17.025108
42
-0.387093
0
VERTEX
8
1
10
3.759641
20
17.100204
42
-0.223043
0
VERTEX
8
1
10
3.840229
20
17.166542
42
0.177852
0
VERTEX
8
1
10
3.908909
20
17.227325
42
-0.224386
0
VERTEX
8
1
10
3.989983
20
17.270462
42
-0.152668
0
VERTEX
8
1
10
4.215939
20
17.263916
42
-0.117357
0
VERTEX
8
1
10
4.552788
20
16.977997
42
0.055178
0
VERTEX
8
1
10
4.712646
20
16.820610
42
-0.067121
0
VERTEX
8
1
10
4.803516
20
16.706909
42
0.007757
0
VERTEX
8
1
10
4.924477
20
16.534302
42
-0.236892
0
VERTEX
8
1
10
4.968533
20
16.501579
0
VERTEX
8
1
10
5.000534
20
16.422630
0
VERTEX
8
1
10
5.003779
20
16.415916
42
-0.005928
0
VERTEX
8
1
10
5.178802
20
16.212105
42
-0.044270
0
VERTEX
8
1
10
5.225166
20
16.092567
42
0.117991
0
VERTEX
8
1
10
5.298462
20
16.000702
42
-0.114939
0
VERTEX
8
1
10
5.368393
20
15.864952
42
0.157980
0
VERTEX
8
1
10
5.456642
20
15.740685
42
-0.085673
0
VERTEX
8
1
10
5.544525
20
15.572899
42
0.033069
0
VERTEX
8
1
10
5.697599
20
15.251953
42
0.072696
0
VERTEX
8
1
10
5.800915
20
15.137917
0
VERTEX
8
1
10
5.894054
20
15.055641
42
0.153670
0
VERTEX
8
1
10
6.085609
20
14.978668
42
0.106489
0
VERTEX
8
1
10
6.292118
20
14.969704
42
-0.029456
0
VERTEX
8
1
10
6.422852
20
14.965439
42
0.151687
0
VERTEX
8
1
10
6.526062
20
15.000153
42
-0.268825
0
VERTEX
8
1
10
6.576302
20
14.997063
42
0.079576
0
VERTEX
8
1
10
6.630898
20
15.093552
0
VERTEX
8
1
10
6.634605
20
15.077362
42
0.069052
0
VERTEX
8
1
10
6.758202
20
14.645271
42
0.083862
0
VERTEX
8
1
10
7.052197
20
14.279510
42
-0.052375
0
VERTEX
8
1
10
7.228142
20
14.124947
42
0.125369
0
VERTEX
8
1
10
7.285133
20
14.095215
0
VERTEX
8
1
10
7.326534
20
14.085205
42
-0.305128
0
VERTEX
8
1
10
7.392807
20
14.030769
42
-0.025104
0
VERTEX
8
1
10
7.135505
20
13.979144
42
-0.009530
0
VERTEX
8
1
10
6.857494
20
13.968266
42
-0.041321
0
VERTEX
8
1
10
6.805855
20
13.977959
0
VERTEX
8
1
10
6.809441
20
13.972496
42
0.059189
0
VERTEX
8
1
10
7.218662
20
13.754906
42
0.037544
0
VERTEX
8
1
10
7.486565
20
13.697876
42
-0.074549
0
VERTEX
8
1
10
7.673286
20
13.625595
42
0.156458
0
VERTEX
8
1
10
7.860982
20
13.607268
42
-0.237574
0
VERTEX
8
1
10
7.939384
20
13.575241
0
VERTEX
8
1
10
7.943531
20
13.563950
42
-0.047035
0
VERTEX
8
1
10
7.940285
20
13.387825
0
VERTEX
8
1
10
7.941456
20
13.375412
42
0.145967
0
VERTEX
8
1
10
8.143265
20
13.064240
0
VERTEX
8
1
10
8.161407
20
13.039810
42
-0.020386
0
VERTEX
8
1
10
7.859447
20
12.400095
42
0.032245
0
VERTEX
8
1
10
7.651612
20
11.872729
42
-0.077553
0
VERTEX
8
1
10
7.318127
20
11.279854
42
0.076437
0
VERTEX
8
1
10
7.207703
20
11.126984
42
0.102855
0
VERTEX
8
1
10
7.011992
20
10.572614
42
0.084703
0
VERTEX
8
1
10
7.049460
20
10.198687
42
0.045970
0
VERTEX
8
1
10
7.229747
20
9.642973
42
-0.001281
0
VERTEX
8
1
10
6.955367
20
8.050313
42
0.025374
0
VERTEX
8
1
10
6.910993
20
7.818044
42
-0.019516
0
VERTEX
8
1
10
6.760269
20
7.127747
42
0.016267
0
VERTEX
8
1
10
6.461842
20
6.281797
42
0.035973
0
VERTEX
8
1
10
6.420447
20
6.080586
42
0.006050
0
VERTEX
8
1
10
6.151058
20
4.058983
0
VERTEX
8
1
10
6.134024
20
3.965893
42
0.003240
0
VERTEX
8
1
10
5.993098
20
3.465510
42
0.076389
0
VERTEX
8
1
10
5.960201
20
3.072754
42
0.164429
0
VERTEX
8
1
10
6.125626
20
2.733876
42
0.056015
0
VERTEX
8
1
10
6.401399
20
2.487209
42
0.030268
0
VERTEX
8
1
10
6.854980
20
2.184189
42
0.103738
0
VERTEX
8
1
10
7.370705
20
1.729187
0
VERTEX
8
1
10
7.490047
20
1.674698
0
VERTEX
8
1
10
7.617943
20
1.636124
0
VERTEX
8
1
10
7.753292
20
1.618073
0
VERTEX
8
1
10
7.895008
20
1.625198
0
VERTEX
8
1
10
8.012405
20
1.642990
42
0.125905
0
VERTEX
8
1
10
8.611934
20
1.787654
0
VERTEX
8
1
10
8.637604
20
1.803467
0
VERTEX
8
1
10
8.688568
20
1.789703
42
0.246965
0
VERTEX
8
1
10
9.117008
20
1.802917
0
VERTEX
8
1
10
9.201366
20
1.858719
0
VERTEX
8
1
10
9.289753
20
1.936310
0
VERTEX
8
1
10
9.382290
20
2.038116
0
VERTEX
8
1
10
9.479095
20
2.166580
0
VERTEX
8
1
10
9.580288
20
2.324112
0
VERTEX
8
1
10
9.685989
20
2.513168
0
VERTEX
8
1
10
9.687023
20
2.529709
0
VERTEX
8
1
10
9.605896
20
3.219238
42
-0.136880
0
VERTEX
8
1
10
9.619871
20
3.419683
42
-0.066855
0
VERTEX
8
1
10
9.735924
20
3.691284
0
VERTEX
8
1
10
10.854507
20
4.975571
42
0.015713
0
VERTEX
8
1
10
11.753765
20
5.867279
0
VERTEX
8
1
10
11.819256
20
5.941376
42
0.039737
0
VERTEX
8
1
10
12.274792
20
6.602859
42
0.065785
0
VERTEX
8
1
10
13.145775
20
7.180466
0
VERTEX
8
1
10
13.286819
20
7.316284
0
VERTEX
8
1
10
13.416794
20
7.463821
0
VERTEX
8
1
10
13.530231
20
7.622345
0
VERTEX
8
1
10
13.621666
20
7.791107
0
VERTEX
8
1
10
13.683792
20
7.960297
42
0.070295
0
VERTEX
8
1
10
13.897175
20
9.185081
42
-0.041818
0
VERTEX
8
1
10
14.471094
20
9.412418
42
-0.050587
0
VERTEX
8
1
10
14.646194
20
9.439209
0
VERTEX
8
1
10
14.700245
20
9.432373
0
VERTEX
8
1
10
14.774078
20
9.401711
0
VERTEX
8
1
10
14.877773
20
9.345161
42
-0.044634
0
VERTEX
8
1
10
16.068104
20
8.456306
0
VERTEX
8
1
10
16.172707
20
8.352585
0
VERTEX
8
1
10
16.247654
20
8.264275
42
0.059456
0
VERTEX
8
1
10
16.772152
20
7.601959
42
0.022772
0
VERTEX
8
1
10
16.529171
20
6.400893
0
VERTEX
8
1
10
16.503410
20
6.202407
42
0.097724
0
VERTEX
8
1
10
16.582159
20
4.994039
42
0.029610
0
VERTEX
8
1
10
16.846912
20
4.127075
0
VERTEX
8
1
10
16.855816
20
4.096024
42
0.071144
0
VERTEX
8
1
10
17.026754
20
2.967702
42
0.064091
0
VERTEX
8
1
10
17.235443
20
2.527192
42
-0.002055
0
VERTEX
8
1
10
17.970167
20
1.488497
42
0.024813
0
VERTEX
8
1
10
18.320026
20
1.063995
0
VERTEX
8
1
10
18.415649
20
0.976868
0
VERTEX
8
1
10
18.496403
20
0.927643
0
VERTEX
8
1
10
18.559616
20
0.922531
0
VERTEX
8
1
10
18.602619
20
0.967712
0
VERTEX
8
1
10
18.617123
20
1.084320
0
VERTEX
8
1
10
18.597725
20
1.286758
42
0.018487
0
VERTEX
8
1
10
18.384703
20
2.318351
42
-0.008054
0
VERTEX
8
1
10
18.091303
20
3.614013
0
VERTEX
8
1
10
18.049095
20
3.862244
0
VERTEX
8
1
10
18.035194
20
4.035858
0
VERTEX
8
1
10
18.056522
20
4.116989
0
VERTEX
8
1
10
18.119354
20
4.089294
42
-0.033521
0
VERTEX
8
1
10
18.363602
20
3.819031
0
VERTEX
8
1
10
18.444511
20
3.727631
0
VERTEX
8
1
10
18.522938
20
3.649567
0
VERTEX
8
1
10
18.597549
20
3.593185
0
VERTEX
8
1
10
18.667004
20
3.566895
0
VERTEX
8
1
10
18.729969
20
3.579071
0
VERTEX
8
1
10
18.785103
20
3.638092
0
VERTEX
8
1
10
18.831081
20
3.752335
0
VERTEX
8
1
10
18.866558
20
3.930191
0
VERTEX
8
1
10
18.890200
20
4.180023
42
0.011195
0
VERTEX
8
1
10
18.908752
20
5.683895
42
-0.017557
0
VERTEX
8
1
10
18.941673
20
6.362565
0
VERTEX
8
1
10
18.967705
20
6.543884
0
VERTEX
8
1
10
19.005005
20
6.699997
0
VERTEX
8
1
10
19.055630
20
6.829575
0
VERTEX
8
1
10
19.121658
20
6.931290
0
VERTEX
8
1
10
19.205147
20
7.003799
0
VERTEX
8
1
10
19.305840
20
7.055344
42
0.043793
0
VERTEX
8
1
10
20.184855
20
7.560767
42
0.068941
0
VERTEX
8
1
10
20.678677
20
8.044121
0
VERTEX
8
1
10
20.773624
20
8.186295
42
-0.110846
0
VERTEX
8
1
10
21.669985
20
9.127320
42
-0.041088
0
VERTEX
8
1
10
22.376432
20
9.535048
42
-0.030509
0
VERTEX
8
1
10
23.288769
20
9.912667
42
0.008612
0
VERTEX
8
1
10
23.789524
20
10.110359
0
VERTEX
8
1
10
23.992382
20
10.206573
0
VERTEX
8
1
10
24.177608
20
10.312592
0
VERTEX
8
1
10
24.340672
20
10.431435
0
VERTEX
8
1
10
24.477047
20
10.566101
0
VERTEX
8
1
10
24.582211
20
10.719597
0
VERTEX
8
1
10
24.651630
20
10.894936
0
VERTEX
8
1
10
24.680775
20
11.095100
0
VERTEX
8
1
10
24.677288
20
11.329613
0
VERTEX
8
1
10
24.697887
20
11.554604
0
VERTEX
8
1
10
24.748333
20
11.753639
0
VERTEX
8
1
10
24.826221
20
11.927422
0
VERTEX
8
1
10
24.929165
20
12.076683
0
VERTEX
8
1
10
25.054790
20
12.202110
0
VERTEX
8
1
10
25.200695
20
12.304443
0
VERTEX
8
1
10
25.364498
20
12.384361
0
VERTEX
8
1
10
25.543804
20
12.442589
0
VERTEX
8
1
10
25.736233
20
12.479836
0
VERTEX
8
1
10
25.939396
20
12.496811
0
VERTEX
8
1
10
26.150898
20
12.494225
0
VERTEX
8
1
10
26.368359
20
12.472794
0
VERTEX
8
1
10
26.518307
20
12.460213
0
VERTEX
8
1
10
26.640652
20
12.477058
0
VERTEX
8
1
10
26.747776
20
12.518433
0
VERTEX
8
1
10
26.840694
20
12.580681
0
VERTEX
8
1
10
26.920444
20
12.660095
0
VERTEX
8
1
10
26.988056
20
12.752998
42
0.093050
0
VERTEX
8
1
10
27.180035
20
13.290665
0
VERTEX
8
1
10
27.208721
20
13.460754
42
0.052764
0
VERTEX
8
1
10
27.405003
20
13.453896
42
0.028377
0
VERTEX
8
1
10
27.673931
20
13.440292
42
0.155297
0
VERTEX
8
1
10
27.750942
20
13.474167
42
-0.049078
0
VERTEX
8
1
10
27.852528
20
13.498817
42
0.087634
0
VERTEX
8
1
10
28.001194
20
13.603653
42
0.048598
0
VERTEX
8
1
10
28.318417
20
13.902390
42
-0.013996
0
VERTEX
8
1
10
28.486019
20
14.118805
42
0.125907
0
VERTEX
8
1
10
28.547298
20
14.175766
0
VERTEX
8
1
10
28.561253
20
14.259872
42
-0.285291
0
VERTEX
8
1
10
28.606541
20
14.303383
42
0.176970
0
VERTEX
8
1
10
28.610842
20
14.495563
42
0.219417
0
VERTEX
8
1
10
28.565311
20
14.526634
42
0.085441
0
VERTEX
8
1
10
28.334675
20
14.457114
42
0.008385
0
VERTEX
8
1
10
28.202641
20
14.335175
42
0.059970
0
VERTEX
8
1
10
28.033527
20
14.193703
42
-0.147196
0
VERTEX
8
1
10
27.701374
20
14.048454
42
-0.034961
0
VERTEX
8
1
10
27.503231
20
14.027885
42
0.017106
0
VERTEX
8
1
10
27.289265
20
14.043343
42
-0.146018
0
VERTEX
8
1
10
27.150791
20
14.039978
42
-0.100474
0
VERTEX
8
1
10
27.017971
20
14.146446
42
-0.115584
0
VERTEX
8
1
10
26.972050
20
14.297440
42
-0.051662
0
VERTEX
8
1
10
26.931774
20
14.633484
42
-0.132021
0
VERTEX
8
1
10
27.018456
20
14.828723
42
0.128078
0
VERTEX
8
1
10
27.054993
20
14.971539
42
-0.128720
0
VERTEX
8
1
10
27.106197
20
15.087120
42
-0.050875
0
VERTEX
8
1
10
27.197483
20
15.242935
42
-0.127500
0
VERTEX
8
1
10
27.373034
20
15.346326
42
-0.134938
0
VERTEX
8
1
10
27.436764
20
15.339706
42
0.187228
0
VERTEX
8
1
10
27.481884
20
15.346558
0
VERTEX
8
1
10
27.490574
20
15.347214
0
VERTEX
8
1
10
27.497356
20
15.339340
42
-0.326550
0
VERTEX
8
1
10
27.570217
20
15.128296
0
VERTEX
8
1
10
27.565792
20
15.106796
42
-0.256289
0
VERTEX
8
1
10
27.425241
20
14.911393
42
0.014251
0
VERTEX
8
1
10
27.338657
20
14.859430
42
0.368815
0
VERTEX
8
1
10
27.335724
20
14.796961
42
0.303767
0
VERTEX
8
1
10
27.511448
20
14.720032
42
0.208424
0
VERTEX
8
1
10
27.913160
20
14.923111
42
0.065397
0
VERTEX
8
1
10
28.077190
20
15.164574
42
0.170804
0
VERTEX
8
1
10
28.137280
20
15.301918
42
0.149820
0
VERTEX
8
1
10
28.089725
20
15.636513
42
0.311240
0
VERTEX
8
1
10
27.855915
20
15.703830
42
0.382246
0
VERTEX
8
1
10
27.814129
20
15.591408
0
VERTEX
8
1
10
27.822727
20
15.566200
42
-0.456773
0
VERTEX
8
1
10
27.777660
20
15.455284
42
0.030426
0
VERTEX
8
1
10
27.723934
20
15.425072
42
0.291986
0
VERTEX
8
1
10
27.643291
20
15.464699
42
-0.221160
0
VERTEX
8
1
10
27.538494
20
15.523361
42
-0.218462
0
VERTEX
8
1
10
27.459972
20
15.794472
42
-0.057037
0
VERTEX
8
1
10
27.554115
20
16.175312
42
-0.138582
0
VERTEX
8
1
10
27.724087
20
16.373314
42
-0.102371
0
VERTEX
8
1
10
27.887005
20
16.458534
0
VERTEX
8
1
10
27.895260
20
16.457169
0
VERTEX
8
1
10
27.896450
20
16.420502
0
VERTEX
8
1
10
27.896847
20
16.419518
0
VERTEX
8
1
10
27.938290
20
16.410477
0
VERTEX
8
1
10
27.952145
20
16.441673
0
VERTEX
8
1
10
27.955715
20
16.443771
42
-0.092297
0
VERTEX
8
1
10
28.126911
20
16.405220
42
0.114450
0
VERTEX
8
1
10
28.348652
20
16.318100
42
-0.009463
0
VERTEX
8
1
10
28.602589
20
16.267159
42
-0.092966
0
VERTEX
8
1
10
28.698193
20
16.206161
42
0.082905
0
VERTEX
8
1
10
28.827946
20
16.164230
42
-0.038285
0
VERTEX
8
1
10
28.951885
20
16.094856
42
-0.395960
0
VERTEX
8
1
10
28.973200
20
15.881240
0
VERTEX
8
1
10
28.960051
20
15.861316
42
0.037013
0
VERTEX
8
1
10
28.838791
20
15.709374
42
0.140637
0
VERTEX
8
1
10
28.802441
20
15.562991
42
0.280234
0
VERTEX
8
1
10
28.852955
20
15.513306
0
VERTEX
8
1
10
28.884823
20
15.507744
42
0.136976
0
VERTEX
8
1
10
29.149807
20
15.586983
42
0.090982
0
VERTEX
8
1
10
29.539867
20
15.918037
42
0.098054
0
VERTEX
8
1
10
29.637569
20
16.035805
42
0.098797
0
SEQEND
0
POLYLINE
8
1
66
1
70
1
0
VERTEX
8
1
10
16.840260
20
20.987137
0
VERTEX
8
1
10
16.799709
20
20.995094
42
-0.411196
0
VERTEX
8
1
10
16.771240
20
21.046824
42
-0.345182
0
VERTEX
8
1
10
16.926674
20
21.214447
42
0.038447
0
VERTEX
8
1
10
17.113903
20
21.267914
42
-0.117432
0
VERTEX
8
1
10
17.324955
20
21.259995
42
-0.047804
0
VERTEX
8
1
10
17.510090
20
21.223930
42
-0.112207
0
VERTEX
8
1
10
17.634048
20
21.127251
42
-0.271690
0
VERTEX
8
1
10
17.775902
20
20.794769
0
VERTEX
8
1
10
17.768818
20
20.795494
42
0.072653
0
VERTEX
8
1
10
17.641159
20
20.893578
42
-0.059002
0
VERTEX
8
1
10
17.548779
20
20.931938
42
0.313203
0
VERTEX
8
1
10
17.473709
20
20.968437
42
-0.172470
0
VERTEX
8
1
10
17.389748
20
21.001961
42
0.224040
0
VERTEX
8
1
10
17.274330
20
21.018011
42
-0.101057
0
VERTEX
8
1
10
17.151106
20
21.034233
42
0.178574
0
VERTEX
8
1
10
17.094181
20
21.018379
42
-0.102692
0
VERTEX
8
1
10
17.014462
20
21.032974
42
0.080523
0
VERTEX
8
1
10
16.949703
20
21.024719
42
0.066604
0
VERTEX
8
1
10
16.863331
20
21.024490
42
0.312453
0
SEQEND
0
POLYLINE
8
1
66
1
70
1
0
VERTEX
8
1
10
3.579609
20
16.882370
42
-0.044460
0
VERTEX
8
1
10
3.539515
20
16.685730
42
-0.370499
0
VERTEX
8
1
10
3.301620
20
16.586212
42
-0.208636
0
VERTEX
8
1
10
3.072356
20
16.875010
42
-0.059058
0
VERTEX
8
1
10
3.071613
20
16.913750
42
-0.123284
0
VERTEX
8
1
10
3.063244
20
17.048820
42
-0.161197
0
VERTEX
8
1
10
3.132919
20
17.264252
0
VERTEX
8
1
10
3.147711
20
17.290121
42
-0.094634
0
VERTEX
8
1
10
3.374570
20
17.602259
42
0.006609
0
VERTEX
8
1
10
3.472912
20
17.709549
0
VERTEX
8
1
10
3.510838
20
17.695366
42
-0.097045
0
VERTEX
8
1
10
3.425229
20
17.343462
42
0.299197
0
VERTEX
8
1
10
3.481590
20
17.116699
42
0.144160
0
VERTEX
8
1
10
3.572090
20
17.055305
0
VERTEX
8
1
10
3.588947
20
17.056488
0
VERTEX
8
1
10
3.603882
20
17.065071
0
VERTEX
8
1
10
3.567646
20
17.020218
0
VERTEX
8
1
10
3.576160
20
17.005241
42
-0.115966
0
SEQEND
0
POLYLINE
8
1
66
1
70
1
0
VERTEX
8
1
10
6.357731
20
15.762299
42
-0.014332
0
VERTEX
8
1
10
6.474003
20
15.471221
42
-0.180687
0
VERTEX
8
1
10
6.456999
20
15.211411
42
-0.289504
0
VERTEX
8
1
10
6.239198
20
15.097695
42
-0.227342
0
VERTEX
8
1
10
5.901392
20
15.267159
42
-0.076249
0
VERTEX
8
1
10
5.773659
20
15.475365
0
VERTEX
8
1
10
5.842648
20
15.506805
42
-0.191285
0
VERTEX
8
1
10
5.916992
20
15.491531
0
VERTEX
8
1
10
5.944973
20
15.477905
42
0.298422
0
VERTEX
8
1
10
6.073214
20
15.490458
42
0.163013
0
VERTEX
8
1
10
6.162724
20
15.600288
42
0.090261
0
VERTEX
8
1
10
6.212135
20
15.683617
0
VERTEX
8
1
10
6.205341
20
15.722809
42
0.180236
0
VERTEX
8
1
10
6.227409
20
15.982048
0
VERTEX
8
1
10
6.232521
20
15.989685
0
VERTEX
8
1
10
6.248482
20
15.975708
42
-0.059519
0
SEQEND
0
POLYLINE
8
1
66
1
70
1
0
VERTEX
8
1
10
7.046230
20
15.759140
0
VERTEX
8
1
10
7.041935
20
15.745407
42
0.137894
0
VERTEX
8
1
10
6.992857
20
15.452785
42
-0.047715
0
VERTEX
8
1
10
6.979004
20
15.299126
42
0.010234
0
VERTEX
8
1
10
6.942520
20
15.221764
42
0.258715
0
VERTEX
8
1
10
6.966927
20
15.144653
42
-0.084892
0
VERTEX
8
1
10
6.981044
20
14.994294
42
0.077037
0
VERTEX
8
1
10
7.000561
20
14.908546
0
VERTEX
8
1
10
6.995461
20
14.896431
0
VERTEX
8
1
10
6.975349
20
14.895912
0
VERTEX
8
1
10
6.951649
20
14.900528
42
-0.103913
0
VERTEX
8
1
10
6.743404
20
15.026482
42
-0.028325
0
VERTEX
8
1
10
6.654362
20
15.183571
42
0.122930
0
VERTEX
8
1
10
6.621540
20
15.472870
0
VERTEX
8
1
10
6.594463
20
15.550079
42
-0.053177
0
VERTEX
8
1
10
6.582673
20
15.641365
42
0.002400
0
VERTEX
8
1
10
6.529720
20
15.802399
42
-0.118738
0
VERTEX
8
1
10
6.527988
20
16.107735
0
VERTEX
8
1
10
6.538525
20
16.136490
42
-0.361646
0
VERTEX
8
1
10
6.637386
20
16.197685
0
VERTEX
8
1
10
6.671310
20
16.191391
42
-0.177172
0
VERTEX
8
1
10
6.918262
20
15.982025
42
-0.007067
0
VERTEX
8
1
10
7.045307
20
15.767494
0
SEQEND
0
POLYLINE
8
1
66
1
70
1
0
VERTEX
8
1
10
24.981129
20
18.138214
42
-0.224269
0
VERTEX
8
1
10
24.878361
20
18.181648
0
VERTEX
8
1
10
24.872379
20
18.195869
42
-0.248324
0
VERTEX
8
1
10
24.957005
20
18.387629
0
VERTEX
8
1
10
24.970243
20
18.400742
42
-0.069302
0
VERTEX
8
1
10
25.047840
20
18.491661
0
VERTEX
8
1
10
24.992382
20
18.548302
0
VERTEX
8
1
10
24.992817
20
18.549988
0
VERTEX
8
1
10
25.004597
20
18.564758
42
-0.002153
0
VERTEX
8
1
10
25.135662
20
18.534470
42
-0.039428
0
VERTEX
8
1
10
25.336231
20
18.421661
42
-0.155959
0
VERTEX
8
1
10
25.442608
20
18.249321
42
-0.162822
0
VERTEX
8
1
10
25.453098
20
18.014717
0
VERTEX
8
1
10
25.452175
20
18.000679
42
-0.163631
0
VERTEX
8
1
10
25.421921
20
17.850548
0
VERTEX
8
1
10
25.418209
20
17.838593
42
-0.115794
0
VERTEX
8
1
10
25.425938
20
17.801956
42
-0.586144
0
VERTEX
8
1
10
25.379177
20
17.801369
0
VERTEX
8
1
10
25.370213
20
17.814758
42
0.136114
0
VERTEX
8
1
10
25.243206
20
17.988327
42
0.125332
0
VERTEX
8
1
10
25.064083
20
18.106537
42
0.083734
0
SEQEND
0
POLYLINE
8
1
66
1
70
1
0
VERTEX
8
1
10
23.324253
20
18.358498
42
-0.150338
0
VERTEX
8
1
10
23.352901
20
18.458801
42
-0.071761
0
VERTEX
8
1
10
23.494238
20
18.804070
0
VERTEX
8
1
10
23.528629
20
18.866501
42
-0.279526
0
VERTEX
8
1
10
23.808010
20
19.014366
0
VERTEX
8
1
10
23.832256
20
19.015076
42
-0.190040
0
VERTEX
8
1
10
23.971050
20
18.983498
42
0.069229
0
VERTEX
8
1
10
24.050060
20
18.916153
0
VERTEX
8
1
10
24.061131
20
18.881706
0
VERTEX
8
1
10
24.078350
20
18.867798
42
0.036408
0
VERTEX
8
1
10
24.019270
20
18.600294
42
-0.021587
0
VERTEX
8
1
10
24.001148
20
18.539131
0
VERTEX
8
1
10
23.992168
20
18.527664
0
VERTEX
8
1
10
23.980740
20
18.540054
0
VERTEX
8
1
10
23.961109
20
18.550850
42
0.084253
0
VERTEX
8
1
10
23.733913
20
18.587318
42
0.114582
0
VERTEX
8
1
10
23.486414
20
18.491364
42
0.098301
0
VERTEX
8
1
10
23.393938
20
18.380547
42
-0.147250
0
VERTEX
8
1
10
23.318172
20
18.323456
0
VERTEX
8
1
10
23.312359
20
18.326103
42
0.167797
0
SEQEND
0
POLYLINE
8
1
66
1
70
1
0
VERTEX
8
1
10
22.375332
20
16.068611
42
0.033624
0
VERTEX
8
1
10
22.494602
20
16.184639
42
-0.022133
0
VERTEX
8
1
10
23.074917
20
16.264318
42
-0.049370
0
VERTEX
8
1
10
23.297207
20
16.251335
0
VERTEX
8
1
10
23.308910
20
16.253044
42
0.095954
0
VERTEX
8
1
10
23.122181
20
16.309502
0
VERTEX
8
1
10
23.066275
20
16.320087
42
-0.011593
0
VERTEX
8
1
10
22.688549
20
16.429626
42
0.014028
0
VERTEX
8
1
10
22.969219
20
16.820633
42
-0.037495
0
VERTEX
8
1
10
23.113071
20
17.039169
42
0.064405
0
VERTEX
8
1
10
23.174726
20
17.188158
42
-0.145704
0
VERTEX
8
1
10
23.226200
20
17.243622
42
0.189395
0
VERTEX
8
1
10
23.256008
20
17.314075
42
-0.128102
0
VERTEX
8
1
10
23.325878
20
17.437889
42
-0.094762
0
VERTEX
8
1
10
23.542408
20
17.757902
42
-0.186501
0
VERTEX
8
1
10
23.673578
20
17.792664
42
0.123361
0
VERTEX
8
1
10
23.723576
20
17.811989
0
VERTEX
8
1
10
23.733181
20
17.814995
42
-0.197111
0
VERTEX
8
1
10
23.817059
20
17.651367
42
-0.019202
0
VERTEX
8
1
10
23.863733
20
17.378452
42
0.050716
0
VERTEX
8
1
10
23.893314
20
17.293686
42
-0.128789
0
VERTEX
8
1
10
23.895031
20
17.204376
0
VERTEX
8
1
10
23.938389
20
17.173386
0
VERTEX
8
1
10
23.941402
20
17.169930
42
-0.016621
0
VERTEX
8
1
10
23.929913
20
17.096489
42
-0.048522
0
VERTEX
8
1
10
24.031845
20
17.007654
42
0.249751
0
VERTEX
8
1
10
24.125645
20
16.992256
42
0.141041
0
VERTEX
8
1
10
24.390553
20
17.119080
42
0.028101
0
VERTEX
8
1
10
24.724306
20
17.450071
42
-0.100572
0
VERTEX
8
1
10
24.927141
20
17.587166
42
-0.121785
0
VERTEX
8
1
10
24.989788
20
17.587471
42
-0.247470
0
VERTEX
8
1
10
25.005047
20
17.558998
42
-0.042011
0
VERTEX
8
1
10
24.964024
20
17.099442
42
-0.008633
0
VERTEX
8
1
10
24.881115
20
16.866501
42
0.025325
0
VERTEX
8
1
10
24.846928
20
16.664207
42
-0.042446
0
VERTEX
8
1
10
24.814716
20
16.554306
0
VERTEX
8
1
10
24.752056
20
16.363579
42
0.059516
0
VERTEX
8
1
10
24.700069
20
16.122421
42
0.008753
0
VERTEX
8
1
10
24.631105
20
15.706486
42
0.065104
0
VERTEX
8
1
10
24.640713
20
15.246554
42
0.004694
0
VERTEX
8
1
10
24.677959
20
14.905159
42
0.138572
0
VERTEX
8
1
10
24.870899
20
14.531837
0
VERTEX
8
1
10
24.835217
20
14.534803
42
0.004354
0
VERTEX
8
1
10
23.412975
20
15.029930
42
-0.078254
0
VERTEX
8
1
10
23.254444
20
15.176170
42
-0.326162
0
VERTEX
8
1
10
23.391682
20
15.207840
42
0.052623
0
VERTEX
8
1
10
24.018764
20
15.083305
42
0.094952
0
VERTEX
8
1
10
24.171322
20
15.108604
42
0.077225
0
VERTEX
8
1
10
24.483669
20
15.253731
0
VERTEX
8
1
10
24.507130
20
15.275528
0
VERTEX
8
1
10
24.522350
20
15.297104
42
0.212992
0
VERTEX
8
1
10
24.333412
20
15.395164
42
0.069659
0
VERTEX
8
1
10
24.086887
20
15.396286
0
VERTEX
8
1
10
24.001408
20
15.388283
0
VERTEX
8
1
10
23.958714
20
15.385452
42
-0.183931
0
VERTEX
8
1
10
23.732426
20
15.445183
42
0.131997
0
VERTEX
8
1
10
23.355511
20
15.586906
42
-0.038025
0
VERTEX
8
1
10
23.041149
20
15.658974
42
-0.011729
0
VERTEX
8
1
10
22.743084
20
15.742561
42
-0.018460
0
VERTEX
8
1
10
22.480267
20
15.865585
42
0.012081
0
VERTEX
8
1
10
22.283245
20
15.932229
42
-0.270723
0
VERTEX
8
1
10
22.257504
20
15.984154
42
0.037716
0
SEQEND
0
POLYLINE
8
1
66
1
70
1
0
VERTEX
8
1
10
23.184772
20
14.217117
0
VERTEX
8
1
10
23.187992
20
14.139000
42
-0.117807
0
VERTEX
8
1
10
23.156593
20
13.891502
42
-0.112930
0
VERTEX
8
1
10
23.051388
20
13.752365
42
0.169630
0
VERTEX
8
1
10
22.852703
20
13.397095
42
0.050381
0
VERTEX
8
1
10
22.774477
20
12.813046
42
-0.094961
0
VERTEX
8
1
10
22.692829
20
12.489685
0
VERTEX
8
1
10
22.691090
20
12.495789
0
VERTEX
8
1
10
22.695194
20
12.554543
42
0.179018
0
VERTEX
8
1
10
22.655865
20
12.741592
42
-0.076402
0
VERTEX
8
1
10
22.638788
20
12.983276
42
0.134233
0
VERTEX
8
1
10
22.569057
20
13.211517
42
-0.137873
0
VERTEX
8
1
10
22.517910
20
13.404144
42
-0.103389
0
VERTEX
8
1
10
22.551350
20
13.656670
42
0.019914
0
VERTEX
8
1
10
22.628567
20
13.810478
42
0.082810
0
VERTEX
8
1
10
22.641766
20
14.075455
42
0.073107
0
VERTEX
8
1
10
22.592030
20
14.426331
42
0.040216
0
VERTEX
8
1
10
22.517178
20
14.736252
0
VERTEX
8
1
10
22.494846
20
14.734909
42
0.170951
0
VERTEX
8
1
10
22.413479
20
14.605797
42
-0.040311
0
VERTEX
8
1
10
22.334238
20
14.371624
42
-0.145960
0
VERTEX
8
1
10
22.271999
20
14.311058
0
VERTEX
8
1
10
22.252308
20
14.332222
42
-0.075298
0
VERTEX
8
1
10
22.238758
20
14.494087
0
VERTEX
8
1
10
22.242252
20
14.574951
42
0.184642
0
VERTEX
8
1
10
22.174191
20
14.843346
42
0.025543
0
VERTEX
8
1
10
21.883541
20
15.251450
0
VERTEX
8
1
10
21.914410
20
15.247620
42
-0.029817
0
VERTEX
8
1
10
22.101772
20
15.242607
42
-0.211768
0
VERTEX
8
1
10
22.304121
20
15.100629
42
0.169409
0
VERTEX
8
1
10
22.520933
20
14.968277
42
-0.066645
0
VERTEX
8
1
10
22.660587
20
14.899277
42
-0.031364
0
VERTEX
8
1
10
22.765846
20
14.765881
42
0.054326
0
VERTEX
8
1
10
22.785015
20
14.751602
0
VERTEX
8
1
10
22.794895
20
14.757469
42
0.095883
0
VERTEX
8
1
10
22.798294
20
14.948697
42
-0.163733
0
VERTEX
8
1
10
22.841351
20
15.139534
42
0.127936
0
VERTEX
8
1
10
22.859341
20
15.223259
42
0.162445
0
VERTEX
8
1
10
22.918766
20
15.147270
0
VERTEX
8
1
10
22.955585
20
15.120865
42
-0.211589
0
VERTEX
8
1
10
23.011953
20
15.037608
42
0.142506
0
VERTEX
8
1
10
23.079067
20
14.935631
42
0.090664
0
VERTEX
8
1
10
23.283657
20
14.769005
42
-0.134977
0
VERTEX
8
1
10
23.403278
20
14.697365
0
VERTEX
8
1
10
23.688610
20
14.561615
42
0.020333
0
VERTEX
8
1
10
23.790180
20
14.488609
42
-0.175871
0
VERTEX
8
1
10
23.862019
20
14.224052
42
-0.082083
0
VERTEX
8
1
10
23.756094
20
13.649368
42
-0.050039
0
VERTEX
8
1
10
23.707119
20
13.565338
0
VERTEX
8
1
10
23.677799
20
13.539742
0
VERTEX
8
1
10
23.647923
20
13.533501
42
0.051204
0
VERTEX
8
1
10
23.543964
20
13.919336
42
0.041795
0
VERTEX
8
1
10
23.467943
20
14.055656
42
0.013224
0
VERTEX
8
1
10
23.337149
20
14.309078
42
0.116360
0
VERTEX
8
1
10
23.235661
20
14.399208
0
VERTEX
8
1
10
23.204105
20
14.407104
42
0.089150
0
SEQEND
0
POLYLINE
8
1
66
1
70
1
0
VERTEX
8
1
10
21.615948
20
16.301308
42
0.158950
0
VERTEX
8
1
10
22.024015
20
16.393948
42
0.061585
0
VERTEX
8
1
10
22.245815
20
16.552200
42
0.112549
0
VERTEX
8
1
10
22.323246
20
16.609421
0
VERTEX
8
1
10
22.342121
20
16.604843
0
VERTEX
8
1
10
22.398434
20
16.604248
0
VERTEX
8
1
10
22.400112
20
16.604996
42
0.157796
0
VERTEX
8
1
10
22.402660
20
16.630669
42
-0.108476
0
VERTEX
8
1
10
22.407536
20
16.494431
42
-0.197915
0
VERTEX
8
1
10
22.353489
20
16.352127
42
0.282930
0
VERTEX
8
1
10
22.293911
20
16.291519
42
-0.244373
0
VERTEX
8
1
10
21.991110
20
16.109209
42
-0.184398
0
VERTEX
8
1
10
21.634130
20
16.192926
42
-0.061859
0
VERTEX
8
1
10
21.584614
20
16.244843
0
VERTEX
8
1
10
21.579006
20
16.261032
42
-0.654485
0
SEQEND
0
POLYLINE
8
1
66
1
70
1
0
VERTEX
8
1
10
19.980431
20
15.742332
42
0.050932
0
VERTEX
8
1
10
20.142422
20
15.655166
42
-0.252611
0
VERTEX
8
1
10
20.191578
20
15.560250
42
0.088038
0
VERTEX
8
1
10
20.226622
20
15.483274
42
0.065944
0
VERTEX
8
1
10
20.381166
20
15.259192
42
0.542217
0
VERTEX
8
1
10
20.542700
20
15.316257
42
-0.031035
0
VERTEX
8
1
10
20.599310
20
15.421391
42
-0.162123
0
VERTEX
8
1
10
20.661926
20
15.458626
0
VERTEX
8
1
10
20.705154
20
15.461166
42
-0.199433
0
VERTEX
8
1
10
20.824255
20
15.374448
42
-0.083209
0
VERTEX
8
1
10
20.932827
20
15.164148
42
0.001280
0
VERTEX
8
1
10
21.021233
20
14.949860
42
0.080232
0
VERTEX
8
1
10
21.036476
20
14.871933
42
0.558821
0
VERTEX
8
1
10
21.143181
20
14.891548
0
VERTEX
8
1
10
21.164295
20
14.930154
42
0.029628
0
VERTEX
8
1
10
21.360386
20
15.281776
42
0.064488
0
VERTEX
8
1
10
21.450233
20
15.245205
42
-0.203325
0
VERTEX
8
1
10
21.469997
20
15.215729
42
-0.006654
0
VERTEX
8
1
10
21.511623
20
15.110260
0
VERTEX
8
1
10
21.695026
20
14.448120
0
VERTEX
8
1
10
21.695171
20
14.429970
42
-0.025334
0
VERTEX
8
1
10
21.629002
20
14.042091
0
VERTEX
8
1
10
21.610294
20
14.036682
42
-0.145262
0
VERTEX
8
1
10
21.523479
20
14.166550
42
0.062084
0
VERTEX
8
1
10
21.412277
20
14.399487
42
0.124528
0
VERTEX
8
1
10
21.327419
20
14.461052
0
VERTEX
8
1
10
21.300335
20
14.409286
42
0.121325
0
VERTEX
8
1
10
21.317898
20
14.031477
42
0.003593
0
VERTEX
8
1
10
21.396891
20
13.715504
42
-0.074860
0
VERTEX
8
1
10
21.410643
20
13.450015
42
-0.075833
0
VERTEX
8
1
10
21.372852
20
13.342896
42
0.117819
0
VERTEX
8
1
10
21.349415
20
13.132645
42
0.037679
0
VERTEX
8
1
10
21.404148
20
12.650940
42
-0.018126
0
VERTEX
8
1
10
21.418575
20
12.497726
42
-0.022794
0
VERTEX
8
1
10
21.468346
20
12.258689
42
-0.049288
0
VERTEX
8
1
10
21.464016
20
12.220100
0
VERTEX
8
1
10
21.455509
20
12.210648
42
-0.160243
0
VERTEX
8
1
10
21.421083
20
12.267676
42
-0.050610
0
VERTEX
8
1
10
21.382542
20
12.403839
42
0.020018
0
VERTEX
8
1
10
21.279652
20
12.643387
42
0.055119
0
VERTEX
8
1
10
20.915640
20
13.413989
42
-0.052490
0
VERTEX
8
1
10
20.821823
20
13.641090
42
-0.062718
0
VERTEX
8
1
10
20.804310
20
13.914429
42
0.096075
0
VERTEX
8
1
10
20.767727
20
14.068924
42
-0.096143
0
VERTEX
8
1
10
20.758568
20
14.238903
42
0.113445
0
VERTEX
8
1
10
20.722492
20
14.393349
42
-0.036820
0
VERTEX
8
1
10
20.657501
20
14.592171
42
0.017721
0
VERTEX
8
1
10
20.541094
20
14.835958
42
0.132372
0
VERTEX
8
1
10
20.464954
20
14.905647
42
0.218812
0
VERTEX
8
1
10
20.410023
20
14.896790
42
0.035530
0
VERTEX
8
1
10
20.307869
20
14.804313
42
0.423044
0
VERTEX
8
1
10
20.196613
20
14.715187
42
-0.405760
0
VERTEX
8
1
10
20.148445
20
14.698410
42
-0.090983
0
VERTEX
8
1
10
20.137997
20
14.877190
0
VERTEX
8
1
10
20.142929
20
14.937622
42
0.153598
0
VERTEX
8
1
10
20.082592
20
15.252190
42
0.019884
0
VERTEX
8
1
10
19.840677
20
15.684124
42
0.066755
0
VERTEX
8
1
10
19.725323
20
15.805824
42
0.015551
0
VERTEX
8
1
10
19.640934
20
15.803215
0
VERTEX
8
1
10
19.638424
20
15.805389
0
VERTEX
8
1
10
19.650131
20
15.852409
0
VERTEX
8
1
10
19.655113
20
15.851364
42
-0.062667
0
VERTEX
8
1
10
19.727539
20
15.806419
42
-0.152656
0
SEQEND
0
POLYLINE
8
1
66
1
70
1
0
VERTEX
8
1
10
19.987942
20
17.225159
42
-0.101225
0
VERTEX
8
1
10
19.799377
20
17.050568
42
-0.144851
0
VERTEX
8
1
10
19.560226
20
17.009293
42
-0.006301
0
VERTEX
8
1
10
19.297895
20
17.044498
42
-0.143137
0
VERTEX
8
1
10
19.229992
20
17.087830
42
0.048789
0
VERTEX
8
1
10
19.161968
20
17.139198
42
-0.071328
0
VERTEX
8
1
10
18.992477
20
17.344292
42
-0.124373
0
VERTEX
8
1
10
18.914165
20
17.508995
42
0.035758
0
VERTEX
8
1
10
18.899483
20
17.538300
42
0.048959
0
VERTEX
8
1
10
18.990494
20
17.521416
0
VERTEX
8
1
10
18.979111
20
17.536804
0
VERTEX
8
1
10
18.979397
20
17.537598
42
-0.002228
0
VERTEX
8
1
10
19.063820
20
17.462883
42
0.013024
0
VERTEX
8
1
10
19.241291
20
17.358559
42
-0.040445
0
VERTEX
8
1
10
19.432484
20
17.290024
42
0.065838
0
VERTEX
8
1
10
19.625381
20
17.260849
42
-0.193956
0
VERTEX
8
1
10
19.728611
20
17.260187
42
0.284198
0
VERTEX
8
1
10
19.765381
20
17.275536
42
0.099707
0
VERTEX
8
1
10
19.989824
20
17.330347
42
-0.185964
0
VERTEX
8
1
10
20.028557
20
17.332977
42
-0.207365
0
SEQEND
0
POLYLINE
8
1
66
1
70
1
0
VERTEX
8
1
10
19.348763
20
16.473167
0
VERTEX
8
1
10
19.395718
20
16.446793
0
VERTEX
8
1
10
19.279148
20
16.479774
0
VERTEX
8
1
10
19.269615
20
16.483292
42
-0.037690
0
SEQEND
0
POLYLINE
8
1
66
1
70
1
0
VERTEX
8
1
10
18.884739
20
18.999039
42
-0.088909
0
VERTEX
8
1
10
18.906933
20
19.182587
42
-0.030287
0
VERTEX
8
1
10
18.965633
20
19.477943
42
-0.060631
0
VERTEX
8
1
10
19.070396
20
19.670547
0
VERTEX
8
1
10
19.083805
20
19.693954
0
VERTEX
8
1
10
19.111607
20
19.753611
42
-0.088417
0
VERTEX
8
1
10
19.404577
20
20.173042
42
-0.087305
0
VERTEX
8
1
10
19.703568
20
20.372929
42
-0.135552
0
VERTEX
8
1
10
20.107552
20
20.411522
42
-0.024148
0
VERTEX
8
1
10
20.284954
20
20.383896
42
-0.093371
0
VERTEX
8
1
10
20.366058
20
20.330589
42
0.019841
0
VERTEX
8
1
10
20.467403
20
20.285645
42
-0.273440
0
VERTEX
8
1
10
20.516808
20
20.185898
0
VERTEX
8
1
10
20.615490
20
20.270569
0
VERTEX
8
1
10
20.617260
20
20.272400
0
VERTEX
8
1
10
20.633259
20
20.312836
0
VERTEX
8
1
10
20.637207
20
20.314301
42
-0.177567
0
VERTEX
8
1
10
20.692776
20
20.242004
42
0.018532
0
VERTEX
8
1
10
20.870182
20
19.947275
42
-0.051330
0
VERTEX
8
1
10
20.933903
20
19.804359
42
0.039020
0
VERTEX
8
1
10
20.957386
20
19.663879
42
-0.097429
0
VERTEX
8
1
10
21.005150
20
19.521385
42
-0.108903
0
VERTEX
8
1
10
21.012100
20
19.181175
42
-0.018531
0
VERTEX
8
1
10
20.924892
20
18.776039
0
VERTEX
8
1
10
20.914219
20
18.722122
42
-0.190210
0
VERTEX
8
1
10
20.370949
20
17.797390
42
-0.051643
0
VERTEX
8
1
10
19.974476
20
17.532135
42
-0.069225
0
VERTEX
8
1
10
19.728260
20
17.472534
42
0.066688
0
VERTEX
8
1
10
19.606476
20
17.481926
42
-0.190677
0
VERTEX
8
1
10
19.447525
20
17.469009
42
-0.178602
0
VERTEX
8
1
10
19.324085
20
17.530014
42
0.026450
0
VERTEX
8
1
10
19.199329
20
17.590004
42
-0.161510
0
VERTEX
8
1
10
19.086926
20
17.712563
42
0.006297
0
VERTEX
8
1
10
18.991173
20
17.897308
42
-0.060923
0
VERTEX
8
1
10
18.953899
20
18.058599
42
-0.022492
0
VERTEX
8
1
10
18.862007
20
18.523493
42
-0.091156
0
VERTEX
8
1
10
18.887884
20
18.819397
42
0.107460
0
SEQEND
0
POLYLINE
8
1
66
1
70
1
0
VERTEX
8
1
10
18.199562
20
17.003120
0
VERTEX
8
1
10
18.134785
20
17.010185
42
-0.232600
0
VERTEX
8
1
10
18.052105
20
17.045593
0
VERTEX
8
1
10
18.046459
20
17.065910
42
-0.285759
0
VERTEX
8
1
10
18.211674
20
17.287628
0
VERTEX
8
1
10
18.246929
20
17.303123
42
-0.005514
0
VERTEX
8
1
10
18.581116
20
17.412910
42
0.063827
0
VERTEX
8
1
10
18.682228
20
17.234596
42
0.124255
0
VERTEX
8
1
10
18.818342
20
17.057467
42
0.034864
0
VERTEX
8
1
10
18.963346
20
16.898291
0
VERTEX
8
1
10
18.998234
20
16.868454
0
VERTEX
8
1
10
19.005394
20
16.858704
42
-0.009491
0
VERTEX
8
1
10
18.565689
20
16.906715
42
-0.010414
0
VERTEX
8
1
10
18.255623
20
16.993813
42
0.021321
0
SEQEND
0
POLYLINE
8
1
66
1
70
1
0
VERTEX
8
1
10
17.380455
20
15.738976
0
VERTEX
8
1
10
17.489460
20
15.740257
42
-0.093067
0
VERTEX
8
1
10
17.880178
20
15.690521
42
-0.126062
0
VERTEX
8
1
10
17.998188
20
15.597023
42
0.192750
0
VERTEX
8
1
10
17.847469
20
15.954407
0
VERTEX
8
1
10
17.768269
20
16.037643
42
-0.116289
0
VERTEX
8
1
10
17.649193
20
16.216522
0
VERTEX
8
1
10
17.643696
20
16.247749
0
VERTEX
8
1
10
17.648071
20
16.274559
0
VERTEX
8
1
10
17.670300
20
16.280228
42
0.007070
0
VERTEX
8
1
10
17.878052
20
16.309303
42
0.058800
0
VERTEX
8
1
10
18.109325
20
16.420387
42
-0.096101
0
VERTEX
8
1
10
18.275768
20
16.469673
42
-0.141932
0
VERTEX
8
1
10
18.420681
20
16.417770
42
0.073620
0
VERTEX
8
1
10
18.675816
20
16.311577
42
-0.088086
0
VERTEX
8
1
10
18.853851
20
16.211761
0
VERTEX
8
1
10
18.872452
20
16.190430
0
VERTEX
8
1
10
18.865372
20
16.176186
42
-0.081262
0
VERTEX
8
1
10
18.541622
20
16.166679
42
-0.066106
0
VERTEX
8
1
10
18.252605
20
16.213617
42
0.188971
0
VERTEX
8
1
10
18.066578
20
16.176102
0
VERTEX
8
1
10
18.073437
20
16.156746
42
0.058848
0
VERTEX
8
1
10
18.314243
20
15.952087
42
0.150355
0
VERTEX
8
1
10
18.578808
20
15.895760
42
-0.078471
0
VERTEX
8
1
10
18.856461
20
15.867760
42
-0.034747
0
VERTEX
8
1
10
19.212034
20
15.782529
42
-0.163325
0
VERTEX
8
1
10
19.396824
20
15.623047
42
-0.088017
0
VERTEX
8
1
10
19.553040
20
15.274109
42
-0.070328
0
VERTEX
8
1
10
19.597370
20
15.053940
0
VERTEX
8
1
10
19.595219
20
15.032249
0
VERTEX
8
1
10
19.590031
20
15.014000
0
VERTEX
8
1
10
19.579174
20
15.009315
42
0.096148
0
VERTEX
8
1
10
19.286068
20
15.314217
0
VERTEX
8
1
10
19.257450
20
15.337349
42
0.037198
0
VERTEX
8
1
10
18.964516
20
15.591915
42
0.091868
0
VERTEX
8
1
10
18.850979
20
15.635033
0
VERTEX
8
1
10
18.815430
20
15.634010
0
VERTEX
8
1
10
18.796989
20
15.627373
0
VERTEX
8
1
10
19.179810
20
15.043603
42
0.008643
0
VERTEX
8
1
10
19.403954
20
14.773987
42
-0.140437
0
VERTEX
8
1
10
19.494034
20
14.647507
42
-0.214672
0
VERTEX
8
1
10
19.466480
20
14.528954
42
0.236438
0
VERTEX
8
1
10
19.463554
20
14.408981
42
-0.031121
0
VERTEX
8
1
10
19.503338
20
14.264709
42
0.082582
0
VERTEX
8
1
10
19.762478
20
13.797371
42
-0.025654
0
VERTEX
8
1
10
19.887913
20
13.594406
42
0.030681
0
VERTEX
8
1
10
20.023491
20
13.419838
0
VERTEX
8
1
10
20.005398
20
13.421921
42
-0.098328
0
VERTEX
8
1
10
19.827721
20
13.530869
42
-0.006839
0
VERTEX
8
1
10
19.521408
20
13.787888
42
-0.058984
0
VERTEX
8
1
10
19.124043
20
14.121411
42
-0.105594
0
VERTEX
8
1
10
18.987946
20
14.378845
42
0.014094
0
VERTEX
8
1
10
18.939796
20
14.637062
42
0.126816
0
VERTEX
8
1
10
18.799244
20
14.857552
0
VERTEX
8
1
10
18.754681
20
14.906308
42
0.020104
0
VERTEX
8
1
10
18.423489
20
15.273262
42
0.055867
0
VERTEX
8
1
10
18.159180
20
15.445954
42
-0.009406
0
VERTEX
8
1
10
18.114178
20
15.475563
42
-0.121031
0
VERTEX
8
1
10
18.171795
20
15.316208
42
0.038252
0
VERTEX
8
1
10
18.207188
20
15.147270
42
-0.151236
0
VERTEX
8
1
10
18.246212
20
14.960869
42
-0.119163
0
VERTEX
8
1
10
18.209423
20
14.733471
42
0.074203
0
VERTEX
8
1
10
18.191278
20
14.589025
42
-0.157324
0
VERTEX
8
1
10
18.046200
20
14.261696
0
VERTEX
8
1
10
18.039593
20
14.268372
0
VERTEX
8
1
10
18.047810
20
14.413612
42
0.088085
0
VERTEX
8
1
10
18.018017
20
14.801468
42
0.063337
0
VERTEX
8
1
10
17.796364
20
15.218605
42
0.101662
0
VERTEX
8
1
10
17.396278
20
15.661459
42
0.074379
0
VERTEX
8
1
10
17.299751
20
15.700066
0
VERTEX
8
1
10
17.290680
20
15.740608
0
VERTEX
8
1
10
17.331207
20
15.739273
0
SEQEND
0
POLYLINE
8
1
66
1
70
1
0
VERTEX
8
1
10
16.045658
20
17.799141
0
VERTEX
8
1
10
15.961861
20
17.875931
42
-0.169509
0
VERTEX
8
1
10
15.784843
20
18.151154
42
-0.128887
0
VERTEX
8
1
10
15.759523
20
18.462292
42
-0.056696
0
VERTEX
8
1
10
15.787202
20
18.533691
42
-0.002051
0
VERTEX
8
1
10
15.913680
20
18.538376
0
VERTEX
8
1
10
15.896049
20
18.523102
42
0.045692
0
VERTEX
8
1
10
16.157873
20
18.101315
42
0.084634
0
VERTEX
8
1
10
16.395657
20
17.908791
42
0.055973
0
VERTEX
8
1
10
16.636988
20
17.789152
42
-0.028824
0
VERTEX
8
1
10
16.750788
20
17.735422
42
-0.073555
0
VERTEX
8
1
10
16.766491
20
17.716743
0
VERTEX
8
1
10
16.756561
20
17.707565
0
VERTEX
8
1
10
16.741440
20
17.701111
42
-0.042296
0
VERTEX
8
1
10
16.579998
20
17.689651
42
-0.109003
0
VERTEX
8
1
10
16.414570
20
17.667000
42
-0.068890
0
VERTEX
8
1
10
16.301548
20
17.677773
42
0.056046
0
VERTEX
8
1
10
16.142483
20
17.735489
42
-0.100377
0
SEQEND
0
POLYLINE
8
1
66
1
70
1
0
VERTEX
8
1
10
15.928596
20
17.532837
42
0.049794
0
VERTEX
8
1
10
15.961025
20
17.602982
42
0.055562
0
VERTEX
8
1
10
16.063595
20
17.547089
42
-0.010612
0
VERTEX
8
1
10
16.186543
20
17.454002
42
-0.026152
0
VERTEX
8
1
10
15.988579
20
17.355583
42
0.203453
0
VERTEX
8
1
10
15.889839
20
17.471725
42
0.020463
0
SEQEND
0
POLYLINE
8
1
66
1
70
1
0
VERTEX
8
1
10
15.707287
20
16.458115
42
0.009872
0
VERTEX
8
1
10
15.555775
20
16.526627
42
-0.190286
0
VERTEX
8
1
10
16.188946
20
16.503136
42
0.548153
0
VERTEX
8
1
10
16.316048
20
16.604469
42
-0.005698
0
VERTEX
8
1
10
16.306446
20
16.764870
42
-0.058371
0
VERTEX
8
1
10
16.315376
20
16.797745
42
-0.092411
0
VERTEX
8
1
10
16.727337
20
16.553505
42
-0.021181
0
VERTEX
8
1
10
16.870876
20
16.366920
42
0.078244
0
VERTEX
8
1
10
17.052542
20
16.219769
42
-0.161003
0
VERTEX
8
1
10
17.138922
20
16.106495
42
-0.140072
0
VERTEX
8
1
10
17.132996
20
16.045204
0
VERTEX
8
1
10
17.127693
20
16.039833
0
VERTEX
8
1
10
16.815498
20
15.872284
42
0.102183
0
VERTEX
8
1
10
17.036804
20
15.391891
42
0.063581
0
VERTEX
8
1
10
17.172188
20
15.269539
42
-0.045231
0
VERTEX
8
1
10
17.446503
20
15.016106
0
VERTEX
8
1
10
17.485947
20
14.961761
0
VERTEX
8
1
10
17.512482
20
14.909325
0
VERTEX
8
1
10
17.522774
20
14.860123
0
VERTEX
8
1
10
17.513493
20
14.815491
0
VERTEX
8
1
10
17.481304
20
14.776764
0
VERTEX
8
1
10
17.455429
20
14.785415
42
-0.002768
0
VERTEX
8
1
10
17.235897
20
14.953441
42
-0.034531
0
VERTEX
8
1
10
17.193214
20
15.000725
0
VERTEX
8
1
10
17.189297
20
14.985565
42
0.172113
0
VERTEX
8
1
10
17.261971
20
14.828621
42
-0.111964
0
VERTEX
8
1
10
17.373512
20
14.623665
42
0.108125
0
VERTEX
8
1
10
17.485092
20
14.446976
42
-0.079938
0
VERTEX
8
1
10
17.543896
20
14.349251
42
-0.024999
0
VERTEX
8
1
10
17.817280
20
13.635437
42
-0.165498
0
VERTEX
8
1
10
17.850883
20
13.323364
42
0.037061
0
VERTEX
8
1
10
17.800890
20
12.929765
42
-0.163650
0
VERTEX
8
1
10
17.537716
20
12.337555
0
VERTEX
8
1
10
17.521603
20
12.334541
42
-0.047038
0
VERTEX
8
1
10
17.574257
20
12.554985
0
VERTEX
8
1
10
17.578560
20
12.577393
42
-0.098843
0
VERTEX
8
1
10
17.630884
20
12.780028
42
0.179838
0
VERTEX
8
1
10
17.622517
20
12.961655
42
-0.075423
0
VERTEX
8
1
10
17.573788
20
13.172462
42
0.080392
0
VERTEX
8
1
10
17.514648
20
13.334137
42
0.054527
0
VERTEX
8
1
10
17.301750
20
13.670776
42
-0.032507
0
VERTEX
8
1
10
17.213051
20
13.862288
42
-0.017061
0
VERTEX
8
1
10
16.875610
20
14.531741
42
-0.059434
0
VERTEX
8
1
10
16.828169
20
14.723329
0
VERTEX
8
1
10
16.817692
20
14.765669
0
VERTEX
8
1
10
16.804943
20
14.807381
42
-0.022366
0
VERTEX
8
1
10
16.754707
20
14.886688
42
-0.096035
0
VERTEX
8
1
10
16.754452
20
14.979836
42
0.114255
0
VERTEX
8
1
10
16.740898
20
15.069702
42
0.019689
0
VERTEX
8
1
10
16.622032
20
15.345978
42
-0.057319
0
VERTEX
8
1
10
16.558308
20
15.606064
42
-0.082370
0
VERTEX
8
1
10
16.530033
20
15.872742
42
0.105648
0
VERTEX
8
1
10
16.511566
20
15.964455
0
VERTEX
8
1
10
16.500790
20
15.957336
42
0.127775
0
VERTEX
8
1
10
16.361034
20
15.671445
42
0.119952
0
VERTEX
8
1
10
16.325211
20
15.863090
42
0.199577
0
VERTEX
8
1
10
15.849102
20
16.382927
42
-0.003450
0
VERTEX
8
1
10
15.749626
20
16.414047
42
-0.068113
0
VERTEX
8
1
10
15.851223
20
16.382271
42
0.047303
0
VERTEX
8
1
10
15.954849
20
16.354889
42
-0.036304
0
SEQEND
0
POLYLINE
8
1
66
1
70
1
0
VERTEX
8
1
10
14.325439
20
15.791199
42
0.109282
0
VERTEX
8
1
10
14.179718
20
15.988480
0
VERTEX
8
1
10
14.123096
20
16.043495
42
-0.096957
0
VERTEX
8
1
10
13.987175
20
16.218979
0
VERTEX
8
1
10
13.977558
20
16.249588
0
VERTEX
8
1
10
13.973724
20
16.280548
0
VERTEX
8
1
10
13.985409
20
16.300232
42
-0.021592
0
VERTEX
8
1
10
14.206421
20
16.328712
42
0.078352
0
VERTEX
8
1
10
14.446442
20
16.426483
42
-0.085555
0
VERTEX
8
1
10
14.652927
20
16.498741
42
-0.166879
0
VERTEX
8
1
10
14.829582
20
16.450432
42
0.069389
0
VERTEX
8
1
10
15.123134
20
16.335636
42
-0.080119
0
VERTEX
8
1
10
15.313538
20
16.237518
0
VERTEX
8
1
10
15.334045
20
16.216866
0
VERTEX
8
1
10
15.337822
20
16.199081
0
VERTEX
8
1
10
15.311024
20
16.192314
42
-0.060214
0
VERTEX
8
1
10
14.936432
20
16.189011
42
-0.069003
0
VERTEX
8
1
10
14.683787
20
16.230141
42
0.166305
0
VERTEX
8
1
10
14.460369
20
16.206459
0
VERTEX
8
1
10
14.440273
20
16.187256
42
0.070809
0
VERTEX
8
1
10
14.745092
20
15.952157
42
0.027644
0
VERTEX
8
1
10
14.782379
20
15.937561
0
VERTEX
8
1
10
15.875435
20
15.674950
0
VERTEX
8
1
10
15.888565
20
15.668922
42
-0.103370
0
VERTEX
8
1
10
16.096756
20
15.256676
42
-0.094401
0
VERTEX
8
1
10
16.140923
20
15.016705
42
-0.113007
0
VERTEX
8
1
10
16.126026
20
14.987846
42
0.094289
0
VERTEX
8
1
10
15.791302
20
15.311218
0
VERTEX
8
1
10
15.760376
20
15.335030
42
0.038739
0
VERTEX
8
1
10
15.440321
20
15.593324
42
0.072361
0
VERTEX
8
1
10
15.327415
20
15.636505
0
VERTEX
8
1
10
15.289085
20
15.638588
0
VERTEX
8
1
10
15.253326
20
15.630783
42
0.164891
0
VERTEX
8
1
10
15.332514
20
15.402917
42
0.061994
0
VERTEX
8
1
10
15.560417
20
15.142555
42
-0.038542
0
VERTEX
8
1
10
15.842190
20
14.840126
42
0.001357
0
VERTEX
8
1
10
16.010008
20
14.662035
42
-0.334659
0
VERTEX
8
1
10
16.001221
20
14.501801
42
0.259986
0
VERTEX
8
1
10
15.990334
20
14.385300
42
-0.035301
0
VERTEX
8
1
10
16.033680
20
14.239204
0
VERTEX
8
1
10
16.049395
20
14.193933
42
0.077696
0
VERTEX
8
1
10
16.333759
20
13.730667
42
-0.026384
0
VERTEX
8
1
10
16.456066
20
13.544579
42
0.046292
0
VERTEX
8
1
10
16.615513
20
13.354706
0
VERTEX
8
1
10
16.606178
20
13.350975
0
VERTEX
8
1
10
16.586029
20
13.354919
42
-0.082773
0
VERTEX
8
1
10
16.395981
20
13.467215
42
0.001902
0
VERTEX
8
1
10
16.045033
20
13.740036
42
-0.068999
0
VERTEX
8
1
10
15.588350
20
14.108871
42
-0.138862
0
VERTEX
8
1
10
15.452302
20
14.420439
42
0.034829
0
VERTEX
8
1
10
15.402124
20
14.638154
42
0.109660
0
VERTEX
8
1
10
15.291992
20
14.799347
0
VERTEX
8
1
10
15.233002
20
14.859314
42
0.016605
0
VERTEX
8
1
10
14.848568
20
15.257095
42
0.060911
0
VERTEX
8
1
10
14.557085
20
15.436688
42
-0.012340
0
VERTEX
8
1
10
14.492805
20
15.475883
42
-0.152474
0
VERTEX
8
1
10
14.539498
20
15.385616
42
-0.038364
0
VERTEX
8
1
10
14.586385
20
15.175810
42
0.068184
0
VERTEX
8
1
10
14.624115
20
15.083733
0
VERTEX
8
1
10
14.630919
20
15.064799
42
-0.096840
0
VERTEX
8
1
10
14.629066
20
14.776443
42
0.098647
0
VERTEX
8
1
10
14.581730
20
14.585690
42
-0.168320
0
VERTEX
8
1
10
14.467772
20
14.276647
42
-0.033082
0
VERTEX
8
1
10
14.416256
20
14.214874
0
VERTEX
8
1
10
14.414349
20
14.237160
42
0.039790
0
VERTEX
8
1
10
14.420307
20
14.641304
42
0.113846
0
VERTEX
8
1
10
14.291872
20
14.977692
42
0.059008
0
VERTEX
8
1
10
13.885653
20
15.521868
42
0.072260
0
VERTEX
8
1
10
13.652869
20
15.687388
42
0.047477
0
VERTEX
8
1
10
13.592594
20
15.704567
0
VERTEX
8
1
10
13.582970
20
15.744614
0
VERTEX
8
1
10
13.585567
20
15.747284
0
VERTEX
8
1
10
13.633572
20
15.745682
42
-0.039380
0
VERTEX
8
1
10
14.118161
20
15.728806
42
-0.095734
0
VERTEX
8
1
10
14.315086
20
15.650917
0
VERTEX
8
1
10
14.352722
20
15.616989
0
VERTEX
8
1
10
14.367138
20
15.611053
42
0.089573
0
SEQEND
0
POLYLINE
8
1
66
1
70
1
0
VERTEX
8
1
10
13.123993
20
13.889626
42
0.265689
0
VERTEX
8
1
10
13.477577
20
13.747750
42
-0.051352
0
VERTEX
8
1
10
13.675758
20
13.739967
0
VERTEX
8
1
10
13.684776
20
13.723412
42
-0.160035
0
VERTEX
8
1
10
13.587307
20
13.635826
42
-0.107028
0
VERTEX
8
1
10
13.138840
20
13.520990
42
-0.109472
0
VERTEX
8
1
10
12.860661
20
13.589218
42
-0.057084
0
VERTEX
8
1
10
12.247681
20
13.915054
42
-0.020638
0
VERTEX
8
1
10
12.062740
20
14.081265
42
0.085122
0
VERTEX
8
1
10
11.952309
20
14.139908
42
-0.228973
0
VERTEX
8
1
10
11.852257
20
14.255386
42
0.101057
0
VERTEX
8
1
10
11.783493
20
14.365097
42
-0.044119
0
VERTEX
8
1
10
11.514675
20
14.715802
42
-0.030421
0
VERTEX
8
1
10
11.482086
20
14.788689
42
0.195189
0
VERTEX
8
1
10
11.538757
20
14.903679
0
VERTEX
8
1
10
11.542095
20
14.905102
42
-0.000222
0
VERTEX
8
1
10
11.627471
20
14.865414
0
VERTEX
8
1
10
11.637574
20
14.888161
42
-0.687464
0
VERTEX
8
1
10
11.664276
20
14.896553
42
-0.142681
0
VERTEX
8
1
10
11.704414
20
14.824191
42
0.216500
0
VERTEX
8
1
10
11.833109
20
14.720399
42
-0.145810
0
VERTEX
8
1
10
11.981024
20
14.592649
42
0.214736
0
VERTEX
8
1
10
12.110764
20
14.535439
42
-0.050033
0
VERTEX
8
1
10
12.303592
20
14.444448
42
0.171441
0
VERTEX
8
1
10
12.558737
20
14.422131
42
-0.185214
0
VERTEX
8
1
10
12.717285
20
14.381012
42
0.131578
0
VERTEX
8
1
10
12.858910
20
14.343132
42
0.178093
0
VERTEX
8
1
10
13.320916
20
14.477927
42
0.124584
0
VERTEX
8
1
10
13.594191
20
14.779333
42
0.119767
0
VERTEX
8
1
10
13.626666
20
14.971798
42
-0.045149
0
VERTEX
8
1
10
13.644413
20
15.112495
0
VERTEX
8
1
10
13.653824
20
15.130646
0
VERTEX
8
1
10
13.663960
20
15.120583
0
VERTEX
8
1
10
13.674404
20
15.102036
42
-0.154256
0
VERTEX
8
1
10
13.714799
20
14.417358
0
VERTEX
8
1
10
13.701950
20
14.364778
0
VERTEX
8
1
10
13.687168
20
14.312706
42
-0.054560
0
VERTEX
8
1
10
13.667538
20
14.207443
42
-0.195972
0
VERTEX
8
1
10
13.520081
20
14.083076
42
0.067619
0
VERTEX
8
1
10
13.391937
20
14.005058
42
-0.122976
0
VERTEX
8
1
10
13.269005
20
13.963356
42
0.070594
0
VERTEX
8
1
10
13.112457
20
13.920700
0
VERTEX
8
1
10
13.108860
20
13.907005
0
SEQEND
0
POLYLINE
8
1
66
1
70
1
0
VERTEX
8
1
10
13.232723
20
17.362419
42
0.040075
0
VERTEX
8
1
10
13.396450
20
17.294266
42
-0.004914
0
VERTEX
8
1
10
13.501640
20
17.297056
42
-0.566705
0
VERTEX
8
1
10
13.516357
20
17.242859
0
VERTEX
8
1
10
13.499542
20
17.228012
42
-0.118986
0
VERTEX
8
1
10
13.226933
20
17.128906
42
-0.078480
0
VERTEX
8
1
10
13.024822
20
17.113602
42
-0.216410
0
VERTEX
8
1
10
12.839031
20
17.255844
42
-0.356595
0
VERTEX
8
1
10
12.865212
20
17.634098
42
-0.096716
0
VERTEX
8
1
10
12.999413
20
17.748222
42
0.152132
0
VERTEX
8
1
10
13.152401
20
17.416794
42
0.063026
0
SEQEND
0
POLYLINE
8
1
66
1
70
1
0
VERTEX
8
1
10
12.861679
20
20.485756
42
0.100121
0
VERTEX
8
1
10
12.653584
20
20.600967
42
0.104874
0
VERTEX
8
1
10
12.544686
20
20.596661
42
0.017940
0
VERTEX
8
1
10
12.373726
20
20.566223
0
VERTEX
8
1
10
12.370117
20
20.591049
42
-0.038563
0
VERTEX
8
1
10
12.329372
20
20.563385
0
VERTEX
8
1
10
12.322033
20
20.570808
0
VERTEX
8
1
10
12.320103
20
20.589287
0
VERTEX
8
1
10
12.326927
20
20.608505
42
-0.102654
0
VERTEX
8
1
10
12.454910
20
20.716957
42
-0.190060
0
VERTEX
8
1
10
12.623264
20
20.786316
42
-0.003345
0
VERTEX
8
1
10
12.786366
20
20.804161
42
-0.167947
0
VERTEX
8
1
10
12.947861
20
20.743881
42
-0.206098
0
VERTEX
8
1
10
13.044271
20
20.623970
42
-0.235923
0
VERTEX
8
1
10
12.957476
20
20.400101
42
-0.374121
0
VERTEX
8
1
10
12.938084
20
20.408463
42
0.043546
0
SEQEND
0
POLYLINE
8
1
66
1
70
1
0
VERTEX
8
1
10
12.736584
20
16.895012
42
0.007235
0
VERTEX
8
1
10
12.715263
20
16.958733
42
0.114603
0
VERTEX
8
1
10
12.828869
20
16.860420
42
-0.014524
0
VERTEX
8
1
10
12.784538
20
16.812042
42
0.083835
0
VERTEX
8
1
10
12.747639
20
16.846741
42
0.036346
0
SEQEND
0
POLYLINE
8
1
66
1
70
1
0
VERTEX
8
1
10
11.362457
20
15.571938
42
0.025877
0
VERTEX
8
1
10
11.360058
20
15.636360
42
-0.021519
0
VERTEX
8
1
10
11.676389
20
15.760057
42
0.105619
0
VERTEX
8
1
10
11.818730
20
15.867613
42
-0.122205
0
VERTEX
8
1
10
11.909481
20
15.915421
42
0.180457
0
VERTEX
8
1
10
12.077083
20
15.962974
42
-0.132160
0
VERTEX
8
1
10
12.421124
20
16.068558
42
0.096122
0
VERTEX
8
1
10
12.687023
20
16.158539
42
-0.128159
0
VERTEX
8
1
10
12.968594
20
16.202126
42
0.033164
0
VERTEX
8
1
10
13.404812
20
16.196520
42
-0.150531
0
VERTEX
8
1
10
13.651711
20
16.112864
42
0.123257
0
VERTEX
8
1
10
13.784004
20
16.079597
42
0.081171
0
VERTEX
8
1
10
13.556450
20
16.047104
42
0.022417
0
VERTEX
8
1
10
13.370285
20
16.012215
42
0.018473
0
VERTEX
8
1
10
13.319477
20
15.971130
42
-0.101433
0
VERTEX
8
1
10
13.189616
20
15.968097
42
0.245925
0
VERTEX
8
1
10
13.127350
20
15.929840
42
-0.199955
0
VERTEX
8
1
10
13.050591
20
15.917107
42
0.110421
0
VERTEX
8
1
10
12.873367
20
15.895775
42
-0.005432
0
VERTEX
8
1
10
12.495914
20
15.779915
42
0.096882
0
VERTEX
8
1
10
12.170689
20
15.592979
0
VERTEX
8
1
10
12.182232
20
15.568329
42
0.112815
0
VERTEX
8
1
10
12.472656
20
15.519211
42
-0.012605
0
VERTEX
8
1
10
12.956284
20
15.525085
42
-0.033640
0
VERTEX
8
1
10
13.152798
20
15.474838
42
0.015339
0
VERTEX
8
1
10
13.229145
20
15.469254
0
VERTEX
8
1
10
13.217545
20
15.468254
42
0.123091
0
VERTEX
8
1
10
13.104551
20
15.453386
42
-0.002126
0
VERTEX
8
1
10
12.878639
20
15.374016
42
0.058799
0
VERTEX
8
1
10
12.510033
20
15.255867
42
0.069911
0
VERTEX
8
1
10
12.295677
20
15.098961
42
-0.106292
0
VERTEX
8
1
10
12.170981
20
14.978369
42
-0.269444
0
VERTEX
8
1
10
12.131634
20
14.989799
42
-0.010852
0
VERTEX
8
1
10
11.972321
20
15.135506
42
0.061809
0
VERTEX
8
1
10
11.819585
20
15.233808
42
0.083273
0
VERTEX
8
1
10
11.718105
20
15.252533
42
-0.028236
0
VERTEX
8
1
10
11.485874
20
15.307678
42
0.046099
0
VERTEX
8
1
10
11.408916
20
15.306213
42
-0.405943
0
VERTEX
8
1
10
11.348587
20
15.384033
42
0.089165
0
VERTEX
8
1
10
11.337555
20
15.481728
0
VERTEX
8
1
10
11.329700
20
15.495590
42
0.267365
0
VERTEX
8
1
10
11.361454
20
15.556000
0
SEQEND
0
POLYLINE
8
1
66
1
70
1
0
VERTEX
8
1
10
11.191078
20
14.069847
42
0.136432
0
VERTEX
8
1
10
11.325412
20
14.231243
42
-0.135586
0
VERTEX
8
1
10
11.391315
20
14.294273
0
VERTEX
8
1
10
11.404411
20
14.287659
0
VERTEX
8
1
10
11.414055
20
14.251358
0
VERTEX
8
1
10
11.430008
20
14.216003
42
0.069681
0
VERTEX
8
1
10
11.598923
20
14.019684
42
-0.051538
0
VERTEX
8
1
10
11.709541
20
13.892189
0
VERTEX
8
1
10
11.743015
20
13.850800
42
-0.039728
0
VERTEX
8
1
10
11.974604
20
13.570922
42
-0.119601
0
VERTEX
8
1
10
12.030445
20
13.390533
0
VERTEX
8
1
10
12.020420
20
13.388290
42
0.030725
0
VERTEX
8
1
10
11.903336
20
13.516167
42
0.017270
0
VERTEX
8
1
10
11.753947
20
13.604140
42
-0.050178
0
VERTEX
8
1
10
11.725517
20
13.632210
42
-0.024924
0
VERTEX
8
1
10
11.957085
20
13.257347
42
-0.088888
0
VERTEX
8
1
10
12.141403
20
12.858452
42
-0.159670
0
VERTEX
8
1
10
12.113575
20
12.659319
42
0.061622
0
VERTEX
8
1
10
12.082561
20
12.509773
0
VERTEX
8
1
10
12.078655
20
12.493225
42
-0.152204
0
VERTEX
8
1
10
12.034944
20
12.560673
42
-0.042291
0
VERTEX
8
1
10
11.993904
20
12.682106
42
0.035128
0
VERTEX
8
1
10
11.888224
20
12.910752
42
0.096176
0
VERTEX
8
1
10
11.808758
20
12.989044
42
-0.149538
0
VERTEX
8
1
10
11.754253
20
13.090202
42
0.112874
0
VERTEX
8
1
10
11.694889
20
13.174324
42
0.074653
0
VERTEX
8
1
10
11.489861
20
13.340660
42
0.036552
0
VERTEX
8
1
10
11.153390
20
13.562660
42
0.048817
0
VERTEX
8
1
10
10.959138
20
13.634464
42
-0.109725
0
VERTEX
8
1
10
10.806164
20
13.730179
42
0.066210
0
VERTEX
8
1
10
10.692993
20
13.804214
42
-0.023809
0
VERTEX
8
1
10
10.637852
20
13.969643
0
VERTEX
8
1
10
10.654026
20
13.921135
42
0.330738
0
VERTEX
8
1
10
10.770812
20
13.863744
42
0.105735
0
VERTEX
8
1
10
10.886780
20
13.892311
42
0.045756
0
SEQEND
0
POLYLINE
8
1
66
1
70
1
0
VERTEX
8
1
10
12.865555
20
10.361656
42
0.019170
0
VERTEX
8
1
10
12.862923
20
10.099380
42
-0.125066
0
VERTEX
8
1
10
12.744587
20
10.288124
42
0.126030
0
VERTEX
8
1
10
12.265629
20
11.058037
42
0.025608
0
VERTEX
8
1
10
11.998249
20
11.301765
42
0.030490
0
VERTEX
8
1
10
11.757830
20
11.522259
42
0.076092
0
VERTEX
8
1
10
11.658165
20
11.569382
0
VERTEX
8
1
10
11.649937
20
11.563383
42
0.001345
0
VERTEX
8
1
10
11.735958
20
11.407730
42
-0.158333
0
VERTEX
8
1
10
11.749825
20
11.256896
42
0.254234
0
VERTEX
8
1
10
11.787270
20
11.173965
42
-0.251106
0
VERTEX
8
1
10
11.811116
20
11.075315
42
-0.101190
0
VERTEX
8
1
10
11.772316
20
10.960037
42
0.152991
0
VERTEX
8
1
10
11.743415
20
10.724372
42
-0.019859
0
VERTEX
8
1
10
11.748348
20
10.635017
42
0.083210
0
VERTEX
8
1
10
11.616623
20
10.956985
42
0.051452
0
VERTEX
8
1
10
11.402840
20
11.297465
42
-0.002215
0
VERTEX
8
1
10
11.210801
20
11.483842
0
VERTEX
8
1
10
11.193893
20
11.504395
42
0.070153
0
VERTEX
8
1
10
10.927937
20
11.815155
42
0.021116
0
VERTEX
8
1
10
10.220867
20
12.355232
42
0.059361
0
VERTEX
8
1
10
9.957615
20
12.481277
0
VERTEX
8
1
10
9.905906
20
12.503611
42
0.001779
0
VERTEX
8
1
10
9.533683
20
12.688598
0
VERTEX
8
1
10
9.562798
20
12.691315
42
-0.093258
0
VERTEX
8
1
10
10.399780
20
12.466736
42
-0.029995
0
VERTEX
8
1
10
10.713135
20
12.258446
42
-0.015303
0
VERTEX
8
1
10
10.941616
20
12.100311
42
0.033047
0
VERTEX
8
1
10
11.100900
20
11.943191
42
0.118689
0
VERTEX
8
1
10
11.174221
20
11.918358
0
VERTEX
8
1
10
11.184814
20
11.928917
42
0.037852
0
VERTEX
8
1
10
11.036522
20
12.234581
0
VERTEX
8
1
10
11.049835
20
12.236061
42
-0.101497
0
VERTEX
8
1
10
11.238323
20
12.104797
42
0.077782
0
VERTEX
8
1
10
11.475231
20
11.968750
42
0.063944
0
VERTEX
8
1
10
11.756302
20
11.851402
0
VERTEX
8
1
10
11.841129
20
11.825607
42
-0.102201
0
VERTEX
8
1
10
12.182949
20
11.653046
42
-0.114068
0
VERTEX
8
1
10
12.418327
20
11.413467
42
0.073877
0
VERTEX
8
1
10
12.510235
20
11.321732
42
-0.087455
0
VERTEX
8
1
10
12.600601
20
11.207672
42
-0.041622
0
VERTEX
8
1
10
12.802959
20
10.846526
42
-0.112875
0
VERTEX
8
1
10
12.866618
20
10.398830
0
VERTEX
8
1
10
12.866140
20
10.380242
0
SEQEND
0
POLYLINE
8
1
66
1
70
1
0
VERTEX
8
1
10
10.454723
20
15.739143
42
0.055807
0
VERTEX
8
1
10
10.528080
20
16.008392
42
-0.041623
0
VERTEX
8
1
10
10.526894
20
16.080841
0
VERTEX
8
1
10
10.567924
20
16.090668
0
VERTEX
8
1
10
10.571693
20
16.093102
42
-0.360058
0
VERTEX
8
1
10
10.666893
20
16.225006
0
VERTEX
8
1
10
10.685570
20
16.224968
42
-0.273380
0
VERTEX
8
1
10
10.685112
20
16.106926
0
VERTEX
8
1
10
10.674335
20
16.084152
42
0.232190
0
VERTEX
8
1
10
10.647287
20
15.879498
42
0.456064
0
VERTEX
8
1
10
10.690483
20
15.875409
42
-0.021871
0
VERTEX
8
1
10
10.769198
20
15.910227
42
-0.471720
0
VERTEX
8
1
10
10.867651
20
15.848695
42
-0.136590
0
VERTEX
8
1
10
10.816380
20
15.630951
42
0.106890
0
VERTEX
8
1
10
10.805168
20
15.437432
42
-0.004356
0
VERTEX
8
1
10
10.912766
20
15.553794
0
VERTEX
8
1
10
10.919353
20
15.551094
42
-0.062847
0
VERTEX
8
1
10
10.874302
20
15.362457
42
0.066891
0
VERTEX
8
1
10
10.855881
20
15.224106
42
-0.012240
0
VERTEX
8
1
10
10.814167
20
15.035706
0
VERTEX
8
1
10
10.811138
20
15.011406
0
VERTEX
8
1
10
10.810463
20
14.988701
0
VERTEX
8
1
10
10.819195
20
14.973366
42
0.288713
0
VERTEX
8
1
10
10.915900
20
14.993008
42
-0.022659
0
VERTEX
8
1
10
10.953960
20
15.015335
0
VERTEX
8
1
10
10.964878
20
15.011078
42
-0.166919
0
VERTEX
8
1
10
10.964954
20
14.953133
42
-0.079206
0
VERTEX
8
1
10
10.844837
20
14.734985
42
0.131415
0
VERTEX
8
1
10
10.797077
20
14.603386
0
VERTEX
8
1
10
10.790516
20
14.589264
42
0.017914
0
VERTEX
8
1
10
10.707458
20
14.571266
0
VERTEX
8
1
10
10.704048
20
14.562408
42
-0.328446
0
VERTEX
8
1
10
10.654007
20
14.474998
0
VERTEX
8
1
10
10.646866
20
14.485313
42
-0.130340
0
VERTEX
8
1
10
10.649239
20
14.742104
42
0.158357
0
VERTEX
8
1
10
10.686802
20
14.889420
42
0.101647
0
VERTEX
8
1
10
10.666000
20
15.020836
0
VERTEX
8
1
10
10.652428
20
15.037933
0
VERTEX
8
1
10
10.634590
20
15.042534
0
VERTEX
8
1
10
10.612041
20
15.031525
0
VERTEX
8
1
10
10.584320
20
15.001816
0
VERTEX
8
1
10
10.577030
20
15.003708
42
-0.081046
0
VERTEX
8
1
10
10.626705
20
15.129440
42
0.034397
0
VERTEX
8
1
10
10.675965
20
15.317150
42
-0.019746
0
VERTEX
8
1
10
10.686756
20
15.344566
0
VERTEX
8
1
10
10.675842
20
15.351303
42
0.011399
0
VERTEX
8
1
10
10.548336
20
15.364830
0
VERTEX
8
1
10
10.533821
20
15.369034
42
0.046819
0
VERTEX
8
1
10
10.612850
20
15.679158
42
-0.018454
0
VERTEX
8
1
10
10.630062
20
15.734886
42
0.385286
0
VERTEX
8
1
10
10.539627
20
15.728790
0
VERTEX
8
1
10
10.524971
20
15.717484
42
-0.308113
0
VERTEX
8
1
10
10.438580
20
15.698601
0
SEQEND
0
POLYLINE
8
1
66
1
70
1
0
VERTEX
8
1
10
9.607567
20
19.815460
42
0.123753
0
VERTEX
8
1
10
9.742534
20
19.930174
42
-0.114233
0
VERTEX
8
1
10
9.968731
20
20.090721
42
-0.032951
0
VERTEX
8
1
10
10.384270
20
20.255836
42
-0.003162
0
VERTEX
8
1
10
10.668495
20
20.314581
42
-0.195709
0
VERTEX
8
1
10
10.812042
20
20.269226
0
VERTEX
8
1
10
10.823601
20
20.253593
0
VERTEX
8
1
10
10.823318
20
20.241127
0
VERTEX
8
1
10
10.813618
20
20.231430
0
VERTEX
8
1
10
10.796898
20
20.224152
42
-0.034463
0
VERTEX
8
1
10
10.626106
20
20.206207
42
0.036795
0
VERTEX
8
1
10
10.569492
20
20.180565
42
-0.221807
0
VERTEX
8
1
10
10.540359
20
20.188492
42
0.078506
0
VERTEX
8
1
10
10.364385
20
20.125690
42
0.003798
0
VERTEX
8
1
10
10.149399
20
20.025650
42
-0.036234
0
VERTEX
8
1
10
10.041267
20
19.954758
0
VERTEX
8
1
10
9.852684
20
19.873726
42
0.081957
0
VERTEX
8
1
10
9.730686
20
19.816673
42
-0.203954
0
VERTEX
8
1
10
9.629139
20
19.751480
42
0.090145
0
VERTEX
8
1
10
9.582928
20
19.727509
0
VERTEX
8
1
10
9.587143
20
19.676865
0
VERTEX
8
1
10
9.586796
20
19.676765
42
0.236208
0
VERTEX
8
1
10
9.563526
20
19.695274
42
-0.159222
0
VERTEX
8
1
10
9.582912
20
19.727676
0
VERTEX
8
1
10
9.582226
20
19.735832
42
-0.443663
0
VERTEX
8
1
10
9.550171
20
19.721619
42
-0.324445
0
VERTEX
8
1
10
9.573425
20
19.791702
0
VERTEX
8
1
10
9.589737
20
19.804253
0
SEQEND
0
POLYLINE
8
1
66
1
70
1
0
VERTEX
8
1
10
10.212463
20
16.657967
42
0.033565
0
VERTEX
8
1
10
10.063192
20
16.596064
42
-0.163937
0
VERTEX
8
1
10
9.932701
20
16.597038
42
-0.145800
0
VERTEX
8
1
10
9.698620
20
16.737709
42
0.095115
0
VERTEX
8
1
10
9.616821
20
16.845932
42
-0.068701
0
VERTEX
8
1
10
9.557018
20
16.994812
42
-0.029002
0
VERTEX
8
1
10
9.561386
20
17.112534
0
VERTEX
8
1
10
9.566120
20
17.125702
0
VERTEX
8
1
10
9.573111
20
17.137825
42
-0.196393
0
VERTEX
8
1
10
9.670115
20
17.353073
42
-0.080691
0
VERTEX
8
1
10
9.699562
20
17.366051
0
VERTEX
8
1
10
9.764972
20
17.339882
42
0.312990
0
VERTEX
8
1
10
9.788372
20
17.269318
42
-0.093747
0
VERTEX
8
1
10
9.844723
20
17.176170
42
0.164170
0
VERTEX
8
1
10
9.962234
20
17.074234
0
VERTEX
8
1
10
9.973167
20
17.065948
42
0.153603
0
VERTEX
8
1
10
10.138866
20
16.960091
42
0.050777
0
VERTEX
8
1
10
10.357235
20
16.903282
0
VERTEX
8
1
10
10.407990
20
16.891586
0
VERTEX
8
1
10
10.457767
20
16.878174
42
-0.185452
0
VERTEX
8
1
10
10.370411
20
16.786224
42
0.080730
0
VERTEX
8
1
10
10.268063
20
16.704056
42
-0.302792
0
SEQEND
0
POLYLINE
8
1
66
1
70
1
0
VERTEX
8
1
10
10.509571
20
14.133392
42
-1.068832
0
VERTEX
8
1
10
10.452076
20
14.159157
42
0.190878
0
VERTEX
8
1
10
10.387969
20
14.523683
42
0.064640
0
VERTEX
8
1
10
10.263187
20
14.697731
0
VERTEX
8
1
10
10.213589
20
14.768082
42
-0.205862
0
VERTEX
8
1
10
10.138494
20
15.145192
42
-0.114032
0
VERTEX
8
1
10
10.172677
20
15.212511
42
-0.870238
0
VERTEX
8
1
10
10.211361
20
15.162056
42
0.214587
0
VERTEX
8
1
10
10.220604
20
14.891343
42
0.095921
0
VERTEX
8
1
10
10.344884
20
14.698649
42
-0.153929
0
VERTEX
8
1
10
10.525455
20
14.279322
42
-0.075445
0
SEQEND
0
POLYLINE
8
1
66
1
70
1
0
VERTEX
8
1
10
8.597599
20
15.062988
42
0.052341
0
VERTEX
8
1
10
8.785065
20
14.938652
42
0.074180
0
VERTEX
8
1
10
9.057164
20
14.805553
42
0.036252
0
VERTEX
8
1
10
9.108253
20
14.798141
0
VERTEX
8
1
10
9.104790
20
14.810501
42
-0.130358
0
VERTEX
8
1
10
9.002377
20
15.015839
42
0.045488
0
VERTEX
8
1
10
8.928650
20
15.261536
42
-0.082100
0
VERTEX
8
1
10
8.915344
20
15.389038
42
-0.096525
0
VERTEX
8
1
10
8.926300
20
15.571304
0
VERTEX
8
1
10
8.932297
20
15.574883
0
VERTEX
8
1
10
8.940216
20
15.569069
42
-0.023493
0
VERTEX
8
1
10
9.077820
20
15.392555
42
0.020964
0
VERTEX
8
1
10
9.261993
20
15.202477
42
0.038713
0
VERTEX
8
1
10
9.501780
20
15.056878
42
-0.060621
0
VERTEX
8
1
10
9.599952
20
14.977046
42
0.394595
0
VERTEX
8
1
10
9.703972
20
14.995125
42
-0.130346
0
VERTEX
8
1
10
9.761147
20
15.030838
42
-10.330634
0
VERTEX
8
1
10
9.779402
20
15.030329
42
-0.019435
0
VERTEX
8
1
10
9.859871
20
15.018211
0
VERTEX
8
1
10
9.864346
20
15.000656
42
-0.059806
0
VERTEX
8
1
10
9.774669
20
14.782631
42
0.140135
0
VERTEX
8
1
10
9.752354
20
14.530011
42
0.154861
0
VERTEX
8
1
10
9.902256
20
14.200559
42
0.092698
0
VERTEX
8
1
10
10.017193
20
14.126205
42
-0.072521
0
VERTEX
8
1
10
9.705231
20
14.240623
42
0.035077
0
VERTEX
8
1
10
9.557331
20
14.344650
0
VERTEX
8
1
10
9.542171
20
14.350540
0
VERTEX
8
1
10
9.532589
20
14.348868
42
0.004330
0
VERTEX
8
1
10
9.620770
20
14.131584
42
0.141100
0
VERTEX
8
1
10
9.786446
20
13.958511
42
0.063577
0
VERTEX
8
1
10
10.088428
20
13.809250
0
VERTEX
8
1
10
10.113350
20
13.805145
42
-0.101838
0
VERTEX
8
1
10
10.351654
20
13.792229
0
VERTEX
8
1
10
10.361794
20
13.785606
42
-0.161911
0
VERTEX
8
1
10
10.120926
20
13.798792
42
0.084867
0
VERTEX
8
1
10
10.037637
20
13.802492
0
VERTEX
8
1
10
10.008929
20
13.804067
0
VERTEX
8
1
10
9.980350
20
13.807205
0
VERTEX
8
1
10
9.852268
20
13.829041
0
VERTEX
8
1
10
9.810139
20
13.836380
42
-0.166569
0
VERTEX
8
1
10
9.151542
20
14.155436
42
-0.118041
0
VERTEX
8
1
10
9.032940
20
14.372467
0
VERTEX
8
1
10
9.025173
20
14.432724
0
VERTEX
8
1
10
9.028233
20
14.495270
0
VERTEX
8
1
10
9.017960
20
14.494713
42
0.037598
0
VERTEX
8
1
10
8.937397
20
14.432625
42
0.172433
0
VERTEX
8
1
10
8.859440
20
14.152122
42
0.070047
0
VERTEX
8
1
10
8.882709
20
13.980326
42
0.114901
0
VERTEX
8
1
10
8.968937
20
13.853218
42
0.165888
0
VERTEX
8
1
10
9.254321
20
13.687569
42
0.033504
0
VERTEX
8
1
10
10.393195
20
13.522667
0
VERTEX
8
1
10
10.465978
20
13.515017
42
-0.132461
0
VERTEX
8
1
10
10.717106
20
13.436005
42
-0.055403
0
VERTEX
8
1
10
10.958724
20
13.279960
42
-0.140947
0
VERTEX
8
1
10
11.022884
20
13.169838
0
VERTEX
8
1
10
11.009979
20
13.160492
42
0.045964
0
VERTEX
8
1
10
10.292213
20
13.361549
42
0.094165
0
VERTEX
8
1
10
10.092537
20
13.349548
0
VERTEX
8
1
10
10.092793
20
13.334206
0
VERTEX
8
1
10
10.104725
20
13.318672
42
0.098891
0
VERTEX
8
1
10
10.259430
20
13.231552
42
-0.110933
0
VERTEX
8
1
10
10.492333
20
13.068373
42
0.079673
0
VERTEX
8
1
10
10.684925
20
12.945450
42
-0.244085
0
VERTEX
8
1
10
11.017727
20
12.432152
0
VERTEX
8
1
10
11.012665
20
12.421127
42
-0.064057
0
VERTEX
8
1
10
10.920326
20
12.474692
42
-0.003860
0
VERTEX
8
1
10
10.643368
20
12.675247
42
0.044401
0
VERTEX
8
1
10
10.090038
20
12.913208
42
0.031355
0
VERTEX
8
1
10
9.485968
20
13.102412
42
0.056005
0
VERTEX
8
1
10
9.101814
20
13.137199
42
-0.152109
0
VERTEX
8
1
10
8.673969
20
13.290726
0
VERTEX
8
1
10
8.647694
20
13.314934
0
VERTEX
8
1
10
8.625515
20
13.339432
42
-0.184503
0
VERTEX
8
1
10
8.476532
20
13.895126
42
-0.084137
0
VERTEX
8
1
10
8.617599
20
14.268120
42
0.033712
0
VERTEX
8
1
10
8.731738
20
14.426881
42
0.299197
0
VERTEX
8
1
10
8.711315
20
14.564392
42
-0.070341
0
VERTEX
8
1
10
8.562946
20
14.816711
42
-0.019032
0
VERTEX
8
1
10
8.446342
20
15.106255
0
VERTEX
8
1
10
8.442314
20
15.131203
0
VERTEX
8
1
10
8.457073
20
15.133774
42
-0.143212
0
SEQEND
0
POLYLINE
8
1
66
1
70
1
0
VERTEX
8
1
10
7.242695
20
18.846062
42
0.366929
0
VERTEX
8
1
10
7.266087
20
18.867119
0
VERTEX
8
1
10
7.269276
20
18.882286
42
-0.023906
0
VERTEX
8
1
10
7.261642
20
18.997498
0
VERTEX
8
1
10
7.266706
20
19.014610
42
-0.228840
0
VERTEX
8
1
10
7.660339
20
19.259367
42
-0.013157
0
VERTEX
8
1
10
7.826326
20
19.292686
42
0.222165
0
VERTEX
8
1
10
7.950588
20
19.206116
0
VERTEX
8
1
10
7.970470
20
19.200493
0
VERTEX
8
1
10
7.985166
20
19.193405
42
-0.216579
0
VERTEX
8
1
10
7.970036
20
19.103233
0
VERTEX
8
1
10
7.956871
20
19.097855
42
0.066673
0
VERTEX
8
1
10
7.771680
20
19.106701
42
0.130373
0
VERTEX
8
1
10
7.723782
20
19.079521
0
VERTEX
8
1
10
7.711826
20
19.054413
0
VERTEX
8
1
10
7.699287
20
19.038025
0
VERTEX
8
1
10
7.640038
20
19.038460
42
0.333508
0
VERTEX
8
1
10
7.467975
20
18.932381
42
-0.198169
0
VERTEX
8
1
10
7.417061
20
18.894440
0
VERTEX
8
1
10
7.443665
20
18.907738
0
VERTEX
8
1
10
7.443291
20
18.908531
0
VERTEX
8
1
10
7.376167
20
18.933624
42
-0.497072
0
VERTEX
8
1
10
7.309250
20
18.840483
42
-0.137930
0
SEQEND
0
POLYLINE
8
1
66
1
70
1
0
VERTEX
8
1
10
7.264030
20
15.844887
42
0.052376
0
VERTEX
8
1
10
7.230236
20
15.911011
42
-0.365808
0
VERTEX
8
1
10
7.149456
20
15.984264
42
-0.120821
0
VERTEX
8
1
10
7.149559
20
16.095879
0
VERTEX
8
1
10
7.150425
20
16.113838
0
VERTEX
8
1
10
7.171795
20
16.066933
42
0.038139
0
VERTEX
8
1
10
7.340680
20
16.087294
42
-0.128360
0
VERTEX
8
1
10
7.411396
20
16.072479
42
0.012699
0
VERTEX
8
1
10
7.551708
20
16.211449
42
0.113257
0
VERTEX
8
1
10
7.624273
20
16.398909
42
-0.012767
0
VERTEX
8
1
10
7.633526
20
16.427208
42
-0.025277
0
VERTEX
8
1
10
7.745947
20
16.153027
42
-0.113747
0
VERTEX
8
1
10
7.751911
20
15.993317
42
0.016687
0
VERTEX
8
1
10
7.711899
20
15.903877
0
VERTEX
8
1
10
7.724033
20
15.821510
42
-0.404424
0
VERTEX
8
1
10
7.564882
20
15.693671
42
-0.143576
0
VERTEX
8
1
10
7.319511
20
15.763008
42
-0.139036
0
SEQEND
0
POLYLINE
8
1
66
1
70
1
0
VERTEX
8
1
10
8.229057
20
14.473465
42
-0.125911
0
VERTEX
8
1
10
8.031086
20
14.509743
42
0.061688
0
VERTEX
8
1
10
7.956688
20
14.522303
42
-0.196302
0
VERTEX
8
1
10
7.480682
20
14.791794
42
-0.183577
0
VERTEX
8
1
10
7.274386
20
15.329288
42
-0.017245
0
VERTEX
8
1
10
7.270489
20
15.477997
42
0.131207
0
VERTEX
8
1
10
7.426064
20
15.442184
42
0.114569
0
VERTEX
8
1
10
7.799324
20
15.466049
42
0.157718
0
SEQEND
0
POLYLINE
8
1
66
1
70
1
0
VERTEX
8
1
10
13.285328
20
9.140526
42
-0.007244
0
VERTEX
8
1
10
13.252869
20
8.907768
42
0.014789
0
VERTEX
8
1
10
13.254570
20
8.619125
42
-0.105976
0
VERTEX
8
1
10
13.184083
20
8.318336
42
-0.011421
0
VERTEX
8
1
10
13.092135
20
8.103879
42
-0.118792
0
VERTEX
8
1
10
12.725083
20
7.688924
42
-0.024910
0
VERTEX
8
1
10
12.364608
20
7.438232
42
-0.007213
0
VERTEX
8
1
10
11.843712
20
7.090815
42
0.072590
0
VERTEX
8
1
10
11.759601
20
7.007346
42
-0.051057
0
VERTEX
8
1
10
11.602846
20
6.854392
42
-0.270637
0
VERTEX
8
1
10
11.553211
20
6.858109
42
-0.071013
0
VERTEX
8
1
10
11.368584
20
7.036591
42
0.161675
0
VERTEX
8
1
10
11.136430
20
7.284590
42
0.090249
0
VERTEX
8
1
10
10.638929
20
7.489643
42
0.125990
0
VERTEX
8
1
10
10.209496
20
7.448995
42
-0.121676
0
VERTEX
8
1
10
10.003489
20
7.441589
42
-0.069793
0
VERTEX
8
1
10
9.971405
20
7.460114
0
VERTEX
8
1
10
9.970211
20
7.503387
42
-0.031604
0
VERTEX
8
1
10
10.059914
20
8.026566
42
0.039574
0
VERTEX
8
1
10
10.138059
20
8.613258
42
-0.088749
0
VERTEX
8
1
10
10.328514
20
9.308438
42
-0.048398
0
VERTEX
8
1
10
10.693215
20
9.947049
42
0.082819
0
VERTEX
8
1
10
10.849710
20
10.298648
42
0.126016
0
VERTEX
8
1
10
10.831848
20
10.534676
0
VERTEX
8
1
10
10.807423
20
10.568741
42
0.130343
0
VERTEX
8
1
10
10.619526
20
10.410927
42
0.029069
0
VERTEX
8
1
10
10.413654
20
10.072670
42
-0.035615
0
VERTEX
8
1
10
10.293354
20
9.903076
0
VERTEX
8
1
10
10.207588
20
9.797218
42
0.096396
0
VERTEX
8
1
10
9.994507
20
9.418892
42
0.098028
0
VERTEX
8
1
10
9.908839
20
8.969322
42
-0.014879
0
VERTEX
8
1
10
9.883871
20
8.190535
42
-0.124825
0
VERTEX
8
1
10
9.558533
20
7.275835
42
-0.027353
0
VERTEX
8
1
10
9.395403
20
7.050533
42
0.035831
0
VERTEX
8
1
10
9.202918
20
6.754989
42
0.081852
0
VERTEX
8
1
10
9.141865
20
6.537170
0
VERTEX
8
1
10
9.130574
20
6.500979
42
-0.001006
0
VERTEX
8
1
10
8.915631
20
6.025285
42
0.018755
0
VERTEX
8
1
10
8.484478
20
4.481117
42
0.031956
0
VERTEX
8
1
10
8.449806
20
4.240341
0
VERTEX
8
1
10
8.456955
20
4.198837
0
VERTEX
8
1
10
8.478050
20
4.193558
42
0.126781
0
VERTEX
8
1
10
8.595501
20
4.278229
42
0.125985
0
VERTEX
8
1
10
8.960922
20
5.042010
42
-0.056649
0
VERTEX
8
1
10
9.307167
20
5.966390
42
-0.053521
0
VERTEX
8
1
10
9.524033
20
6.271698
42
0.022092
0
VERTEX
8
1
10
10.050323
20
6.953506
42
0.008583
0
VERTEX
8
1
10
10.090141
20
7.018448
42
-0.104882
0
VERTEX
8
1
10
10.240952
20
7.015549
42
-0.065709
0
VERTEX
8
1
10
10.710629
20
6.881199
42
-0.152663
0
VERTEX
8
1
10
10.808876
20
6.772003
42
0.007946
0
VERTEX
8
1
10
10.903679
20
6.573761
42
0.089762
0
VERTEX
8
1
10
11.072466
20
6.402936
42
-0.106439
0
VERTEX
8
1
10
11.189215
20
6.250152
42
-0.224149
0
VERTEX
8
1
10
11.167187
20
6.074265
42
-0.052742
0
VERTEX
8
1
10
10.997765
20
5.859375
42
0.018419
0
VERTEX
8
1
10
10.668537
20
5.375711
42
-0.004088
0
VERTEX
8
1
10
10.611046
20
5.292953
0
VERTEX
8
1
10
10.598377
20
5.282333
42
-0.340566
0
VERTEX
8
1
10
10.528004
20
5.352692
42
0.204924
0
VERTEX
8
1
10
10.433151
20
5.300751
42
0.015715
0
VERTEX
8
1
10
10.298481
20
5.129364
42
0.015775
0
VERTEX
8
1
10
10.057034
20
4.890580
42
0.103107
0
VERTEX
8
1
10
9.540323
20
3.769135
42
-0.007645
0
VERTEX
8
1
10
9.368988
20
3.162323
0
VERTEX
8
1
10
9.360561
20
3.121368
42
-0.028741
0
VERTEX
8
1
10
9.275866
20
2.593512
42
-0.084290
0
VERTEX
8
1
10
9.192905
20
2.420129
42
-0.139215
0
VERTEX
8
1
10
9.094814
20
2.354874
0
VERTEX
8
1
10
9.078312
20
2.406082
42
-0.092778
0
VERTEX
8
1
10
9.094857
20
2.659286
42
0.013725
0
VERTEX
8
1
10
9.200210
20
3.092438
42
0.105572
0
VERTEX
8
1
10
9.188011
20
3.303116
0
VERTEX
8
1
10
9.165077
20
3.355408
0
VERTEX
8
1
10
9.133247
20
3.391266
0
VERTEX
8
1
10
9.103901
20
3.387741
0
VERTEX
8
1
10
9.076298
20
3.373993
42
0.127967
0
VERTEX
8
1
10
8.982861
20
3.241318
0
VERTEX
8
1
10
8.963631
20
3.194916
42
0.047943
0
VERTEX
8
1
10
8.831081
20
2.617496
42
-0.122300
0
VERTEX
8
1
10
8.752448
20
2.440025
42
-0.345531
0
VERTEX
8
1
10
8.597721
20
2.426071
42
-0.151028
0
VERTEX
8
1
10
8.530960
20
2.566895
42
0.057758
0
VERTEX
8
1
10
8.376441
20
2.984820
42
0.114299
0
VERTEX
8
1
10
8.179249
20
3.196075
42
0.012009
0
VERTEX
8
1
10
7.858597
20
3.409546
42
0.081056
0
VERTEX
8
1
10
7.668556
20
3.466019
42
-0.016271
0
VERTEX
8
1
10
7.479301
20
3.512924
42
0.154312
0
VERTEX
8
1
10
7.252882
20
3.436683
42
0.012576
0
VERTEX
8
1
10
7.205883
20
3.407471
0
VERTEX
8
1
10
7.200615
20
3.391418
0
VERTEX
8
1
10
7.207371
20
3.355042
42
0.339210
0
VERTEX
8
1
10
7.364655
20
3.199997
42
0.037934
0
VERTEX
8
1
10
7.612301
20
3.193040
42
-0.152969
0
VERTEX
8
1
10
7.999471
20
3.063316
42
-0.229680
0
VERTEX
8
1
10
8.141740
20
2.733756
42
-0.179564
0
VERTEX
8
1
10
8.031397
20
2.422733
42
-0.191518
0
VERTEX
8
1
10
7.855137
20
2.346542
42
-0.199924
0
VERTEX
8
1
10
7.336185
20
2.518328
42
-0.152889
0
VERTEX
8
1
10
7.172272
20
2.831192
42
0.066492
0
VERTEX
8
1
10
7.057680
20
3.180979
0
VERTEX
8
1
10
7.047135
20
3.194309
42
0.427750
0
VERTEX
8
1
10
6.911026
20
3.215134
42
0.288385
0
VERTEX
8
1
10
6.789718
20
2.973493
42
0.089473
0
VERTEX
8
1
10
6.829735
20
2.793181
42
0.006731
0
VERTEX
8
1
10
6.991889
20
2.415154
42
-0.074556
0
VERTEX
8
1
10
7.021389
20
2.255402
0
VERTEX
8
1
10
6.973190
20
2.241760
0
VERTEX
8
1
10
6.922901
20
2.244385
0
VERTEX
8
1
10
6.874317
20
2.259644
42
-0.127772
0
VERTEX
8
1
10
6.699364
20
2.417831
42
-0.090952
0
VERTEX
8
1
10
6.416854
20
3.081538
42
-0.160965
0
VERTEX
8
1
10
6.477188
20
3.454269
42
-0.024756
0
VERTEX
8
1
10
6.629942
20
3.645259
42
0.140164
0
VERTEX
8
1
10
6.686680
20
3.794952
42
0.213888
0
VERTEX
8
1
10
6.555840
20
3.783463
42
-0.060085
0
VERTEX
8
1
10
6.412899
20
3.727794
42
-0.380738
0
VERTEX
8
1
10
6.294685
20
3.811813
42
0.054522
0
VERTEX
8
1
10
6.418400
20
4.162125
42
-0.052444
0
VERTEX
8
1
10
6.587254
20
4.520279
0
VERTEX
8
1
10
6.608833
20
4.560257
42
-0.172065
0
VERTEX
8
1
10
7.272932
20
5.218969
42
0.057865
0
VERTEX
8
1
10
7.625233
20
5.467850
42
0.025473
0
VERTEX
8
1
10
7.834541
20
5.720108
42
-0.044248
0
VERTEX
8
1
10
8.010838
20
5.893555
42
0.122919
0
VERTEX
8
1
10
8.135414
20
6.085144
42
-0.081200
0
VERTEX
8
1
10
8.238815
20
6.258896
42
0.070633
0
VERTEX
8
1
10
8.369091
20
6.512161
42
0.065058
0
VERTEX
8
1
10
8.472739
20
6.802978
42
0.083746
0
VERTEX
8
1
10
8.467079
20
6.935760
0
VERTEX
8
1
10
8.455574
20
6.962967
42
0.183727
0
VERTEX
8
1
10
8.363762
20
6.893936
42
0.063038
0
VERTEX
8
1
10
8.281181
20
6.748336
42
0.014737
0
VERTEX
8
1
10
8.169472
20
6.499847
42
-0.060521
0
VERTEX
8
1
10
7.812307
20
6.003049
42
-0.070747
0
VERTEX
8
1
10
7.564270
20
5.821654
42
0.020379
0
VERTEX
8
1
10
7.159172
20
5.569794
42
0.064580
0
VERTEX
8
1
10
6.993068
20
5.389255
42
-0.138609
0
VERTEX
8
1
10
6.870846
20
5.310349
42
-0.163797
0
VERTEX
8
1
10
6.892729
20
5.558421
42
0.115073
0
VERTEX
8
1
10
6.907938
20
5.802269
42
-0.135074
0
VERTEX
8
1
10
6.938561
20
5.922702
42
0.105396
0
VERTEX
8
1
10
6.981800
20
6.080612
42
0.027763
0
VERTEX
8
1
10
7.044823
20
6.396240
0
VERTEX
8
1
10
7.062450
20
6.473206
42
0.086595
0
VERTEX
8
1
10
7.077490
20
6.759783
42
-0.143185
0
VERTEX
8
1
10
7.120972
20
6.911209
42
0.079878
0
VERTEX
8
1
10
7.135849
20
7.123291
42
-0.097889
0
VERTEX
8
1
10
7.171665
20
7.380828
42
0.003273
0
VERTEX
8
1
10
7.332478
20
7.868347
42
-0.032009
0
VERTEX
8
1
10
7.617549
20
8.755483
42
-0.011146
0
VERTEX
8
1
10
8.153970
20
10.095181
42
0.135231
0
VERTEX
8
1
10
8.194524
20
10.414862
0
VERTEX
8
1
10
8.187469
20
10.445747
0
VERTEX
8
1
10
8.166004
20
10.460899
0
VERTEX
8
1
10
8.137436
20
10.450264
42
0.130143
0
VERTEX
8
1
10
7.982201
20
10.285927
0
VERTEX
8
1
10
7.959483
20
10.248421
42
-0.007109
0
VERTEX
8
1
10
7.690109
20
9.733131
42
0.107217
0
VERTEX
8
1
10
7.684017
20
9.795853
42
0.212545
0
VERTEX
8
1
10
7.601395
20
9.745888
42
0.045659
0
VERTEX
8
1
10
7.476354
20
9.517003
42
-0.113892
0
VERTEX
8
1
10
7.393539
20
9.426857
0
VERTEX
8
1
10
7.371059
20
9.418823
42
-0.174473
0
VERTEX
8
1
10
7.385971
20
9.648392
42
0.119427
0
VERTEX
8
1
10
7.416449
20
9.963532
42
-0.096102
0
VERTEX
8
1
10
7.443985
20
10.178479
42
0.074260
0
VERTEX
8
1
10
7.483742
20
10.435036
42
-0.085358
0
VERTEX
8
1
10
7.533170
20
10.645514
42
0.001116
0
VERTEX
8
1
10
7.661514
20
11.082024
42
-0.043310
0
VERTEX
8
1
10
7.744388
20
11.266157
42
0.021841
0
VERTEX
8
1
10
7.946989
20
11.718624
42
0.018389
0
VERTEX
8
1
10
7.987793
20
11.853622
42
-0.532091
0
VERTEX
8
1
10
8.023010
20
11.788773
42
-0.010656
0
VERTEX
8
1
10
7.970234
20
11.670807
42
0.076159
0
VERTEX
8
1
10
7.966713
20
11.479828
42
-0.033335
0
VERTEX
8
1
10
7.965670
20
11.201997
42
0.086404
0
VERTEX
8
1
10
8.001492
20
10.977777
42
0.144696
0
VERTEX
8
1
10
8.052532
20
10.925247
0
VERTEX
8
1
10
8.069637
20
10.928406
42
-0.066758
0
VERTEX
8
1
10
8.193356
20
11.257896
42
0.049438
0
VERTEX
8
1
10
8.286167
20
11.556664
42
-0.021885
0
VERTEX
8
1
10
8.399693
20
11.960175
42
-0.045983
0
VERTEX
8
1
10
8.544991
20
12.400696
42
0.050243
0
VERTEX
8
1
10
8.686590
20
12.723793
42
0.086748
0
VERTEX
8
1
10
8.694294
20
12.852905
0
VERTEX
8
1
10
8.707134
20
12.854485
42
-0.173649
0
VERTEX
8
1
10
8.794647
20
12.757217
42
-0.037810
0
VERTEX
8
1
10
8.869221
20
12.569313
0
VERTEX
8
1
10
8.921902
20
12.407303
42
-0.126475
0
VERTEX
8
1
10
8.937091
20
11.850814
42
-0.025934
0
VERTEX
8
1
10
8.871895
20
11.574539
0
VERTEX
8
1
10
8.814312
20
11.368874
0
VERTEX
8
1
10
8.795933
20
11.300835
0
VERTEX
8
1
10
8.814362
20
11.259338
0
VERTEX
8
1
10
8.861397
20
11.253395
0
VERTEX
8
1
10
8.908474
20
11.264763
0
VERTEX
8
1
10
8.955261
20
11.291374
42
0.097036
0
VERTEX
8
1
10
9.132935
20
11.509865
42
0.050837
0
VERTEX
8
1
10
9.387066
20
12.101800
42
0.043617
0
VERTEX
8
1
10
9.560546
20
11.405763
42
0.022826
0
VERTEX
8
1
10
9.627632
20
11.254242
0
VERTEX
8
1
10
9.644447
20
11.236326
42
-0.042475
0
VERTEX
8
1
10
9.652709
20
11.879798
42
-0.068980
0
VERTEX
8
1
10
9.730735
20
12.151327
42
-0.383252
0
VERTEX
8
1
10
9.858925
20
12.189095
42
-0.090434
0
VERTEX
8
1
10
10.063999
20
12.048828
42
-0.015645
0
VERTEX
8
1
10
10.353283
20
11.792534
42
0.042382
0
VERTEX
8
1
10
10.354881
20
11.740959
0
VERTEX
8
1
10
10.361069
20
11.786301
0
VERTEX
8
1
10
10.362778
20
11.786087
0
VERTEX
8
1
10
10.406567
20
11.745163
42
-0.168357
0
VERTEX
8
1
10
10.249722
20
11.006172
0
VERTEX
8
1
10
10.223137
20
10.970070
0
VERTEX
8
1
10
10.194355
20
10.936714
42
-0.319008
0
VERTEX
8
1
10
9.776085
20
10.830833
42
0.246446
0
VERTEX
8
1
10
9.623062
20
10.858131
42
0.115654
0
VERTEX
8
1
10
9.116174
20
10.583759
42
0.093475
0
VERTEX
8
1
10
8.964516
20
10.360344
42
0.034748
0
VERTEX
8
1
10
8.778967
20
9.994227
42
0.113601
0
VERTEX
8
1
10
8.753555
20
9.772263
0
VERTEX
8
1
10
8.770279
20
9.753204
42
-0.026355
0
VERTEX
8
1
10
9.071528
20
9.650903
42
0.123030
0
VERTEX
8
1
10
9.222110
20
9.643622
42
-0.255485
0
VERTEX
8
1
10
9.296707
20
9.606895
42
0.237324
0
VERTEX
8
1
10
9.344875
20
9.588715
42
0.178527
0
VERTEX
8
1
10
9.445923
20
9.610222
0
VERTEX
8
1
10
9.458683
20
9.615509
42
0.061633
0
VERTEX
8
1
10
9.732961
20
9.721838
42
0.050368
0
VERTEX
8
1
10
9.843918
20
9.807663
42
0.047438
0
VERTEX
8
1
10
10.117565
20
10.034958
42
0.102832
0
VERTEX
8
1
10
10.284455
20
10.361392
42
-0.009971
0
VERTEX
8
1
10
10.315159
20
10.571518
42
-0.137378
0
VERTEX
8
1
10
10.399307
20
10.713280
42
-0.125460
0
VERTEX
8
1
10
10.916310
20
11.070574
42
-0.032074
0
VERTEX
8
1
10
10.987267
20
11.086212
0
VERTEX
8
1
10
11.008793
20
11.062057
42
-0.015045
0
VERTEX
8
1
10
11.415428
20
10.508492
42
-0.026262
0
VERTEX
8
1
10
11.837900
20
9.738547
42
0.001847
0
VERTEX
8
1
10
11.894309
20
9.631244
0
VERTEX
8
1
10
11.929222
20
9.655457
42
0.110993
0
VERTEX
8
1
10
11.986027
20
9.940651
42
0.024903
0
VERTEX
8
1
10
11.944568
20
10.420366
42
-0.093231
0
VERTEX
8
1
10
11.980956
20
10.747063
42
-0.045769
0
VERTEX
8
1
10
12.021214
20
10.828659
0
VERTEX
8
1
10
12.061295
20
10.786697
42
-0.095064
0
VERTEX
8
1
10
12.288599
20
10.362267
42
-0.011158
0
VERTEX
8
1
10
12.500361
20
9.643060
42
-0.080534
0
VERTEX
8
1
10
12.556614
20
8.898331
0
VERTEX
8
1
10
12.595478
20
8.927460
0
VERTEX
8
1
10
12.642384
20
8.982330
0
VERTEX
8
1
10
12.686543
20
9.039688
42
0.083124
0
VERTEX
8
1
10
13.039519
20
9.801763
42
-0.007583
0
VERTEX
8
1
10
13.091270
20
9.957649
42
-0.185111
0
VERTEX
8
1
10
13.182110
20
9.823761
42
-0.026572
0
VERTEX
8
1
10
13.253826
20
9.495804
42
-0.085243
0
SEQEND
0
POLYLINE
8
1
66
1
70
1
0
VERTEX
8
1
10
8.994907
20
9.960854
42
0.070585
0
VERTEX
8
1
10
9.049011
20
10.100121
0
VERTEX
8
1
10
9.048813
20
10.114868
0
VERTEX
8
1
10
9.045238
20
10.127098
0
VERTEX
8
1
10
9.135834
20
10.084236
42
0.330619
0
VERTEX
8
1
10
10.091488
20
10.311890
42
-0.174984
0
VERTEX
8
1
10
9.978452
20
10.131880
42
-0.117428
0
VERTEX
8
1
10
9.660984
20
9.960434
42
-0.032972
0
VERTEX
8
1
10
9.209586
20
9.930972
42
0.125946
0
VERTEX
8
1
10
8.986866
20
9.860458
0
VERTEX
8
1
10
8.972816
20
9.855493
42
-0.800150
0
VERTEX
8
1
10
8.957405
20
9.875771
42
-0.039952
0
SEQEND
0
POLYLINE
8
1
66
1
70
1
0
VERTEX
8
1
10
9.464733
20
10.455399
42
-0.420335
0
VERTEX
8
1
10
9.510197
20
10.460762
42
0.149215
0
VERTEX
8
1
10
9.630384
20
10.453095
42
0.032021
0
VERTEX
8
1
10
9.735844
20
10.474609
42
-0.839756
0
VERTEX
8
1
10
9.744949
20
10.413727
42
-0.144899
0
VERTEX
8
1
10
9.492413
20
10.398997
0
VERTEX
8
1
10
9.480669
20
10.405409
42
-0.506925
0
SEQEND
0
POLYLINE
8
1
66
1
70
1
0
VERTEX
8
1
10
13.394524
20
11.116684
42
-0.089915
0
VERTEX
8
1
10
13.420985
20
10.486840
42
-0.024966
0
VERTEX
8
1
10
13.403252
20
10.418579
0
VERTEX
8
1
10
13.395370
20
10.421875
0
VERTEX
8
1
10
13.387932
20
10.429039
42
-0.099235
0
VERTEX
8
1
10
13.336446
20
10.608674
42
0.038151
0
VERTEX
8
1
10
13.278717
20
10.822922
42
0.107062
0
VERTEX
8
1
10
13.026611
20
11.344289
42
0.069028
0
VERTEX
8
1
10
12.496363
20
11.908532
42
0.095864
0
VERTEX
8
1
10
11.864646
20
12.227133
42
0.028650
0
VERTEX
8
1
10
11.702347
20
12.258446
0
VERTEX
8
1
10
11.693733
20
12.301346
0
VERTEX
8
1
10
11.694828
20
12.301735
42
0.845790
0
VERTEX
8
1
10
11.721828
20
12.311653
42
0.094554
0
VERTEX
8
1
10
11.718498
20
12.350182
42
-0.188411
0
VERTEX
8
1
10
12.286306
20
12.306898
42
-0.091330
0
VERTEX
8
1
10
12.747601
20
11.993328
42
-0.035601
0
VERTEX
8
1
10
13.256197
20
11.456880
42
-0.114410
0
SEQEND
0
POLYLINE
8
1
66
1
70
1
0
VERTEX
8
1
10
14.794304
20
12.747627
42
0.032707
0
VERTEX
8
1
10
14.865913
20
12.770905
0
VERTEX
8
1
10
14.880127
20
12.769005
0
VERTEX
8
1
10
14.884254
20
12.710701
0
VERTEX
8
1
10
14.848419
20
12.653549
0
VERTEX
8
1
10
14.780346
20
12.598358
0
VERTEX
8
1
10
14.687782
20
12.545914
0
VERTEX
8
1
10
14.578465
20
12.497025
42
-0.043609
0
VERTEX
8
1
10
13.956290
20
12.314877
42
-0.124201
0
VERTEX
8
1
10
13.384118
20
12.376057
42
-0.046278
0
VERTEX
8
1
10
12.769218
20
12.639099
42
-0.069939
0
VERTEX
8
1
10
12.509794
20
12.862753
42
0.024318
0
VERTEX
8
1
10
12.469917
20
12.895424
42
-0.082118
0
VERTEX
8
1
10
12.418888
20
12.906807
42
-0.066762
0
VERTEX
8
1
10
12.396680
20
12.973328
42
-0.068953
0
VERTEX
8
1
10
12.237070
20
13.226588
0
VERTEX
8
1
10
12.212440
20
13.275612
42
0.044024
0
VERTEX
8
1
10
12.171551
20
13.401886
0
VERTEX
8
1
10
12.162781
20
13.414566
0
VERTEX
8
1
10
12.166927
20
13.419556
42
-0.194983
0
VERTEX
8
1
10
12.275146
20
13.363449
42
-0.037406
0
VERTEX
8
1
10
12.258133
20
13.410698
42
-0.065275
0
VERTEX
8
1
10
12.301235
20
13.340981
42
0.038010
0
VERTEX
8
1
10
12.281013
20
13.356712
42
0.007643
0
VERTEX
8
1
10
12.330448
20
13.264511
0
VERTEX
8
1
10
12.343063
20
13.258629
42
-0.274983
0
VERTEX
8
1
10
12.432552
20
13.218994
0
VERTEX
8
1
10
12.447079
20
13.202423
42
0.148723
0
VERTEX
8
1
10
12.634502
20
13.057709
0
VERTEX
8
1
10
12.714928
20
13.020729
42
0.120094
0
VERTEX
8
1
10
13.034229
20
12.937164
42
-0.005499
0
VERTEX
8
1
10
13.233318
20
12.902191
0
VERTEX
8
1
10
13.260777
20
12.900101
42
-0.053141
0
VERTEX
8
1
10
13.585896
20
12.889206
42
0.071319
0
VERTEX
8
1
10
13.622181
20
12.856491
42
0.312745
0
VERTEX
8
1
10
13.663425
20
12.883095
42
-0.246643
0
VERTEX
8
1
10
13.687382
20
12.893196
42
-0.044670
0
VERTEX
8
1
10
13.841396
20
12.900085
42
0.085594
0
VERTEX
8
1
10
14.102814
20
12.987556
42
0.148607
0
VERTEX
8
1
10
14.230782
20
13.075051
42
-0.095433
0
VERTEX
8
1
10
14.264786
20
13.093544
42
-0.330429
0
VERTEX
8
1
10
14.241541
20
12.932284
42
-0.101862
0
VERTEX
8
1
10
14.082130
20
12.809074
42
-0.060771
0
VERTEX
8
1
10
13.977245
20
12.756710
42
-0.010127
0
VERTEX
8
1
10
13.885059
20
12.729607
42
0.007621
0
VERTEX
8
1
10
13.793756
20
12.665346
42
-0.115558
0
VERTEX
8
1
10
13.763172
20
12.661438
0
VERTEX
8
1
10
13.765034
20
12.652069
0
VERTEX
8
1
10
13.783005
20
12.637444
42
0.144331
0
VERTEX
8
1
10
13.939934
20
12.616432
42
-0.039551
0
VERTEX
8
1
10
14.262837
20
12.609308
42
0.126661
0
VERTEX
8
1
10
14.466301
20
12.656860
42
-0.109858
0
VERTEX
8
1
10
14.560661
20
12.667735
42
0.207728
0
VERTEX
8
1
10
14.597713
20
12.693382
42
-0.283893
0
VERTEX
8
1
10
14.671015
20
12.697698
42
0.304384
0
VERTEX
8
1
10
14.734323
20
12.729222
42
-0.062046
0
VERTEX
8
1
10
14.742195
20
12.732849
0
SEQEND
0
POLYLINE
8
1
66
1
70
1
0
VERTEX
8
1
10
14.361294
20
12.016815
42
0.020614
0
VERTEX
8
1
10
14.365520
20
11.985306
42
-0.155432
0
VERTEX
8
1
10
14.334389
20
12.006973
0
VERTEX
8
1
10
14.336643
20
12.011223
0
VERTEX
8
1
10
14.356621
20
12.018257
0
SEQEND
0
POLYLINE
8
1
66
1
70
1
0
VERTEX
8
1
10
13.865078
20
11.880852
42
0.028185
0
VERTEX
8
1
10
14.283237
20
11.992958
42
0.039523
0
VERTEX
8
1
10
14.350227
20
11.832642
42
-0.263881
0
VERTEX
8
1
10
14.324574
20
11.732407
42
0.062299
0
VERTEX
8
1
10
14.232925
20
11.614716
0
VERTEX
8
1
10
14.191608
20
11.554398
42
0.107000
0
VERTEX
8
1
10
14.118616
20
11.385697
42
-0.084339
0
VERTEX
8
1
10
14.038578
20
11.237427
0
VERTEX
8
1
10
14.010757
20
11.181831
42
0.067109
0
VERTEX
8
1
10
13.970367
20
11.112854
0
VERTEX
8
1
10
13.968704
20
11.121956
42
0.204043
0
VERTEX
8
1
10
13.696262
20
11.823105
0
VERTEX
8
1
10
13.709126
20
11.850914
42
0.008903
0
SEQEND
0
POLYLINE
8
1
66
1
70
1
0
VERTEX
8
1
10
15.019730
20
9.860497
42
0.025895
0
VERTEX
8
1
10
15.081341
20
9.772842
42
0.087863
0
VERTEX
8
1
10
14.821736
20
9.847754
0
VERTEX
8
1
10
14.806652
20
9.846781
42
-0.027110
0
VERTEX
8
1
10
14.472374
20
9.803641
42
-0.014493
0
VERTEX
8
1
10
13.889942
20
9.761993
0
VERTEX
8
1
10
13.882893
20
9.765686
0
VERTEX
8
1
10
13.719570
20
10.418991
0
VERTEX
8
1
10
13.717522
20
10.428764
42
0.083219
0
VERTEX
8
1
10
13.918976
20
10.829613
42
0.173585
0
VERTEX
8
1
10
13.985950
20
10.761665
42
-0.148630
0
VERTEX
8
1
10
14.027569
20
10.758293
42
0.536336
0
VERTEX
8
1
10
14.168339
20
10.745506
42
0.239408
0
VERTEX
8
1
10
14.215816
20
10.832413
42
-0.155146
0
VERTEX
8
1
10
14.273220
20
10.885727
42
0.053946
0
VERTEX
8
1
10
14.475835
20
11.051105
42
-0.109041
0
VERTEX
8
1
10
14.649793
20
11.137642
42
0.131106
0
VERTEX
8
1
10
14.719501
20
11.190216
0
VERTEX
8
1
10
14.727287
20
11.209030
0
VERTEX
8
1
10
14.729889
20
11.223686
0
VERTEX
8
1
10
14.764912
20
11.209816
42
-0.171158
0
VERTEX
8
1
10
14.801609
20
11.210533
42
-0.257390
0
VERTEX
8
1
10
14.900841
20
11.189659
42
-0.038994
0
VERTEX
8
1
10
15.039864
20
11.058044
0
VERTEX
8
1
10
15.120716
20
10.983078
42
-0.116430
0
VERTEX
8
1
10
15.382694
20
10.617203
42
0.007207
0
VERTEX
8
1
10
15.431870
20
10.418045
42
-0.010619
0
VERTEX
8
1
10
15.503647
20
10.246216
0
VERTEX
8
1
10
15.435249
20
10.232559
42
0.006107
0
VERTEX
8
1
10
15.246292
20
10.157280
42
-0.034983
0
VERTEX
8
1
10
15.135883
20
10.133347
42
0.234828
0
VERTEX
8
1
10
15.035240
20
10.027000
42
0.146465
0
VERTEX
8
1
10
15.005970
20
9.894955
42
0.077419
0
SEQEND
0
POLYLINE
8
1
66
1
70
1
0
VERTEX
8
1
10
15.652061
20
9.105385
42
-0.992048
0
VERTEX
8
1
10
15.611225
20
9.058067
0
VERTEX
8
1
10
15.334595
20
9.315262
42
0.042958
0
VERTEX
8
1
10
15.243084
20
9.340027
0
VERTEX
8
1
10
15.215923
20
9.352295
0
VERTEX
8
1
10
15.191208
20
9.375870
42
-0.111835
0
VERTEX
8
1
10
15.093429
20
9.626091
42
-0.795824
0
VERTEX
8
1
10
15.154259
20
9.629257
42
0.077092
0
VERTEX
8
1
10
15.234589
20
9.419823
0
VERTEX
8
1
10
15.245636
20
9.406982
0
VERTEX
8
1
10
15.255344
20
9.401321
42
-0.069242
0
VERTEX
8
1
10
15.369827
20
9.367638
0
SEQEND
0
POLYLINE
8
1
66
1
70
1
0
VERTEX
8
1
10
15.743214
20
11.784126
42
0.096198
0
VERTEX
8
1
10
15.839355
20
11.835670
0
VERTEX
8
1
10
15.845028
20
11.846329
0
VERTEX
8
1
10
15.845406
20
11.858078
42
-0.053971
0
VERTEX
8
1
10
15.639570
20
11.804094
0
VERTEX
8
1
10
15.627976
20
11.805382
0
VERTEX
8
1
10
15.616638
20
11.808121
42
-0.151115
0
VERTEX
8
1
10
15.652459
20
11.883846
42
0.129476
0
VERTEX
8
1
10
15.657028
20
11.912064
0
VERTEX
8
1
10
15.648693
20
11.908615
42
-0.049569
0
VERTEX
8
1
10
15.540596
20
11.805658
42
-0.212782
0
VERTEX
8
1
10
15.505745
20
11.807671
0
VERTEX
8
1
10
15.508732
20
11.823654
42
-0.101314
0
VERTEX
8
1
10
15.587259
20
11.910734
42
0.216885
0
VERTEX
8
1
10
15.609940
20
11.982399
0
VERTEX
8
1
10
15.603043
20
11.989449
42
0.100338
0
VERTEX
8
1
10
15.536243
20
11.930862
42
-0.178347
0
VERTEX
8
1
10
15.410637
20
11.885384
42
0.184150
0
VERTEX
8
1
10
15.537572
20
12.003051
42
0.089868
0
VERTEX
8
1
10
15.539017
20
12.029831
0
VERTEX
8
1
10
15.529781
20
12.029915
42
0.041996
0
VERTEX
8
1
10
15.435993
20
11.972374
42
-0.268320
0
VERTEX
8
1
10
15.266144
20
11.974602
42
0.287839
0
VERTEX
8
1
10
15.208374
20
11.938461
42
-0.079246
0
VERTEX
8
1
10
15.171665
20
11.896080
42
-0.263090
0
VERTEX
8
1
10
15.074223
20
11.929382
42
-0.140030
0
VERTEX
8
1
10
15.080421
20
11.996671
42
0.305200
0
VERTEX
8
1
10
15.065334
20
12.016068
42
-0.187448
0
VERTEX
8
1
10
14.946292
20
11.904279
42
-0.477377
0
VERTEX
8
1
10
14.905477
20
11.938841
42
0.043466
0
VERTEX
8
1
10
14.890343
20
11.989899
0
VERTEX
8
1
10
14.881989
20
11.998741
0
VERTEX
8
1
10
14.870613
20
12.004730
42
-0.125031
0
VERTEX
8
1
10
14.842136
20
11.898621
42
-0.834321
0
VERTEX
8
1
10
14.780956
20
11.954847
42
-0.061427
0
VERTEX
8
1
10
14.844791
20
12.046074
42
0.153727
0
VERTEX
8
1
10
14.784586
20
12.022353
42
0.077400
0
VERTEX
8
1
10
14.663304
20
11.909484
42
-0.306386
0
VERTEX
8
1
10
14.611927
20
11.909760
0
VERTEX
8
1
10
14.620272
20
11.919897
42
0.387463
0
VERTEX
8
1
10
14.619934
20
12.004601
42
-0.203504
0
VERTEX
8
1
10
14.533455
20
11.932266
0
VERTEX
8
1
10
14.525574
20
11.933296
42
-0.156867
0
VERTEX
8
1
10
14.417500
20
12.033058
0
VERTEX
8
1
10
14.427303
20
12.044563
0
VERTEX
8
1
10
14.627831
20
12.130547
0
VERTEX
8
1
10
14.806290
20
12.223831
0
VERTEX
8
1
10
14.964157
20
12.322922
42
0.143802
0
VERTEX
8
1
10
15.699535
20
13.222046
0
VERTEX
8
1
10
15.785866
20
13.238632
42
-0.020735
0
VERTEX
8
1
10
16.545591
20
12.922468
42
0.038720
0
VERTEX
8
1
10
16.838749
20
12.823647
0
VERTEX
8
1
10
16.919338
20
12.809441
0
VERTEX
8
1
10
16.998940
20
12.803696
0
VERTEX
8
1
10
17.066177
20
12.791664
0
VERTEX
8
1
10
17.123302
20
12.751465
0
VERTEX
8
1
10
17.172142
20
12.688019
0
VERTEX
8
1
10
17.213322
20
12.606560
0
VERTEX
8
1
10
17.247475
20
12.512344
42
-0.054648
0
VERTEX
8
1
10
17.342136
20
11.936943
0
VERTEX
8
1
10
17.354301
20
11.924110
0
VERTEX
8
1
10
17.410988
20
11.924965
0
VERTEX
8
1
10
17.486534
20
11.952614
0
VERTEX
8
1
10
17.577179
20
12.007050
0
VERTEX
8
1
10
17.679180
20
12.088249
0
VERTEX
8
1
10
17.788780
20
12.196251
0
VERTEX
8
1
10
17.902225
20
12.331032
0
VERTEX
8
1
10
18.015774
20
12.492592
0
VERTEX
8
1
10
18.125660
20
12.680939
0
VERTEX
8
1
10
18.228138
20
12.896072
0
VERTEX
8
1
10
18.319458
20
13.137993
0
VERTEX
8
1
10
18.395866
20
13.406693
0
VERTEX
8
1
10
18.453609
20
13.702179
0
VERTEX
8
1
10
18.562695
20
13.740864
42
0.000372
0
VERTEX
8
1
10
19.322447
20
13.197821
42
0.031707
0
VERTEX
8
1
10
19.822971
20
12.906799
0
VERTEX
8
1
10
19.994785
20
12.832703
0
VERTEX
8
1
10
20.168991
20
12.774933
0
VERTEX
8
1
10
20.345345
20
12.736351
0
VERTEX
8
1
10
20.511560
20
12.717096
42
0.016103
0
VERTEX
8
1
10
21.051346
20
11.893050
0
VERTEX
8
1
10
21.044380
20
11.888206
0
VERTEX
8
1
10
21.060940
20
11.866150
0
VERTEX
8
1
10
21.070801
20
11.866150
0
VERTEX
8
1
10
21.102905
20
11.822380
0
VERTEX
8
1
10
21.110531
20
11.723206
0
VERTEX
8
1
10
21.107113
20
11.723198
0
VERTEX
8
1
10
20.338493
20
11.827507
0
VERTEX
8
1
10
20.272743
20
11.647148
0
VERTEX
8
1
10
20.271538
20
11.645096
0
VERTEX
8
1
10
19.903198
20
11.392204
0
VERTEX
8
1
10
19.902431
20
11.400154
0
VERTEX
8
1
10
19.886024
20
12.329575
42
0.181339
0
VERTEX
8
1
10
19.660990
20
12.743019
42
0.077987
0
VERTEX
8
1
10
19.527142
20
12.817139
0
VERTEX
8
1
10
19.434933
20
12.841438
0
VERTEX
8
1
10
19.333332
20
12.846779
0
VERTEX
8
1
10
19.242523
20
12.834244
42
0.270396
0
VERTEX
8
1
10
18.867275
20
12.477867
0
VERTEX
8
1
10
18.854809
20
12.440346
42
-0.020089
0
VERTEX
8
1
10
18.810261
20
12.500145
0
VERTEX
8
1
10
18.716801
20
12.313232
0
VERTEX
8
1
10
18.716824
20
12.303055
0
VERTEX
8
1
10
18.734608
20
11.256783
0
VERTEX
8
1
10
18.734055
20
11.241669
42
0.020959
0
VERTEX
8
1
10
18.552681
20
11.244350
42
0.139008
0
VERTEX
8
1
10
18.497208
20
11.217674
42
0.013924
0
VERTEX
8
1
10
18.443485
20
11.231277
42
0.277340
0
VERTEX
8
1
10
18.411957
20
11.259071
42
-0.142327
0
VERTEX
8
1
10
18.368416
20
11.308495
42
0.154686
0
VERTEX
8
1
10
18.255318
20
11.394829
0
VERTEX
8
1
10
18.250271
20
11.402435
42
0.153235
0
VERTEX
8
1
10
17.919975
20
11.531082
42
0.131798
0
VERTEX
8
1
10
17.698627
20
11.518852
42
-0.049989
0
VERTEX
8
1
10
17.455830
20
11.499603
42
-0.034366
0
VERTEX
8
1
10
17.134064
20
11.467636
42
-0.041791
0
VERTEX
8
1
10
16.076984
20
11.433159
42
-0.080948
0
VERTEX
8
1
10
16.023327
20
11.471512
42
0.019102
0
VERTEX
8
1
10
15.974250
20
11.482947
42
-0.539992
0
VERTEX
8
1
10
15.984215
20
11.525330
42
0.203898
0
VERTEX
8
1
10
16.006336
20
11.557304
42
0.088112
0
VERTEX
8
1
10
15.941959
20
11.539246
42
-0.248445
0
VERTEX
8
1
10
15.884228
20
11.552444
0
VERTEX
8
1
10
15.883762
20
11.561066
42
-0.164611
0
VERTEX
8
1
10
15.950965
20
11.631664
42
0.037674
0
VERTEX
8
1
10
15.961304
20
11.642868
42
0.123850
0
VERTEX
8
1
10
15.801479
20
11.619408
42
-0.106181
0
VERTEX
8
1
10
15.764114
20
11.622543
42
-0.263729
0
VERTEX
8
1
10
15.768021
20
11.643097
42
0.167849
0
VERTEX
8
1
10
15.891956
20
11.745552
0
VERTEX
8
1
10
15.894482
20
11.757462
0
VERTEX
8
1
10
15.888039
20
11.760368
42
0.064360
0
VERTEX
8
1
10
15.802330
20
11.736076
42
-0.086581
0
VERTEX
8
1
10
15.683487
20
11.741341
0
VERTEX
8
1
10
15.684067
20
11.748070
42
-0.106964
0
SEQEND
0
POLYLINE
8
1
66
1
70
1
0
VERTEX
8
1
10
19.931599
20
10.242256
42
-0.060206
0
VERTEX
8
1
10
19.924629
20
10.242630
42
-0.072100
0
VERTEX
8
1
10
19.500942
20
10.377930
0
VERTEX
8
1
10
19.403637
20
10.425156
42
0.068545
0
VERTEX
8
1
10
19.346317
20
10.446144
42
0.503355
0
VERTEX
8
1
10
19.497009
20
10.232978
42
-0.622978
0
VERTEX
8
1
10
19.501049
20
10.176888
42
-0.334394
0
VERTEX
8
1
10
19.250530
20
10.184784
0
VERTEX
8
1
10
19.236027
20
10.180618
42
0.105121
0
VERTEX
8
1
10
19.210358
20
9.957474
42
0.063383
0
VERTEX
8
1
10
19.237740
20
9.892654
42
-0.728146
0
VERTEX
8
1
10
19.187778
20
9.860352
42
-0.175554
0
VERTEX
8
1
10
18.988480
20
10.210894
42
-0.025059
0
VERTEX
8
1
10
18.960648
20
10.392056
42
0.073191
0
VERTEX
8
1
10
18.899750
20
10.570320
42
-1.022877
0
VERTEX
8
1
10
18.961723
20
10.585495
42
-0.100224
0
VERTEX
8
1
10
19.035027
20
10.305740
42
0.108721
0
VERTEX
8
1
10
19.130756
20
10.018097
0
VERTEX
8
1
10
19.143982
20
10.009125
42
-0.088668
0
VERTEX
8
1
10
19.200626
20
10.265924
42
-0.543152
0
VERTEX
8
1
10
19.254642
20
10.263855
42
0.185788
0
VERTEX
8
1
10
19.382549
20
10.201485
0
VERTEX
8
1
10
19.378235
20
10.206612
42
-0.358018
0
VERTEX
8
1
10
19.293926
20
10.480721
42
-0.354930
0
VERTEX
8
1
10
19.369453
20
10.505417
42
-0.027435
0
VERTEX
8
1
10
19.565941
20
10.416748
42
0.061974
0
VERTEX
8
1
10
19.913902
20
10.307922
42
0.140928
0
VERTEX
8
1
10
20.317268
20
10.416903
42
0.149550
0
VERTEX
8
1
10
20.431507
20
10.569496
42
-0.183032
0
VERTEX
8
1
10
20.031096
20
10.508387
42
-0.542018
0
VERTEX
8
1
10
20.025513
20
10.576454
42
0.027394
0
VERTEX
8
1
10
20.198330
20
10.753860
42
0.081340
0
VERTEX
8
1
10
19.833534
20
10.534653
42
-0.151764
0
VERTEX
8
1
10
19.737795
20
10.467501
42
-0.407267
0
VERTEX
8
1
10
19.682529
20
10.512344
0
VERTEX
8
1
10
19.679016
20
10.540039
42
-0.099114
0
VERTEX
8
1
10
19.746777
20
10.788452
42
0.021469
0
VERTEX
8
1
10
19.586147
20
10.620537
42
-0.552958
0
VERTEX
8
1
10
19.323572
20
10.708027
42
-0.231730
0
VERTEX
8
1
10
19.361572
20
10.808220
42
0.010909
0
VERTEX
8
1
10
19.115303
20
10.815913
42
-0.218587
0
VERTEX
8
1
10
19.040846
20
10.864254
42
-0.283274
0
VERTEX
8
1
10
19.052742
20
10.932076
42
-0.082351
0
VERTEX
8
1
10
19.175716
20
11.036728
42
0.023141
0
VERTEX
8
1
10
18.995831
20
11.045297
42
-0.862311
0
VERTEX
8
1
10
19.002106
20
11.106796
42
-0.063418
0
VERTEX
8
1
10
19.233444
20
11.088417
0
VERTEX
8
1
10
19.251564
20
11.081070
42
-0.637112
0
VERTEX
8
1
10
19.251381
20
11.004921
42
0.101810
0
VERTEX
8
1
10
19.102360
20
10.894775
0
VERTEX
8
1
10
19.099419
20
10.887955
42
0.124822
0
VERTEX
8
1
10
19.175072
20
10.875320
42
-0.042422
0
VERTEX
8
1
10
19.394005
20
10.864120
42
-0.578196
0
VERTEX
8
1
10
19.405586
20
10.762269
42
0.525937
0
VERTEX
8
1
10
19.411568
20
10.673469
42
0.428847
0
VERTEX
8
1
10
19.553501
20
10.677032
42
-0.055507
0
VERTEX
8
1
10
19.803030
20
10.914668
42
-0.718015
0
VERTEX
8
1
10
19.856155
20
10.863518
42
-0.070842
0
VERTEX
8
1
10
19.823942
20
10.800575
42
0.111638
0
VERTEX
8
1
10
19.742615
20
10.535637
42
-0.100435
0
VERTEX
8
1
10
20.185055
20
10.814995
0
VERTEX
8
1
10
20.210312
20
10.821121
0
VERTEX
8
1
10
20.229580
20
10.823250
42
-0.627385
0
VERTEX
8
1
10
20.273743
20
10.754364
42
-0.089392
0
VERTEX
8
1
10
20.207752
20
10.668457
42
-0.010211
0
VERTEX
8
1
10
20.099815
20
10.559715
42
0.229696
0
VERTEX
8
1
10
20.484856
20
10.690094
42
-0.608549
0
VERTEX
8
1
10
20.530163
20
10.658020
42
-0.291386
0
VERTEX
8
1
10
20.191046
20
10.288638
42
-0.065971
0
SEQEND
0
POLYLINE
8
1
66
1
70
1
0
VERTEX
8
1
10
19.929462
20
10.099243
0
VERTEX
8
1
10
19.929462
20
9.845543
0
VERTEX
8
1
10
19.675766
20
9.845543
0
VERTEX
8
1
10
19.675766
20
10.099243
0
SEQEND
0
POLYLINE
8
1
66
1
70
1
0
VERTEX
8
1
10
18.854256
20
9.748024
0
VERTEX
8
1
10
18.929241
20
9.746872
0
VERTEX
8
1
10
18.929413
20
9.745850
42
-0.037585
0
SEQEND
0
POLYLINE
8
1
66
1
70
1
0
VERTEX
8
1
10
18.921194
20
11.364334
42
-1.027499
0
VERTEX
8
1
10
18.858696
20
11.362595
0
VERTEX
8
1
10
18.858696
20
12.238228
42
-0.958028
0
VERTEX
8
1
10
18.921131
20
12.239555
0
SEQEND
0
POLYLINE
8
1
66
1
70
1
0
VERTEX
8
1
10
19.358660
20
11.111572
42
-0.983712
0
VERTEX
8
1
10
19.296177
20
11.112610
0
VERTEX
8
1
10
19.296194
20
12.634407
42
-0.983712
0
VERTEX
8
1
10
19.358677
20
12.633369
0
SEQEND
0
POLYLINE
8
1
66
1
70
1
0
VERTEX
8
1
10
18.749748
20
10.365860
0
VERTEX
8
1
10
18.269863
20
10.128624
0
VERTEX
8
1
10
18.302971
20
10.106575
0
VERTEX
8
1
10
18.340992
20
10.122871
0
VERTEX
8
1
10
18.341557
20
10.122749
0
VERTEX
8
1
10
18.331944
20
9.791054
0
VERTEX
8
1
10
18.326210
20
9.787232
42
0.001506
0
VERTEX
8
1
10
17.853739
20
9.790505
0
VERTEX
8
1
10
17.846909
20
9.805214
42
-0.152687
0
VERTEX
8
1
10
18.091208
20
10.131252
42
0.000967
0
VERTEX
8
1
10
18.286526
20
10.279267
42
-0.001239
0
VERTEX
8
1
10
18.529415
20
10.519753
42
0.102650
0
VERTEX
8
1
10
18.618532
20
10.671948
42
0.151263
0
VERTEX
8
1
10
18.612682
20
10.727165
42
0.171004
0
VERTEX
8
1
10
18.607452
20
10.830070
0
VERTEX
8
1
10
18.589558
20
10.889847
42
-0.167639
0
VERTEX
8
1
10
18.581593
20
10.986626
0
VERTEX
8
1
10
18.594940
20
11.001129
0
VERTEX
8
1
10
18.614471
20
11.008247
0
VERTEX
8
1
10
18.629673
20
11.001396
0
VERTEX
8
1
10
18.641098
20
10.983269
42
-0.073753
0
VERTEX
8
1
10
18.661762
20
10.757034
42
0.254130
0
VERTEX
8
1
10
18.700802
20
10.786293
0
VERTEX
8
1
10
18.705795
20
10.789825
0
VERTEX
8
1
10
18.710365
20
10.788216
42
-0.206757
0
VERTEX
8
1
10
18.716003
20
10.681244
42
-0.189566
0
VERTEX
8
1
10
18.589870
20
10.432297
0
VERTEX
8
1
10
18.598892
20
10.427269
0
VERTEX
8
1
10
18.617664
20
10.429893
0
VERTEX
8
1
10
18.635483
20
10.435913
42
0.156894
0
VERTEX
8
1
10
18.746410
20
10.562378
0
SEQEND
0
POLYLINE
8
1
66
1
70
1
0
VERTEX
8
1
10
18.518253
20
10.117592
0
VERTEX
8
1
10
18.672527
20
10.117592
0
VERTEX
8
1
10
18.672527
20
9.768158
42
-0.253793
0
VERTEX
8
1
10
18.518078
20
9.763466
0
VERTEX
8
1
10
18.518078
20
10.111374
0
SEQEND
0
POLYLINE
8
1
66
1
70
1
0
VERTEX
8
1
10
18.735737
20
11.190262
0
VERTEX
8
1
10
18.735909
20
11.180283
42
-0.987840
0
SEQEND
0
POLYLINE
8
1
66
1
70
1
0
VERTEX
8
1
10
15.796597
20
9.610878
42
-0.019110
0
VERTEX
8
1
10
15.988578
20
9.765073
42
0.071216
0
VERTEX
8
1
10
16.109819
20
9.907181
42
-0.228992
0
VERTEX
8
1
10
16.182251
20
9.938293
0
VERTEX
8
1
10
16.203037
20
9.944305
42
0.099441
0
VERTEX
8
1
10
16.380535
20
9.951721
0
VERTEX
8
1
10
16.390274
20
9.950317
42
-0.045032
0
VERTEX
8
1
10
16.591942
20
9.948961
42
0.055913
0
VERTEX
8
1
10
16.645866
20
9.958168
42
0.009654
0
VERTEX
8
1
10
16.929373
20
9.985351
0
VERTEX
8
1
10
16.956226
20
9.990973
42
-0.003847
0
VERTEX
8
1
10
17.174429
20
10.051244
42
0.028053
0
VERTEX
8
1
10
17.319818
20
10.100195
0
VERTEX
8
1
10
17.327385
20
10.105972
42
-0.224626
0
VERTEX
8
1
10
17.451477
20
9.785675
0
VERTEX
8
1
10
17.441490
20
9.781647
42
0.465819
0
VERTEX
8
1
10
17.377106
20
9.754509
42
0.152518
0
VERTEX
8
1
10
17.159597
20
9.760749
42
-0.064446
0
VERTEX
8
1
10
16.901108
20
9.751002
42
0.193234
0
VERTEX
8
1
10
16.837746
20
9.717819
42
-0.199920
0
VERTEX
8
1
10
16.749168
20
9.696404
42
0.049685
0
VERTEX
8
1
10
16.577553
20
9.700272
42
0.136404
0
VERTEX
8
1
10
16.531994
20
9.667946
42
-0.146920
0
VERTEX
8
1
10
16.498867
20
9.657837
42
-0.002459
0
VERTEX
8
1
10
16.344494
20
9.663734
42
0.099172
0
VERTEX
8
1
10
16.350773
20
9.703506
0
VERTEX
8
1
10
16.356464
20
9.710175
0
VERTEX
8
1
10
16.373672
20
9.720772
42
0.093735
0
VERTEX
8
1
10
16.450165
20
9.837189
42
0.204702
0
VERTEX
8
1
10
16.405130
20
9.843189
42
0.015823
0
VERTEX
8
1
10
16.336807
20
9.853050
42
-0.414591
0
VERTEX
8
1
10
16.321999
20
9.853218
42
0.193291
0
VERTEX
8
1
10
16.187050
20
9.842087
42
-0.241772
0
VERTEX
8
1
10
16.147541
20
9.815880
0
VERTEX
8
1
10
16.137779
20
9.808418
42
0.086072
0
VERTEX
8
1
10
16.114998
20
9.749474
0
VERTEX
8
1
10
16.119244
20
9.739281
0
VERTEX
8
1
10
16.127811
20
9.729652
42
-0.573426
0
VERTEX
8
1
10
16.109230
20
9.613791
42
-0.043398
0
VERTEX
8
1
10
16.024864
20
9.579079
0
VERTEX
8
1
10
16.009541
20
9.570763
42
-0.234404
0
VERTEX
8
1
10
15.723030
20
9.514252
0
VERTEX
8
1
10
15.723858
20
9.528801
42
-0.093306
0
SEQEND
0
POLYLINE
8
1
66
1
70
1
0
VERTEX
8
1
10
17.062664
20
9.125854
42
-0.108714
0
VERTEX
8
1
10
17.007481
20
9.142845
0
VERTEX
8
1
10
17.008980
20
9.151031
42
0.532884
0
VERTEX
8
1
10
16.987072
20
9.196243
0
VERTEX
8
1
10
16.971794
20
9.200539
0
VERTEX
8
1
10
16.973679
20
9.229202
42
-0.539469
0
VERTEX
8
1
10
17.020882
20
9.251669
42
0.298835
0
VERTEX
8
1
10
17.121529
20
9.304390
42
-0.138989
0
VERTEX
8
1
10
17.240578
20
9.420311
42
-0.043219
0
VERTEX
8
1
10
17.399059
20
9.503006
42
0.018286
0
VERTEX
8
1
10
17.427010
20
9.497978
42
0.015443
0
VERTEX
8
1
10
17.408241
20
9.465744
0
VERTEX
8
1
10
17.398067
20
9.463341
42
-0.062334
0
VERTEX
8
1
10
17.282574
20
9.237033
42
-0.083542
0
VERTEX
8
1
10
17.181988
20
9.149712
42
0.041261
0
VERTEX
8
1
10
17.087772
20
9.125786
0
VERTEX
8
1
10
17.075314
20
9.125328
0
SEQEND
0
POLYLINE
8
1
66
1
70
1
0
VERTEX
8
1
10
16.361927
20
9.095184
42
0.104075
0
VERTEX
8
1
10
16.259663
20
9.102600
0
VERTEX
8
1
10
16.250572
20
9.072762
0
VERTEX
8
1
10
16.248356
20
9.068954
0
VERTEX
8
1
10
16.178967
20
9.075775
0
VERTEX
8
1
10
16.159542
20
9.071671
0
VERTEX
8
1
10
16.145531
20
9.081055
42
0.016293
0
VERTEX
8
1
10
15.788689
20
9.353676
0
VERTEX
8
1
10
15.797066
20
9.356606
42
0.075456
0
VERTEX
8
1
10
15.953983
20
9.384132
0
VERTEX
8
1
10
15.966743
20
9.385536
42
0.116980
0
VERTEX
8
1
10
16.040695
20
9.392257
42
0.427689
0
VERTEX
8
1
10
16.055798
20
9.392799
42
-0.058092
0
VERTEX
8
1
10
16.162340
20
9.406181
42
0.312237
0
VERTEX
8
1
10
16.218948
20
9.467293
42
-0.158838
0
VERTEX
8
1
10
16.293747
20
9.589600
42
-0.092869
0
VERTEX
8
1
10
16.451008
20
9.540230
42
0.094385
0
VERTEX
8
1
10
16.615768
20
9.522301
42
-0.014677
0
VERTEX
8
1
10
16.891937
20
9.536728
42
-0.093725
0
VERTEX
8
1
10
16.993607
20
9.510994
42
0.256420
0
VERTEX
8
1
10
16.849604
20
9.316076
42
-0.129907
0
VERTEX
8
1
10
16.779881
20
9.203064
42
0.044760
0
VERTEX
8
1
10
16.739689
20
9.138809
42
0.035194
0
VERTEX
8
1
10
16.492825
20
9.128860
0
VERTEX
8
1
10
16.481678
20
9.124512
0
VERTEX
8
1
10
16.472202
20
9.118973
42
-0.275081
0
SEQEND
0
POLYLINE
8
1
66
1
70
1
0
VERTEX
8
1
10
16.861301
20
9.039505
0
VERTEX
8
1
10
16.863253
20
9.042045
42
-1.290570
0
VERTEX
8
1
10
16.926662
20
9.040237
42
-0.331052
0
VERTEX
8
1
10
16.856998
20
8.967669
42
-0.117596
0
VERTEX
8
1
10
16.673790
20
8.947986
42
-0.806864
0
VERTEX
8
1
10
16.684078
20
9.008209
42
0.107564
0
VERTEX
8
1
10
16.851009
20
9.031517
0
SEQEND
0
POLYLINE
8
1
66
1
70
1
0
VERTEX
8
1
10
16.738659
20
8.489944
42
-0.092670
0
VERTEX
8
1
10
16.490650
20
8.617340
42
-0.367075
0
VERTEX
8
1
10
16.494896
20
8.687019
42
-0.086473
0
VERTEX
8
1
10
16.610195
20
8.766586
42
0.011353
0
VERTEX
8
1
10
16.871471
20
8.900261
42
-0.025193
0
VERTEX
8
1
10
17.098858
20
9.080300
42
-0.905437
0
VERTEX
8
1
10
17.127258
20
9.024864
42
0.022539
0
VERTEX
8
1
10
16.909260
20
8.850555
42
-0.006888
0
VERTEX
8
1
10
16.603395
20
8.691381
0
VERTEX
8
1
10
16.578878
20
8.675979
0
VERTEX
8
1
10
16.555016
20
8.659584
0
VERTEX
8
1
10
16.549942
20
8.647171
42
0.100854
0
VERTEX
8
1
10
16.869518
20
8.521454
0
VERTEX
8
1
10
16.911064
20
8.519142
42
0.211429
0
VERTEX
8
1
10
16.940372
20
8.527046
42
0.065299
0
VERTEX
8
1
10
16.931862
20
8.663746
42
-0.293946
0
VERTEX
8
1
10
16.985374
20
8.746063
42
0.165477
0
VERTEX
8
1
10
17.039097
20
8.814087
42
-0.173873
0
VERTEX
8
1
10
17.120113
20
8.887756
42
-0.767444
0
VERTEX
8
1
10
17.143253
20
8.832001
42
0.158488
0
VERTEX
8
1
10
17.073299
20
8.747803
42
-0.126803
0
VERTEX
8
1
10
17.003654
20
8.683075
42
0.306185
0
VERTEX
8
1
10
16.996632
20
8.642822
42
-0.118457
0
VERTEX
8
1
10
16.995687
20
8.497763
42
-0.300595
0
VERTEX
8
1
10
16.917824
20
8.457146
42
-0.099686
0
SEQEND
0
POLYLINE
8
1
66
1
70
1
0
VERTEX
8
1
10
21.094513
20
9.119202
42
0.055479
0
VERTEX
8
1
10
20.228273
20
8.047579
42
-0.099256
0
VERTEX
8
1
10
19.792892
20
7.617456
42
-0.057142
0
VERTEX
8
1
10
19.490313
20
7.477625
42
0.096834
0
VERTEX
8
1
10
19.319149
20
7.365173
0
VERTEX
8
1
10
19.275402
20
7.333023
42
0.028303
0
VERTEX
8
1
10
18.932570
20
7.111115
42
0.171275
0
VERTEX
8
1
10
18.583122
20
6.570129
0
VERTEX
8
1
10
18.559784
20
6.441528
0
VERTEX
8
1
10
18.548939
20
6.297624
42
0.028996
0
VERTEX
8
1
10
18.581688
20
5.590485
42
-0.010278
0
VERTEX
8
1
10
18.656845
20
4.713870
42
-0.022304
0
VERTEX
8
1
10
18.652927
20
4.480927
0
VERTEX
8
1
10
18.636864
20
4.403275
0
VERTEX
8
1
10
18.609043
20
4.358505
0
VERTEX
8
1
10
18.567741
20
4.350845
0
VERTEX
8
1
10
18.511227
20
4.384506
42
0.068118
0
VERTEX
8
1
10
17.984562
20
4.744328
42
0.057638
0
VERTEX
8
1
10
17.841988
20
4.784439
0
VERTEX
8
1
10
17.787193
20
4.781525
0
VERTEX
8
1
10
17.742908
20
4.761780
0
VERTEX
8
1
10
17.710941
20
4.723190
0
VERTEX
8
1
10
17.693081
20
4.663757
0
VERTEX
8
1
10
17.691132
20
4.581467
0
VERTEX
8
1
10
17.706898
20
4.474304
42
-0.075713
0
VERTEX
8
1
10
17.782360
20
3.866374
42
-0.075827
0
VERTEX
8
1
10
17.741512
20
3.706658
42
-0.149579
0
VERTEX
8
1
10
17.681065
20
3.651367
0
VERTEX
8
1
10
17.649124
20
3.648819
0
VERTEX
8
1
10
17.614323
20
3.659866
0
VERTEX
8
1
10
17.577141
20
3.684830
42
-0.130345
0
VERTEX
8
1
10
17.435049
20
3.904899
42
-0.049029
0
VERTEX
8
1
10
17.317059
20
4.323563
42
0.009888
0
VERTEX
8
1
10
17.165232
20
5.048662
42
0.047573
0
VERTEX
8
1
10
17.036684
20
5.388170
42
-0.140240
0
VERTEX
8
1
10
16.897743
20
6.502563
0
VERTEX
8
1
10
16.916607
20
6.626465
42
-0.015351
0
VERTEX
8
1
10
17.142851
20
7.624795
42
0.033103
0
VERTEX
8
1
10
17.194775
20
7.944305
0
VERTEX
8
1
10
17.193562
20
7.993347
42
0.311151
0
VERTEX
8
1
10
17.108234
20
8.110283
42
-0.077230
0
VERTEX
8
1
10
16.983601
20
8.211502
0
VERTEX
8
1
10
16.995207
20
8.214916
42
0.000511
0
VERTEX
8
1
10
17.282471
20
8.227821
42
0.003618
0
VERTEX
8
1
10
17.582298
20
8.276505
42
0.065719
0
VERTEX
8
1
10
17.781048
20
8.299767
42
0.123114
0
VERTEX
8
1
10
17.811672
20
8.326202
42
0.053207
0
VERTEX
8
1
10
17.404442
20
8.459869
42
0.019596
0
VERTEX
8
1
10
17.763107
20
8.456551
42
0.030144
0
VERTEX
8
1
10
18.488327
20
8.429779
42
0.023352
0
VERTEX
8
1
10
19.164291
20
8.449226
42
-0.021687
0
VERTEX
8
1
10
19.433281
20
8.440202
42
-0.014726
0
VERTEX
8
1
10
19.932188
20
8.439363
42
0.050918
0
VERTEX
8
1
10
20.157215
20
8.464867
42
0.028375
0
VERTEX
8
1
10
20.418167
20
8.563126
0
VERTEX
8
1
10
20.427860
20
8.572586
0
VERTEX
8
1
10
20.421585
20
8.582153
42
0.158102
0
VERTEX
8
1
10
20.326038
20
8.613182
42
0.069309
0
VERTEX
8
1
10
20.121067
20
8.601913
42
-0.044238
0
VERTEX
8
1
10
19.820122
20
8.609551
0
VERTEX
8
1
10
19.627262
20
8.613888
42
-0.014007
0
VERTEX
8
1
10
18.945377
20
8.648067
42
-0.082198
0
VERTEX
8
1
10
18.812109
20
8.683508
42
0.147065
0
VERTEX
8
1
10
18.425392
20
8.701284
42
-0.152862
0
VERTEX
8
1
10
18.239174
20
8.732895
42
0.139711
0
VERTEX
8
1
10
17.964371
20
8.774379
42
-0.079856
0
VERTEX
8
1
10
17.808689
20
8.798340
0
VERTEX
8
1
10
17.790668
20
8.807762
0
VERTEX
8
1
10
17.774883
20
8.819466
0
VERTEX
8
1
10
17.794327
20
8.834335
42
-0.093422
0
VERTEX
8
1
10
18.067253
20
8.884056
42
0.059172
0
VERTEX
8
1
10
18.356556
20
8.922157
42
-0.041121
0
VERTEX
8
1
10
18.590328
20
8.932915
42
0.036805
0
VERTEX
8
1
10
18.781708
20
8.954819
42
-0.051448
0
VERTEX
8
1
10
18.956696
20
8.937927
42
0.227676
0
VERTEX
8
1
10
19.158606
20
9.012208
42
0.829903
0
VERTEX
8
1
10
19.100574
20
9.066490
0
VERTEX
8
1
10
19.087664
20
9.062846
42
-0.237571
0
VERTEX
8
1
10
19.007658
20
9.076414
0
VERTEX
8
1
10
18.988741
20
9.087569
42
0.343082
0
VERTEX
8
1
10
18.897629
20
9.090053
42
-0.182853
0
VERTEX
8
1
10
18.771507
20
9.085297
42
0.181840
0
VERTEX
8
1
10
18.633854
20
9.069652
42
-0.118130
0
VERTEX
8
1
10
18.543781
20
9.064095
42
-0.140439
0
VERTEX
8
1
10
18.497650
20
9.102753
42
-0.158134
0
VERTEX
8
1
10
18.266783
20
9.096258
42
0.211976
0
VERTEX
8
1
10
18.165539
20
9.069389
0
VERTEX
8
1
10
18.154869
20
9.069672
42
0.208236
0
VERTEX
8
1
10
17.874260
20
9.111603
42
0.008553
0
VERTEX
8
1
10
17.827999
20
9.093688
42
-0.383126
0
VERTEX
8
1
10
17.794174
20
9.122482
42
0.055136
0
VERTEX
8
1
10
17.670437
20
9.146027
42
-0.037074
0
VERTEX
8
1
10
17.560600
20
9.133148
42
-0.007386
0
VERTEX
8
1
10
17.475410
20
9.159569
42
0.069471
0
VERTEX
8
1
10
17.418961
20
9.158203
42
-0.060138
0
VERTEX
8
1
10
17.662323
20
9.346419
42
0.236446
0
VERTEX
8
1
10
17.739380
20
9.452065
0
VERTEX
8
1
10
17.743692
20
9.457228
42
-0.001496
0
VERTEX
8
1
10
17.955170
20
9.494229
42
0.000051
0
VERTEX
8
1
10
18.344820
20
9.506903
42
-0.028804
0
VERTEX
8
1
10
18.418720
20
9.491745
42
0.112770
0
VERTEX
8
1
10
18.501118
20
9.527626
42
-0.187506
0
VERTEX
8
1
10
18.601643
20
9.502410
42
0.379816
0
VERTEX
8
1
10
18.693111
20
9.529366
42
0.088601
0
VERTEX
8
1
10
18.764648
20
9.494881
42
0.032743
0
VERTEX
8
1
10
18.671806
20
9.463387
42
-0.029082
0
VERTEX
8
1
10
18.510136
20
9.451622
42
0.203644
0
VERTEX
8
1
10
18.360388
20
9.368242
42
0.373365
0
VERTEX
8
1
10
18.373154
20
9.318459
42
0.214058
0
VERTEX
8
1
10
18.562523
20
9.301804
42
-0.091785
0
VERTEX
8
1
10
18.821903
20
9.332207
42
0.036906
0
VERTEX
8
1
10
19.277626
20
9.345940
42
0.027946
0
VERTEX
8
1
10
19.654942
20
9.368576
42
0.051943
0
VERTEX
8
1
10
20.008560
20
9.402481
42
-0.034788
0
VERTEX
8
1
10
20.384697
20
9.415703
42
0.104662
0
VERTEX
8
1
10
20.514030
20
9.446702
42
-0.050156
0
VERTEX
8
1
10
20.592697
20
9.464126
42
-0.315078
0
VERTEX
8
1
10
20.635002
20
9.427368
0
VERTEX
8
1
10
20.621128
20
9.418175
42
0.025767
0
VERTEX
8
1
10
20.286592
20
9.336505
42
0.085517
0
VERTEX
8
1
10
20.201672
20
9.285896
0
VERTEX
8
1
10
20.187332
20
9.267464
0
VERTEX
8
1
10
20.187878
20
9.252655
42
0.100699
0
VERTEX
8
1
10
20.417641
20
9.243385
42
0.036003
0
VERTEX
8
1
10
20.872616
20
9.279526
42
0.022620
0
VERTEX
8
1
10
21.265837
20
9.328571
0
VERTEX
8
1
10
21.281498
20
9.329666
0
VERTEX
8
1
10
21.262901
20
9.296204
0
SEQEND
0
POLYLINE
8
1
66
1
70
1
0
VERTEX
8
1
10
21.409992
20
9.623097
42
-0.964859
0
VERTEX
8
1
10
21.413548
20
9.560730
0
VERTEX
8
1
10
18.911030
20
9.539782
42
-0.970322
0
VERTEX
8
1
10
18.908634
20
9.602196
0
SEQEND
0
POLYLINE
8
1
66
1
70
1
0
VERTEX
8
1
10
20.901989
20
10.773453
0
VERTEX
8
1
10
20.901989
20
10.977501
0
VERTEX
8
1
10
21.072956
20
10.977501
0
VERTEX
8
1
10
21.072956
20
10.773453
0
SEQEND
0
POLYLINE
8
1
66
1
70
1
0
VERTEX
8
1
10
21.148296
20
9.829002
0
VERTEX
8
1
10
21.148296
20
10.082695
0
VERTEX
8
1
10
21.401989
20
10.082695
0
VERTEX
8
1
10
21.401989
20
9.829002
0
SEQEND
0
POLYLINE
8
1
66
1
70
1
0
VERTEX
8
1
10
21.635250
20
10.133003
0
VERTEX
8
1
10
21.635242
20
9.489388
42
-1.025795
0
VERTEX
8
1
10
21.572750
20
9.491028
0
VERTEX
8
1
10
21.572750
20
10.134651
42
-1.025776
0
SEQEND
0
POLYLINE
8
1
66
1
70
1
0
VERTEX
8
1
10
21.981075
20
9.834518
0
VERTEX
8
1
10
21.854229
20
9.834518
0
VERTEX
8
1
10
21.854229
20
10.093727
0
VERTEX
8
1
10
21.981075
20
10.093727
0
SEQEND
0
POLYLINE
8
1
66
1
70
1
0
VERTEX
8
1
10
22.298191
20
9.848305
0
VERTEX
8
1
10
22.171345
20
9.848305
0
VERTEX
8
1
10
22.171345
20
10.107513
0
VERTEX
8
1
10
22.298191
20
10.107513
0
SEQEND
0
POLYLINE
8
1
66
1
70
1
0
VERTEX
8
1
10
22.584972
20
9.859329
0
VERTEX
8
1
10
22.458126
20
9.859329
0
VERTEX
8
1
10
22.458126
20
10.118546
0
VERTEX
8
1
10
22.584972
20
10.118546
0
SEQEND
0
POLYLINE
8
1
66
1
70
1
0
VERTEX
8
1
10
22.708065
20
10.246635
0
VERTEX
8
1
10
21.606014
20
10.236572
42
-0.275217
0
VERTEX
8
1
10
21.578342
20
10.252777
0
VERTEX
8
1
10
21.130154
20
11.232849
0
VERTEX
8
1
10
20.819065
20
11.423187
0
VERTEX
8
1
10
20.471516
20
11.578758
42
-0.949512
0
VERTEX
8
1
10
20.496170
20
11.636093
0
VERTEX
8
1
10
20.847935
20
11.478699
0
VERTEX
8
1
10
21.170406
20
11.281494
42
-0.142042
0
VERTEX
8
1
10
21.182426
20
11.268982
0
VERTEX
8
1
10
21.625309
20
10.300179
0
VERTEX
8
1
10
21.634777
20
10.299339
0
VERTEX
8
1
10
22.710278
20
10.309052
42
-0.948763
0
SEQEND
0
POLYLINE
8
1
66
1
70
1
0
VERTEX
8
1
10
22.849697
20
9.870369
0
VERTEX
8
1
10
22.722851
20
9.870369
0
VERTEX
8
1
10
22.722851
20
10.129578
0
VERTEX
8
1
10
22.849697
20
10.129578
0
SEQEND
0
POLYLINE
8
1
66
1
70
1
0
VERTEX
8
1
10
22.051319
20
13.220032
42
0.062407
0
VERTEX
8
1
10
22.335371
20
12.509023
42
0.035523
0
VERTEX
8
1
10
22.447880
20
12.352715
0
VERTEX
8
1
10
22.518497
20
12.285858
0
VERTEX
8
1
10
22.593655
20
12.240120
0
VERTEX
8
1
10
22.673077
20
12.219917
0
VERTEX
8
1
10
22.756481
20
12.229668
0
VERTEX
8
1
10
22.843601
20
12.273773
0
VERTEX
8
1
10
22.934139
20
12.356651
0
VERTEX
8
1
10
23.027821
20
12.482727
0
VERTEX
8
1
10
23.124363
20
12.656410
0
VERTEX
8
1
10
23.223492
20
12.882111
0
VERTEX
8
1
10
23.245266
20
12.912163
42
-0.118150
0
VERTEX
8
1
10
23.893772
20
12.729561
0
VERTEX
8
1
10
23.996250
20
12.660492
0
VERTEX
8
1
10
24.092396
20
12.575897
0
VERTEX
8
1
10
24.178890
20
12.474220
0
VERTEX
8
1
10
24.252399
20
12.353874
0
VERTEX
8
1
10
24.309612
20
12.213287
0
VERTEX
8
1
10
24.347187
20
12.050896
0
VERTEX
8
1
10
24.361805
20
11.865120
0
VERTEX
8
1
10
24.350140
20
11.654381
0
VERTEX
8
1
10
24.308865
20
11.417122
0
VERTEX
8
1
10
24.234653
20
11.151756
0
VERTEX
8
1
10
24.124210
20
10.856773
42
-0.134671
0
VERTEX
8
1
10
23.947201
20
10.657005
42
-0.054286
0
VERTEX
8
1
10
23.619179
20
10.476679
42
-0.028345
0
VERTEX
8
1
10
23.063206
20
10.257332
0
VERTEX
8
1
10
23.063259
20
10.338249
0
VERTEX
8
1
10
23.206181
20
10.354729
0
VERTEX
8
1
10
23.206196
20
10.355614
0
VERTEX
8
1
10
22.748753
20
11.242889
0
VERTEX
8
1
10
22.721256
20
11.264877
42
-0.021555
0
VERTEX
8
1
10
22.317257
20
11.472710
42
-0.055948
0
VERTEX
8
1
10
22.246861
20
11.551735
0
VERTEX
8
1
10
21.667690
20
11.645515
0
VERTEX
8
1
10
21.667713
20
11.828987
0
VERTEX
8
1
10
21.682163
20
11.869858
0
VERTEX
8
1
10
21.711697
20
11.866165
0
VERTEX
8
1
10
21.717304
20
11.893661
0
VERTEX
8
1
10
21.694675
20
11.905807
42
0.011700
0
VERTEX
8
1
10
21.884624
20
12.511627
0
SEQEND
0
POLYLINE
8
1
66
1
70
1
0
VERTEX
8
1
10
25.645672
20
12.978882
0
VERTEX
8
1
10
25.610569
20
12.872284
42
-0.172866
0
VERTEX
8
1
10
25.559072
20
13.009347
42
0.142151
0
VERTEX
8
1
10
25.419630
20
13.291979
42
0.334563
0
VERTEX
8
1
10
25.380207
20
13.289413
42
0.022150
0
VERTEX
8
1
10
25.177738
20
13.166992
42
0.084976
0
VERTEX
8
1
10
25.068377
20
13.039653
42
0.017602
0
VERTEX
8
1
10
24.938824
20
12.840385
42
0.064991
0
VERTEX
8
1
10
24.834919
20
12.530479
0
VERTEX
8
1
10
24.817577
20
12.534187
42
-0.215950
0
VERTEX
8
1
10
24.785023
20
12.620056
0
VERTEX
8
1
10
24.783894
20
12.650337
42
0.005395
0
VERTEX
8
1
10
24.794857
20
12.901344
42
-0.069910
0
VERTEX
8
1
10
24.857159
20
13.102821
42
-0.084776
0
VERTEX
8
1
10
24.940853
20
13.304411
0
VERTEX
8
1
10
24.942295
20
13.310740
0
VERTEX
8
1
10
24.942921
20
13.317200
0
VERTEX
8
1
10
24.645969
20
13.807076
0
VERTEX
8
1
10
24.641590
20
13.813843
42
0.049675
0
VERTEX
8
1
10
24.564844
20
13.627332
42
-0.140567
0
VERTEX
8
1
10
24.434008
20
13.476569
42
0.205426
0
VERTEX
8
1
10
24.399113
20
13.390723
42
-0.088999
0
VERTEX
8
1
10
24.404873
20
13.435402
42
-0.062314
0
VERTEX
8
1
10
24.434734
20
13.591019
42
0.062244
0
VERTEX
8
1
10
24.475063
20
13.641762
0
VERTEX
8
1
10
24.471539
20
13.657593
0
VERTEX
8
1
10
24.422123
20
13.840179
0
VERTEX
8
1
10
24.412121
20
13.872467
0
VERTEX
8
1
10
24.235348
20
14.412300
0
VERTEX
8
1
10
24.346035
20
14.304359
0
VERTEX
8
1
10
24.343700
20
14.333344
42
0.137619
0
VERTEX
8
1
10
24.582432
20
14.172600
42
-0.009568
0
VERTEX
8
1
10
24.838802
20
14.053795
42
0.065380
0
VERTEX
8
1
10
25.169096
20
13.973503
42
-0.373519
0
VERTEX
8
1
10
25.305159
20
13.789879
42
-0.020315
0
VERTEX
8
1
10
25.304203
20
13.698151
0
VERTEX
8
1
10
25.308147
20
13.674965
42
0.250616
0
VERTEX
8
1
10
25.468189
20
13.534409
0
VERTEX
8
1
10
25.516644
20
13.520027
42
-0.328245
0
VERTEX
8
1
10
25.705418
20
13.323944
0
VERTEX
8
1
10
25.708317
20
13.270096
42
-0.076146
0
SEQEND
0
POLYLINE
8
1
66
1
70
1
0
VERTEX
8
1
10
26.154003
20
14.370064
42
0.101393
0
VERTEX
8
1
10
26.078957
20
14.065957
42
0.003907
0
VERTEX
8
1
10
25.622265
20
14.244598
42
-0.124835
0
VERTEX
8
1
10
25.690983
20
14.254951
42
0.113957
0
VERTEX
8
1
10
25.864391
20
14.296219
42
-0.063191
0
VERTEX
8
1
10
26.140139
20
14.382051
42
0.034762
0
VERTEX
8
1
10
26.163433
20
14.393372
0
SEQEND
0
POLYLINE
8
1
66
1
70
1
0
VERTEX
8
1
10
26.135948
20
15.211310
42
-0.183133
0
VERTEX
8
1
10
26.209064
20
15.181641
0
VERTEX
8
1
10
26.071186
20
15.137291
42
-0.268677
0
VERTEX
8
1
10
26.035923
20
15.189453
42
-0.252498
0
VERTEX
8
1
10
25.666759
20
14.896708
42
-0.075398
0
VERTEX
8
1
10
25.360050
20
14.879555
0
VERTEX
8
1
10
25.324429
20
14.886566
0
VERTEX
8
1
10
25.280613
20
14.902344
42
0.101280
0
VERTEX
8
1
10
25.336153
20
14.800847
42
0.086451
0
VERTEX
8
1
10
25.560850
20
14.586972
42
0.161049
0
VERTEX
8
1
10
25.914816
20
14.514339
42
0.142803
0
VERTEX
8
1
10
26.128437
20
14.615974
0
VERTEX
8
1
10
26.161106
20
14.641571
42
0.148281
0
VERTEX
8
1
10
26.314001
20
14.834719
42
0.136290
0
VERTEX
8
1
10
26.328732
20
15.112655
42
0.280733
0
VERTEX
8
1
10
26.221510
20
15.203877
42
0.084637
0
SEQEND
0
POLYLINE
8
1
66
1
70
1
0
VERTEX
8
1
10
26.788853
20
13.778908
42
0.093391
0
VERTEX
8
1
10
26.641155
20
13.790894
42
-0.281972
0
VERTEX
8
1
10
26.574474
20
13.793945
42
0.021826
0
VERTEX
8
1
10
26.417500
20
13.852542
42
-0.174785
0
VERTEX
8
1
10
26.305880
20
13.972548
42
-0.125342
0
VERTEX
8
1
10
26.248104
20
14.201065
42
0.086287
0
VERTEX
8
1
10
26.262981
20
14.342766
42
-0.079460
0
VERTEX
8
1
10
26.321674
20
14.490967
42
-0.023335
0
VERTEX
8
1
10
26.402302
20
14.571404
42
0.095747
0
VERTEX
8
1
10
26.471027
20
14.617607
42
-0.138683
0
VERTEX
8
1
10
26.651358
20
14.673813
42
-0.104133
0
VERTEX
8
1
10
26.678158
20
14.662720
0
VERTEX
8
1
10
26.708164
20
14.598998
42
0.335632
0
VERTEX
8
1
10
26.676746
20
14.528854
42
-0.091600
0
VERTEX
8
1
10
26.653469
20
14.422081
42
0.158163
0
VERTEX
8
1
10
26.667973
20
14.281174
42
-0.059778
0
VERTEX
8
1
10
26.676785
20
14.182709
42
0.099071
0
VERTEX
8
1
10
26.790653
20
13.952141
0
VERTEX
8
1
10
26.850574
20
13.865845
0
VERTEX
8
1
10
26.879353
20
13.822571
0
VERTEX
8
1
10
26.894352
20
13.787003
42
-0.171679
0
SEQEND
0
POLYLINE
8
1
66
1
70
1
0
VERTEX
8
1
10
14.230236
20
30.728371
0
VERTEX
8
1
10
14.215134
20
30.748917
0
VERTEX
8
1
10
14.211330
20
30.777580
0
VERTEX
8
1
10
14.217045
20
30.809906
0
VERTEX
8
1
10
14.229038
20
30.843422
42
0.055996
0
VERTEX
8
1
10
14.361752
20
31.159721
42
-0.047209
0
VERTEX
8
1
10
14.053291
20
31.184128
0
VERTEX
8
1
10
14.016289
20
31.195610
0
VERTEX
8
1
10
13.997288
20
31.200260
42
0.627517
0
VERTEX
8
1
10
13.919632
20
31.108170
42
0.103548
0
VERTEX
8
1
10
14.069317
20
30.859337
42
-0.122290
0
VERTEX
8
1
10
14.144024
20
30.788780
42
-0.004077
0
VERTEX
8
1
10
14.148506
20
30.744789
42
0.208804
0
VERTEX
8
1
10
14.208321
20
30.702652
42
0.041897
0
VERTEX
8
1
10
14.232768
20
30.726439
42
0.051703
0
SEQEND
0
POLYLINE
8
1
66
1
70
1
0
VERTEX
8
1
10
15.534859
20
9.478340
0
VERTEX
8
1
10
15.518532
20
9.500549
0
VERTEX
8
1
10
15.514729
20
9.529213
0
VERTEX
8
1
10
15.520439
20
9.561546
0
VERTEX
8
1
10
15.532436
20
9.595062
42
0.056004
0
VERTEX
8
1
10
15.665150
20
9.911354
42
-0.047251
0
VERTEX
8
1
10
15.356686
20
9.935760
0
VERTEX
8
1
10
15.319683
20
9.947235
0
VERTEX
8
1
10
15.300682
20
9.951904
42
0.627466
0
VERTEX
8
1
10
15.223030
20
9.859802
42
0.103572
0
VERTEX
8
1
10
15.372715
20
9.610970
42
-0.122395
0
VERTEX
8
1
10
15.447411
20
9.540413
42
-0.003815
0
VERTEX
8
1
10
15.451912
20
9.496422
42
0.208799
0
VERTEX
8
1
10
15.511719
20
9.454292
42
0.042494
0
VERTEX
8
1
10
15.536244
20
9.477520
0
VERTEX
8
1
10
15.535562
20
9.477947
0
SEQEND
0
POLYLINE
8
1
66
1
70
1
0
VERTEX
8
1
10
26.898842
20
38.003666
42
0.122918
0
VERTEX
8
1
10
26.745005
20
37.999180
42
0.199460
0
VERTEX
8
1
10
26.686329
20
37.942417
42
0.405368
0
VERTEX
8
1
10
26.712627
20
37.910435
0
VERTEX
8
1
10
26.728924
20
37.904320
42
0.030356
0
VERTEX
8
1
10
27.145649
20
37.819962
42
-0.045050
0
VERTEX
8
1
10
27.291708
20
37.775860
42
0.008742
0
VERTEX
8
1
10
27.535679
20
37.697647
42
-0.010811
0
VERTEX
8
1
10
27.722767
20
37.599327
42
-0.032686
0
VERTEX
8
1
10
27.869816
20
37.547623
0
VERTEX
8
1
10
27.875103
20
37.580048
0
VERTEX
8
1
10
27.859676
20
37.614403
0
VERTEX
8
1
10
27.827366
20
37.649879
0
VERTEX
8
1
10
27.781979
20
37.685669
42
0.035750
0
VERTEX
8
1
10
27.418888
20
37.876297
42
0.154044
0
VERTEX
8
1
10
27.041069
20
37.976078
42
-0.079642
0
SEQEND
0
POLYLINE
8
1
66
1
70
1
0
VERTEX
8
1
10
28.216185
20
16.752415
42
0.147173
0
VERTEX
8
1
10
28.039080
20
16.746391
42
0.179889
0
VERTEX
8
1
10
27.989727
20
16.694054
42
0.405349
0
VERTEX
8
1
10
28.016018
20
16.662066
0
VERTEX
8
1
10
28.032322
20
16.655952
42
0.030371
0
VERTEX
8
1
10
28.449047
20
16.571602
42
-0.045026
0
VERTEX
8
1
10
28.595106
20
16.527500
42
0.008709
0
VERTEX
8
1
10
28.839077
20
16.449280
42
-0.010762
0
VERTEX
8
1
10
29.026165
20
16.350960
42
-0.032741
0
VERTEX
8
1
10
29.173214
20
16.299263
0
VERTEX
8
1
10
29.178501
20
16.331680
0
VERTEX
8
1
10
29.163074
20
16.366043
0
VERTEX
8
1
10
29.130764
20
16.401520
0
VERTEX
8
1
10
29.085377
20
16.437302
42
0.035741
0
VERTEX
8
1
10
28.722286
20
16.627930
42
0.154097
0
VERTEX
8
1
10
28.344469
20
16.727715
42
-0.093238
0
SEQEND
0
ENDSEC
0
EOF
