0
SECTION
2
HEADER
9
$EXTMIN
10
2.048595
20
0.958126
9
$EXTMAX
10
38.546150
20
44.250820
0
ENDSEC
0
SECTION
2
TABLES
0
TABLE
2
LTYPE
70
1
0
LTYPE
2
0
70
0
3
Solid Line
72
65
73
0
40
0.0
0
ENDTAB
0
TABLE
2
LAYER
70
1
0
LAYER
2
1
70
0
62
7
6
0
0
ENDTAB
0
ENDSEC
0
SECTION
2
BLOCKS
0
ENDSEC
0
SECTION
2
ENTITIES
0
POLYLINE
8
1
66
1
70
1
0
VERTEX
8
1
10
36.031876
20
33.079540
42
0.835825
0
VERTEX
8
1
10
36.044132
20
33.187592
42
0.004882
0
VERTEX
8
1
10
33.485023
20
33.912960
42
-0.005876
0
VERTEX
8
1
10
31.963839
20
34.358574
42
0.058013
0
VERTEX
8
1
10
34.641232
20
33.966534
42
-0.031690
0
VERTEX
8
1
10
35.285770
20
33.899593
42
0.036754
0
VERTEX
8
1
10
35.753437
20
33.869381
0
VERTEX
8
1
10
35.781643
20
33.878353
42
0.195628
0
VERTEX
8
1
10
35.728924
20
33.947857
42
0.098542
0
VERTEX
8
1
10
35.427990
20
34.063702
42
-0.043316
0
VERTEX
8
1
10
32.282848
20
34.784466
0
VERTEX
8
1
10
32.317959
20
34.789089
42
0.019414
0
VERTEX
8
1
10
34.735172
20
34.742916
0
VERTEX
8
1
10
34.814037
20
34.751553
42
0.500831
0
VERTEX
8
1
10
34.816250
20
34.801720
42
0.147166
0
VERTEX
8
1
10
34.763023
20
34.828167
42
0.019368
0
VERTEX
8
1
10
34.414040
20
34.916134
0
VERTEX
8
1
10
32.967709
20
35.167583
0
VERTEX
8
1
10
32.910889
20
35.176434
42
0.199181
0
VERTEX
8
1
10
32.839607
20
35.126369
0
VERTEX
8
1
10
32.842918
20
35.118618
0
VERTEX
8
1
10
33.050888
20
34.921032
0
VERTEX
8
1
10
33.031193
20
34.919338
42
0.054075
0
VERTEX
8
1
10
31.757156
20
35.058514
0
VERTEX
8
1
10
31.712463
20
35.054470
42
-0.148007
0
VERTEX
8
1
10
31.943233
20
34.863987
42
-0.194285
0
VERTEX
8
1
10
31.952988
20
34.744549
0
VERTEX
8
1
10
31.933044
20
34.729061
42
-0.061643
0
VERTEX
8
1
10
31.279213
20
34.868481
0
VERTEX
8
1
10
31.254276
20
34.881390
42
-0.266321
0
VERTEX
8
1
10
31.453896
20
34.948788
42
0.005834
0
VERTEX
8
1
10
30.444357
20
35.258526
42
0.080558
0
VERTEX
8
1
10
30.037212
20
35.291088
42
-0.040000
0
VERTEX
8
1
10
29.871544
20
35.304398
42
-0.118638
0
VERTEX
8
1
10
29.742706
20
35.371349
0
VERTEX
8
1
10
29.731434
20
35.389538
0
VERTEX
8
1
10
30.075294
20
35.503231
0
VERTEX
8
1
10
30.086372
20
35.510799
0
VERTEX
8
1
10
29.620876
20
35.661678
0
VERTEX
8
1
10
29.603611
20
35.671673
42
-0.091949
0
VERTEX
8
1
10
30.204216
20
35.768856
42
-0.073862
0
VERTEX
8
1
10
29.016560
20
36.370037
42
0.030680
0
VERTEX
8
1
10
31.645433
20
35.897049
42
0.021716
0
VERTEX
8
1
10
32.210857
20
35.864346
0
VERTEX
8
1
10
32.343349
20
35.870480
0
VERTEX
8
1
10
32.442204
20
35.886608
0
VERTEX
8
1
10
32.503624
20
35.913479
0
VERTEX
8
1
10
32.436066
20
35.940060
42
-0.099029
0
VERTEX
8
1
10
30.557083
20
36.698666
42
0.050537
0
VERTEX
8
1
10
32.462051
20
36.457870
0
VERTEX
8
1
10
32.476620
20
36.455135
42
0.216690
0
VERTEX
8
1
10
32.560730
20
36.455639
42
0.008605
0
VERTEX
8
1
10
33.057259
20
36.464199
42
0.123372
0
VERTEX
8
1
10
33.684875
20
36.510586
0
VERTEX
8
1
10
33.642723
20
36.600109
0
VERTEX
8
1
10
33.627743
20
36.607693
42
-0.029787
0
VERTEX
8
1
10
31.779739
20
37.047878
42
-0.052433
0
VERTEX
8
1
10
30.433687
20
37.634960
42
-0.051448
0
VERTEX
8
1
10
29.661961
20
38.201977
0
VERTEX
8
1
10
29.670395
20
38.202419
0
VERTEX
8
1
10
31.117554
20
38.135433
0
VERTEX
8
1
10
31.182281
20
38.135448
0
VERTEX
8
1
10
31.235546
20
38.140820
0
VERTEX
8
1
10
31.258762
20
38.151928
0
VERTEX
8
1
10
31.254116
20
38.168499
0
VERTEX
8
1
10
31.223801
20
38.190228
0
VERTEX
8
1
10
31.170006
20
38.216900
42
0.020930
0
VERTEX
8
1
10
30.610794
20
38.417919
42
-0.008470
0
VERTEX
8
1
10
29.617128
20
38.774593
0
VERTEX
8
1
10
29.656487
20
38.771175
42
0.038186
0
VERTEX
8
1
10
26.797810
20
39.542141
0
VERTEX
8
1
10
26.772095
20
39.556805
42
-0.022831
0
VERTEX
8
1
10
27.147217
20
39.591290
42
0.028034
0
VERTEX
8
1
10
27.316681
20
39.618435
0
VERTEX
8
1
10
27.333313
20
39.627911
0
VERTEX
8
1
10
27.335720
20
39.639080
0
VERTEX
8
1
10
27.321884
20
39.652157
0
VERTEX
8
1
10
27.289787
20
39.667385
0
VERTEX
8
1
10
27.237411
20
39.685024
0
VERTEX
8
1
10
26.991970
20
39.787106
42
0.113220
0
VERTEX
8
1
10
21.523045
20
40.709499
0
VERTEX
8
1
10
21.439236
20
40.709103
42
0.066928
0
VERTEX
8
1
10
22.050732
20
40.953930
0
VERTEX
8
1
10
21.901876
20
40.990719
42
-0.021298
0
VERTEX
8
1
10
18.043713
20
41.885235
0
VERTEX
8
1
10
18.016314
20
41.908108
0
VERTEX
8
1
10
19.468250
20
41.884640
0
VERTEX
8
1
10
19.496178
20
41.886272
0
VERTEX
8
1
10
19.479404
20
41.894894
0
VERTEX
8
1
10
19.436684
20
41.921627
42
0.008415
0
VERTEX
8
1
10
18.957560
20
42.241421
42
0.024671
0
VERTEX
8
1
10
16.332863
20
42.973534
42
0.018613
0
VERTEX
8
1
10
15.241391
20
43.169895
0
VERTEX
8
1
10
15.167493
20
43.182819
0
VERTEX
8
1
10
15.093927
20
43.197521
0
VERTEX
8
1
10
15.108543
20
43.348583
42
0.010254
0
VERTEX
8
1
10
14.796015
20
43.518139
0
VERTEX
8
1
10
14.742311
20
43.518414
42
-0.008230
0
VERTEX
8
1
10
13.652262
20
43.491695
0
VERTEX
8
1
10
13.548773
20
43.361324
42
-0.044800
0
VERTEX
8
1
10
13.892776
20
43.145870
0
VERTEX
8
1
10
13.894129
20
43.128902
42
-0.176547
0
VERTEX
8
1
10
13.680955
20
43.044651
42
-0.073366
0
VERTEX
8
1
10
13.460287
20
43.057629
0
VERTEX
8
1
10
13.583832
20
42.844982
0
VERTEX
8
1
10
13.191618
20
42.914425
0
VERTEX
8
1
10
13.189701
20
42.914104
0
VERTEX
8
1
10
12.882895
20
42.578564
0
VERTEX
8
1
10
12.888748
20
43.005245
0
VERTEX
8
1
10
12.607088
20
43.101482
0
VERTEX
8
1
10
12.759287
20
43.202465
42
0.020567
0
VERTEX
8
1
10
11.780728
20
43.340603
0
VERTEX
8
1
10
11.715059
20
43.254192
0
VERTEX
8
1
10
11.904289
20
42.910748
0
VERTEX
8
1
10
11.507433
20
42.986629
0
VERTEX
8
1
10
11.200752
20
42.636822
0
VERTEX
8
1
10
11.206860
20
43.083065
0
VERTEX
8
1
10
10.919964
20
43.186855
0
VERTEX
8
1
10
11.206983
20
43.384838
42
0.021167
0
VERTEX
8
1
10
10.154147
20
43.396923
0
VERTEX
8
1
10
10.031939
20
43.228878
0
VERTEX
8
1
10
10.223129
20
42.867413
0
VERTEX
8
1
10
9.823246
20
42.948254
0
VERTEX
8
1
10
9.516939
20
42.583614
0
VERTEX
8
1
10
9.523170
20
43.049175
0
VERTEX
8
1
10
9.231661
20
43.159542
0
VERTEX
8
1
10
9.508424
20
43.358578
42
0.016048
0
VERTEX
8
1
10
8.844276
20
43.287029
0
VERTEX
8
1
10
9.261290
20
43.822247
42
0.101846
0
VERTEX
8
1
10
6.980399
20
43.916637
0
VERTEX
8
1
10
6.997127
20
43.935452
0
VERTEX
8
1
10
7.317688
20
44.250820
42
0.037506
0
VERTEX
8
1
10
4.916738
20
43.601627
42
0.033101
0
VERTEX
8
1
10
2.209427
20
42.463634
0
VERTEX
8
1
10
2.162313
20
42.368465
0
VERTEX
8
1
10
2.127966
20
42.267452
42
0.090003
0
VERTEX
8
1
10
2.057421
20
41.467339
42
0.041197
0
VERTEX
8
1
10
2.192277
20
40.593334
0
VERTEX
8
1
10
2.202453
20
40.593899
0
VERTEX
8
1
10
2.342853
20
40.783566
42
-0.205246
0
VERTEX
8
1
10
2.659725
20
38.637440
42
0.046065
0
VERTEX
8
1
10
2.599315
20
38.269749
42
0.149272
0
VERTEX
8
1
10
2.702591
20
37.905483
42
-0.004066
0
VERTEX
8
1
10
2.926359
20
37.574131
42
-0.133227
0
VERTEX
8
1
10
3.011425
20
37.243507
42
-0.136587
0
VERTEX
8
1
10
2.952191
20
37.080288
0
VERTEX
8
1
10
2.989802
20
37.083202
42
0.168771
0
VERTEX
8
1
10
3.681053
20
37.497845
0
VERTEX
8
1
10
3.684614
20
37.465420
42
0.128276
0
VERTEX
8
1
10
3.856139
20
36.594116
42
-0.061280
0
VERTEX
8
1
10
3.903831
20
36.418846
42
-0.201630
0
VERTEX
8
1
10
3.842355
20
36.249477
0
VERTEX
8
1
10
4.072344
20
36.266140
0
VERTEX
8
1
10
3.804076
20
35.825191
0
VERTEX
8
1
10
4.000823
20
35.393795
0
VERTEX
8
1
10
3.589320
20
35.479397
0
VERTEX
8
1
10
3.442293
20
35.271221
42
0.051851
0
VERTEX
8
1
10
3.543181
20
34.812466
0
VERTEX
8
1
10
3.572961
20
34.715496
0
VERTEX
8
1
10
3.603173
20
34.618664
42
-0.043692
0
VERTEX
8
1
10
3.744024
20
34.050755
42
-0.096634
0
VERTEX
8
1
10
3.709211
20
33.561504
0
VERTEX
8
1
10
4.345562
20
33.403561
42
0.047992
0
VERTEX
8
1
10
4.081059
20
33.059513
42
0.091573
0
VERTEX
8
1
10
3.959468
20
32.736912
42
0.198003
0
VERTEX
8
1
10
4.055987
20
32.380310
42
0.064914
0
VERTEX
8
1
10
4.192029
20
32.233822
0
VERTEX
8
1
10
4.234589
20
32.238979
42
-0.020633
0
VERTEX
8
1
10
5.291427
20
32.476727
0
VERTEX
8
1
10
5.306218
20
32.487286
0
VERTEX
8
1
10
4.866412
20
32.625805
0
VERTEX
8
1
10
4.904169
20
32.646008
42
-0.044513
0
VERTEX
8
1
10
5.869695
20
32.836300
42
0.002242
0
VERTEX
8
1
10
6.506378
20
32.925762
0
VERTEX
8
1
10
6.553446
20
32.947418
42
-0.032865
0
VERTEX
8
1
10
6.419759
20
34.900356
0
VERTEX
8
1
10
6.219880
20
34.943066
0
VERTEX
8
1
10
5.902811
20
34.541988
0
VERTEX
8
1
10
5.926997
20
35.050381
0
VERTEX
8
1
10
5.633264
20
35.171688
0
VERTEX
8
1
10
5.632864
20
35.172649
0
VERTEX
8
1
10
6.026227
20
35.482418
0
VERTEX
8
1
10
6.091932
20
35.951458
0
VERTEX
8
1
10
6.307403
20
35.649837
0
VERTEX
8
1
10
6.418915
20
35.655926
0
VERTEX
8
1
10
6.403775
20
35.744152
42
-0.141605
0
VERTEX
8
1
10
6.457465
20
36.185436
0
VERTEX
8
1
10
6.462583
20
36.205685
0
VERTEX
8
1
10
6.420391
20
36.610058
0
VERTEX
8
1
10
6.405230
20
36.624096
42
-0.035077
0
VERTEX
8
1
10
5.529989
20
36.486309
0
VERTEX
8
1
10
5.690348
20
36.145947
0
VERTEX
8
1
10
5.281518
20
36.233059
0
VERTEX
8
1
10
4.977682
20
35.820980
0
VERTEX
8
1
10
4.983813
20
36.342281
0
VERTEX
8
1
10
4.681551
20
36.466442
0
VERTEX
8
1
10
4.685945
20
36.470058
0
VERTEX
8
1
10
4.607847
20
36.474529
0
VERTEX
8
1
10
4.606557
20
36.477749
42
-0.050456
0
VERTEX
8
1
10
5.073496
20
36.850124
0
VERTEX
8
1
10
5.115016
20
37.262432
0
VERTEX
8
1
10
5.312521
20
36.994762
0
VERTEX
8
1
10
5.315410
20
36.993008
42
-0.020430
0
VERTEX
8
1
10
5.625356
20
37.142559
42
-0.217191
0
VERTEX
8
1
10
5.409232
20
37.443974
42
-0.089945
0
VERTEX
8
1
10
5.392927
20
37.716198
42
-0.018725
0
VERTEX
8
1
10
5.428464
20
38.063839
0
VERTEX
8
1
10
5.385239
20
38.083767
0
VERTEX
8
1
10
5.439748
20
38.124172
42
-0.114339
0
VERTEX
8
1
10
5.593908
20
38.475845
42
-0.138586
0
VERTEX
8
1
10
5.835118
20
38.640911
0
VERTEX
8
1
10
5.871510
20
38.847652
0
VERTEX
8
1
10
5.995008
20
38.659756
42
-0.053417
0
VERTEX
8
1
10
6.120411
20
38.636578
0
VERTEX
8
1
10
6.167425
20
38.609249
0
VERTEX
8
1
10
6.165238
20
38.694836
0
VERTEX
8
1
10
6.135949
20
39.005276
42
-0.099181
0
VERTEX
8
1
10
5.355698
20
38.900585
42
-0.105795
0
VERTEX
8
1
10
4.958125
20
39.014141
0
VERTEX
8
1
10
4.755927
20
38.758953
0
VERTEX
8
1
10
4.775520
20
39.175030
42
-0.062433
0
VERTEX
8
1
10
4.691267
20
39.321224
0
VERTEX
8
1
10
4.483330
20
39.416332
0
VERTEX
8
1
10
4.643401
20
39.539379
42
-0.061063
0
VERTEX
8
1
10
4.663906
20
39.825832
0
VERTEX
8
1
10
4.699517
20
40.002132
42
-0.010564
0
VERTEX
8
1
10
4.637276
20
40.174145
0
VERTEX
8
1
10
4.631229
20
40.177227
42
-0.037919
0
VERTEX
8
1
10
4.508498
20
40.140133
0
VERTEX
8
1
10
4.553051
20
40.036129
0
VERTEX
8
1
10
4.145307
20
40.123333
0
VERTEX
8
1
10
4.143496
20
40.122280
0
VERTEX
8
1
10
3.829430
20
39.706860
0
VERTEX
8
1
10
3.828782
20
39.707409
0
VERTEX
8
1
10
3.853338
20
40.230831
0
VERTEX
8
1
10
3.852613
20
40.232449
0
VERTEX
8
1
10
3.556024
20
40.357098
0
VERTEX
8
1
10
3.556214
20
40.358227
0
VERTEX
8
1
10
3.951258
20
40.682537
0
VERTEX
8
1
10
3.952526
20
40.684551
0
VERTEX
8
1
10
4.018267
20
41.169872
0
VERTEX
8
1
10
4.233403
20
40.860271
0
VERTEX
8
1
10
4.496626
20
40.876873
42
-0.034353
0
VERTEX
8
1
10
4.503520
20
41.162426
42
-0.092389
0
VERTEX
8
1
10
4.811192
20
41.964367
0
VERTEX
8
1
10
4.759422
20
41.975430
0
VERTEX
8
1
10
4.455217
20
41.563519
0
VERTEX
8
1
10
4.461163
20
42.084591
0
VERTEX
8
1
10
4.159370
20
42.208889
0
VERTEX
8
1
10
4.544526
20
42.527615
0
VERTEX
8
1
10
4.592654
20
43.004498
0
VERTEX
8
1
10
4.818592
20
42.698605
0
VERTEX
8
1
10
5.239790
20
42.722332
0
VERTEX
8
1
10
4.972455
20
42.302837
0
VERTEX
8
1
10
5.003213
20
42.237621
0
VERTEX
8
1
10
5.038091
20
42.279709
42
-0.112150
0
VERTEX
8
1
10
6.251590
20
43.167553
0
VERTEX
8
1
10
6.281386
20
43.451748
0
VERTEX
8
1
10
6.438062
20
43.246120
0
VERTEX
8
1
10
6.441118
20
43.245098
42
-0.172705
0
VERTEX
8
1
10
7.902592
20
43.317928
0
VERTEX
8
1
10
7.920716
20
43.331524
0
VERTEX
8
1
10
7.968963
20
43.772671
0
VERTEX
8
1
10
8.196033
20
43.484844
0
VERTEX
8
1
10
8.611982
20
43.500469
0
VERTEX
8
1
10
8.348856
20
43.123013
0
VERTEX
8
1
10
8.394949
20
43.095768
0
VERTEX
8
1
10
8.440473
20
43.067581
42
-0.108531
0
VERTEX
8
1
10
9.393814
20
42.084866
0
VERTEX
8
1
10
9.527308
20
42.090450
0
VERTEX
8
1
10
9.451307
20
41.988903
42
-0.029724
0
VERTEX
8
1
10
9.628120
20
41.643642
42
-0.097064
0
VERTEX
8
1
10
9.632650
20
40.698616
42
-0.180036
0
VERTEX
8
1
10
8.978479
20
39.667751
42
-0.079041
0
VERTEX
8
1
10
8.438807
20
39.368771
0
VERTEX
8
1
10
8.388969
20
39.213024
0
VERTEX
8
1
10
8.443811
20
38.681347
0
VERTEX
8
1
10
8.442509
20
38.680508
0
VERTEX
8
1
10
8.122990
20
38.639233
0
VERTEX
8
1
10
8.059671
20
39.247768
0
VERTEX
8
1
10
8.185217
20
39.641323
42
0.139562
0
VERTEX
8
1
10
8.972311
20
40.104443
0
VERTEX
8
1
10
9.074907
20
40.228893
0
VERTEX
8
1
10
9.166857
20
40.372478
0
VERTEX
8
1
10
9.244402
20
40.536434
0
VERTEX
8
1
10
9.303782
20
40.721981
0
VERTEX
8
1
10
9.341236
20
40.930340
0
VERTEX
8
1
10
9.353006
20
41.162762
0
VERTEX
8
1
10
9.335329
20
41.420437
0
VERTEX
8
1
10
9.288715
20
41.603283
42
0.098302
0
VERTEX
8
1
10
8.562618
20
42.563965
42
0.076604
0
VERTEX
8
1
10
7.992291
20
42.927959
0
VERTEX
8
1
10
7.807142
20
42.995266
0
VERTEX
8
1
10
7.611147
20
43.042599
0
VERTEX
8
1
10
7.404393
20
43.067394
0
VERTEX
8
1
10
7.186965
20
43.067074
0
VERTEX
8
1
10
6.958947
20
43.039074
0
VERTEX
8
1
10
6.783679
20
42.996914
42
0.121209
0
VERTEX
8
1
10
5.443815
20
42.205349
42
0.108714
0
VERTEX
8
1
10
4.931654
20
41.396053
0
VERTEX
8
1
10
4.877048
20
41.209515
0
VERTEX
8
1
10
4.853699
20
41.074780
0
VERTEX
8
1
10
4.851727
20
41.019260
0
VERTEX
8
1
10
4.851463
20
40.963703
0
VERTEX
8
1
10
4.852907
20
40.908169
42
0.085160
0
VERTEX
8
1
10
5.052818
20
40.079082
42
-0.123428
0
VERTEX
8
1
10
5.056126
20
39.980038
42
0.015053
0
VERTEX
8
1
10
4.998345
20
39.644291
42
0.133077
0
VERTEX
8
1
10
5.036745
20
39.420677
42
0.143426
0
VERTEX
8
1
10
5.148053
20
39.308651
0
VERTEX
8
1
10
5.212183
20
39.279079
42
0.128627
0
VERTEX
8
1
10
5.760665
20
39.259102
42
0.065013
0
VERTEX
8
1
10
6.397701
20
39.465359
0
VERTEX
8
1
10
6.415052
20
39.456692
42
0.021797
0
VERTEX
8
1
10
6.477252
20
39.171078
0
VERTEX
8
1
10
6.519542
20
38.735973
0
VERTEX
8
1
10
6.525192
20
38.586727
42
0.173680
0
VERTEX
8
1
10
6.559199
20
38.393246
0
VERTEX
8
1
10
6.697754
20
38.425137
42
0.102671
0
VERTEX
8
1
10
7.062708
20
38.492229
42
0.083674
0
VERTEX
8
1
10
7.199008
20
38.586224
0
VERTEX
8
1
10
7.222778
20
38.598370
42
-0.005700
0
VERTEX
8
1
10
7.406995
20
37.975857
42
-0.042411
0
VERTEX
8
1
10
7.323197
20
37.735332
42
-0.060015
0
VERTEX
8
1
10
7.243499
20
37.617321
0
VERTEX
8
1
10
7.218420
20
37.597454
42
-0.276816
0
VERTEX
8
1
10
7.135454
20
37.591534
42
0.014880
0
VERTEX
8
1
10
6.787829
20
37.827824
42
0.007914
0
VERTEX
8
1
10
6.005919
20
38.318798
42
0.222753
0
VERTEX
8
1
10
5.905457
20
38.288734
42
0.148887
0
VERTEX
8
1
10
5.828919
20
38.182766
42
0.076738
0
VERTEX
8
1
10
5.775608
20
37.979610
0
VERTEX
8
1
10
5.753906
20
37.787075
42
0.046524
0
VERTEX
8
1
10
5.747289
20
37.562267
42
0.105224
0
VERTEX
8
1
10
5.779914
20
37.463947
42
0.273519
0
VERTEX
8
1
10
5.877589
20
37.425438
42
0.094147
0
VERTEX
8
1
10
6.011948
20
37.457302
42
-0.108102
0
VERTEX
8
1
10
6.138010
20
37.422565
42
-0.063443
0
VERTEX
8
1
10
6.374313
20
37.274792
42
0.140710
0
VERTEX
8
1
10
6.422114
20
37.106598
42
0.347154
0
VERTEX
8
1
10
6.492671
20
37.098660
42
0.056763
0
VERTEX
8
1
10
6.575464
20
37.169613
42
-0.281232
0
VERTEX
8
1
10
6.740705
20
36.994640
42
0.001478
0
VERTEX
8
1
10
6.829548
20
36.122734
42
0.165802
0
VERTEX
8
1
10
6.752975
20
35.909843
42
0.085989
0
VERTEX
8
1
10
6.774148
20
35.698330
42
0.014485
0
VERTEX
8
1
10
6.804263
20
34.015488
42
0.020030
0
VERTEX
8
1
10
6.889266
20
33.144287
0
VERTEX
8
1
10
6.911306
20
32.950340
0
VERTEX
8
1
10
6.932376
20
32.756283
42
0.003220
0
VERTEX
8
1
10
6.883541
20
32.210457
42
0.245608
0
VERTEX
8
1
10
6.766344
20
31.988277
0
VERTEX
8
1
10
6.776653
20
31.254986
42
0.217869
0
VERTEX
8
1
10
6.872794
20
31.028416
42
0.123946
0
VERTEX
8
1
10
6.964539
20
30.987972
42
0.013377
0
VERTEX
8
1
10
7.004919
20
30.788219
42
0.269390
0
VERTEX
8
1
10
6.876002
20
30.553661
0
VERTEX
8
1
10
6.899786
20
29.839077
42
1.008556
0
VERTEX
8
1
10
7.427685
20
29.842983
0
VERTEX
8
1
10
7.403886
20
30.559093
42
0.336268
0
VERTEX
8
1
10
7.211852
20
30.814373
0
VERTEX
8
1
10
7.207637
20
30.827969
42
0.012679
0
VERTEX
8
1
10
7.192430
20
31.221544
0
VERTEX
8
1
10
7.193076
20
31.235317
0
VERTEX
8
1
10
7.182885
20
31.963726
42
0.174755
0
VERTEX
8
1
10
7.118820
20
32.161114
42
-0.001247
0
VERTEX
8
1
10
7.058394
20
32.761257
0
VERTEX
8
1
10
7.150626
20
33.770931
42
0.018866
0
VERTEX
8
1
10
7.214664
20
34.823421
0
VERTEX
8
1
10
7.217620
20
34.847149
42
0.051960
0
VERTEX
8
1
10
7.312772
20
34.886822
0
VERTEX
8
1
10
7.329528
20
34.888683
0
VERTEX
8
1
10
7.453767
20
34.892818
0
VERTEX
8
1
10
7.568682
20
34.785717
0
VERTEX
8
1
10
7.736032
20
34.763317
0
VERTEX
8
1
10
7.628390
20
34.676495
0
VERTEX
8
1
10
7.747170
20
34.429958
0
VERTEX
8
1
10
7.610930
20
34.370144
0
VERTEX
8
1
10
7.965163
20
29.573299
0
VERTEX
8
1
10
8.163044
20
29.441662
42
0.248486
0
VERTEX
8
1
10
8.105394
20
29.398985
42
0.158302
0
VERTEX
8
1
10
8.084890
20
29.313808
0
VERTEX
8
1
10
8.086899
20
29.244305
42
0.114310
0
VERTEX
8
1
10
7.966470
20
29.073162
42
0.394682
0
VERTEX
8
1
10
8.008833
20
28.971035
42
0.086099
0
VERTEX
8
1
10
8.293165
20
28.862103
0
VERTEX
8
1
10
7.095689
20
28.961040
42
0.189044
0
VERTEX
8
1
10
6.890411
20
29.037762
0
VERTEX
8
1
10
6.868431
20
29.039593
42
-0.042674
0
VERTEX
8
1
10
6.626203
20
29.121113
0
VERTEX
8
1
10
6.588773
20
29.132965
42
0.091861
0
VERTEX
8
1
10
6.387043
20
29.159000
42
0.104042
0
VERTEX
8
1
10
6.043768
20
29.073437
42
0.231448
0
VERTEX
8
1
10
5.874503
20
28.823488
42
0.079747
0
VERTEX
8
1
10
5.861989
20
28.448116
0
VERTEX
8
1
10
5.815553
20
28.230465
0
VERTEX
8
1
10
5.791984
20
28.057125
0
VERTEX
8
1
10
5.741292
20
27.916317
0
VERTEX
8
1
10
5.747383
20
27.720959
0
VERTEX
8
1
10
5.669356
20
27.580517
42
-0.037366
0
VERTEX
8
1
10
5.568770
20
27.242535
42
0.086262
0
VERTEX
8
1
10
5.467987
20
27.086498
0
VERTEX
8
1
10
5.438592
20
26.989132
42
0.012099
0
VERTEX
8
1
10
5.044493
20
26.651848
0
VERTEX
8
1
10
4.985678
20
26.602795
0
VERTEX
8
1
10
4.925831
20
26.555004
0
VERTEX
8
1
10
4.830236
20
26.522274
42
-0.309985
0
VERTEX
8
1
10
4.744301
20
26.663296
42
-0.083665
0
VERTEX
8
1
10
4.798337
20
26.901821
0
VERTEX
8
1
10
4.942673
20
27.030453
0
VERTEX
8
1
10
5.125698
20
27.183666
42
-0.083454
0
VERTEX
8
1
10
5.251897
20
27.412624
0
VERTEX
8
1
10
5.276771
20
27.479443
0
VERTEX
8
1
10
5.333564
20
27.705227
0
VERTEX
8
1
10
5.388247
20
27.803722
0
VERTEX
8
1
10
5.382773
20
27.969326
0
VERTEX
8
1
10
5.442487
20
28.134441
0
VERTEX
8
1
10
5.461667
20
28.274456
0
VERTEX
8
1
10
5.500556
20
28.458172
42
-0.080590
0
VERTEX
8
1
10
5.547484
20
28.985098
42
-0.237966
0
VERTEX
8
1
10
5.975324
20
29.421539
42
-0.128452
0
VERTEX
8
1
10
6.555171
20
29.487747
42
-0.037216
0
VERTEX
8
1
10
6.674121
20
29.457119
0
VERTEX
8
1
10
6.671437
20
29.465816
42
-0.155090
0
VERTEX
8
1
10
6.544544
20
29.808224
0
VERTEX
8
1
10
6.521422
20
30.499889
42
-0.028556
0
VERTEX
8
1
10
6.520707
20
30.589275
42
-0.057528
0
VERTEX
8
1
10
6.445702
20
30.685925
0
VERTEX
8
1
10
6.447742
20
30.692745
0
VERTEX
8
1
10
6.575428
20
30.812740
0
VERTEX
8
1
10
6.580594
20
30.824291
42
-0.173319
0
VERTEX
8
1
10
6.421054
20
31.226498
0
VERTEX
8
1
10
6.410221
20
31.946758
42
-0.173078
0
VERTEX
8
1
10
6.539210
20
32.366222
0
VERTEX
8
1
10
6.545068
20
32.432796
0
VERTEX
8
1
10
6.498939
20
32.425777
0
VERTEX
8
1
10
4.504362
20
32.009060
0
VERTEX
8
1
10
4.425075
20
31.989315
42
-0.099545
0
VERTEX
8
1
10
4.481670
20
31.848827
0
VERTEX
8
1
10
4.500110
20
31.838406
42
-0.354838
0
VERTEX
8
1
10
4.964040
20
31.190426
42
-0.078521
0
VERTEX
8
1
10
4.886841
20
30.925426
0
VERTEX
8
1
10
4.191876
20
29.416561
42
0.034685
0
VERTEX
8
1
10
3.837622
20
28.514311
42
0.073448
0
VERTEX
8
1
10
3.721579
20
27.687801
0
VERTEX
8
1
10
3.732622
20
27.601742
42
-0.143282
0
VERTEX
8
1
10
4.044774
20
27.741512
42
-0.165589
0
VERTEX
8
1
10
4.172375
20
27.707088
42
-0.257140
0
VERTEX
8
1
10
4.223778
20
27.536312
0
VERTEX
8
1
10
4.093583
20
26.741268
0
VERTEX
8
1
10
3.761907
20
26.133205
0
VERTEX
8
1
10
3.753240
20
26.128841
42
0.053798
0
VERTEX
8
1
10
3.240272
20
26.099194
42
0.196478
0
VERTEX
8
1
10
3.123780
20
26.016582
42
0.056036
0
VERTEX
8
1
10
2.925725
20
25.653683
0
VERTEX
8
1
10
2.860940
20
25.095682
42
0.007940
0
VERTEX
8
1
10
3.525619
20
24.951702
0
VERTEX
8
1
10
3.474921
20
24.614635
42
-0.126538
0
VERTEX
8
1
10
3.212883
20
24.131496
42
-0.277671
0
VERTEX
8
1
10
3.204840
20
23.705074
42
-0.056197
0
VERTEX
8
1
10
3.506307
20
23.738468
0
VERTEX
8
1
10
3.547166
20
23.736134
42
-0.286463
0
VERTEX
8
1
10
3.909858
20
23.505274
42
-0.148982
0
VERTEX
8
1
10
3.923435
20
23.350033
0
VERTEX
8
1
10
3.928563
20
23.341625
0
VERTEX
8
1
10
3.951744
20
23.343349
42
0.033185
0
VERTEX
8
1
10
4.335448
20
23.489590
42
0.008199
0
VERTEX
8
1
10
5.907600
20
24.215403
0
VERTEX
8
1
10
5.914059
20
24.223080
0
VERTEX
8
1
10
5.770023
20
24.234676
0
VERTEX
8
1
10
6.566897
20
24.548153
42
0.058936
0
VERTEX
8
1
10
7.284489
20
24.643871
42
0.020423
0
VERTEX
8
1
10
7.475912
20
24.704693
42
-0.149290
0
VERTEX
8
1
10
8.084957
20
24.716951
42
0.050399
0
VERTEX
8
1
10
8.177225
20
24.710552
42
0.030991
0
VERTEX
8
1
10
8.791697
20
24.765041
42
0.010173
0
VERTEX
8
1
10
8.721807
20
25.551647
0
VERTEX
8
1
10
8.723406
20
25.562725
0
VERTEX
8
1
10
9.163580
20
25.829967
0
VERTEX
8
1
10
9.164972
20
25.795574
42
-0.004645
0
VERTEX
8
1
10
10.656494
20
26.521067
42
0.038670
0
VERTEX
8
1
10
11.104027
20
26.969326
0
VERTEX
8
1
10
11.069889
20
26.965923
0
VERTEX
8
1
10
10.060993
20
26.664822
0
VERTEX
8
1
10
10.128960
20
26.730480
0
VERTEX
8
1
10
10.071122
20
27.053066
42
-0.039012
0
VERTEX
8
1
10
12.213215
20
27.862957
0
VERTEX
8
1
10
12.297123
20
27.894650
42
0.078858
0
VERTEX
8
1
10
13.015524
20
28.449017
0
VERTEX
8
1
10
12.959240
20
28.469463
0
VERTEX
8
1
10
10.900051
20
28.538448
0
VERTEX
8
1
10
10.839113
20
28.572201
42
-0.200223
0
VERTEX
8
1
10
10.929010
20
28.810545
42
-0.102992
0
VERTEX
8
1
10
11.099533
20
28.942715
42
-0.075308
0
VERTEX
8
1
10
11.486082
20
29.081020
42
0.034997
0
VERTEX
8
1
10
14.566445
20
29.803234
0
VERTEX
8
1
10
14.625727
20
29.844433
42
0.042831
0
VERTEX
8
1
10
13.645985
20
30.187328
0
VERTEX
8
1
10
13.632074
20
30.216625
42
-0.129186
0
VERTEX
8
1
10
13.953938
20
30.392727
42
0.010959
0
VERTEX
8
1
10
14.410770
20
30.507931
42
0.185733
0
VERTEX
8
1
10
14.862041
20
30.889326
42
0.074259
0
VERTEX
8
1
10
14.993742
20
31.219238
42
0.044954
0
VERTEX
8
1
10
15.085972
20
31.750256
0
VERTEX
8
1
10
15.101358
20
31.771206
0
VERTEX
8
1
10
15.498928
20
30.814541
0
VERTEX
8
1
10
15.592110
20
30.790462
42
-0.080020
0
VERTEX
8
1
10
18.663498
20
30.717693
0
VERTEX
8
1
10
18.747938
20
30.689739
0
VERTEX
8
1
10
17.462923
20
30.454510
0
VERTEX
8
1
10
17.416357
20
30.424358
0
VERTEX
8
1
10
17.433456
20
30.369839
0
VERTEX
8
1
10
17.457853
20
30.318966
42
0.334730
0
VERTEX
8
1
10
18.052271
20
30.089809
0
VERTEX
8
1
10
18.104591
20
30.110714
0
VERTEX
8
1
10
18.166883
20
30.147213
42
-0.114117
0
VERTEX
8
1
10
17.234648
20
29.682064
0
VERTEX
8
1
10
17.300394
20
29.646969
0
VERTEX
8
1
10
17.650175
20
29.573528
42
0.033351
0
VERTEX
8
1
10
20.513977
20
29.229881
42
0.013919
0
VERTEX
8
1
10
21.042934
20
29.223080
0
VERTEX
8
1
10
21.162186
20
29.232204
0
VERTEX
8
1
10
21.225273
20
29.248074
0
VERTEX
8
1
10
21.226505
20
29.270641
0
VERTEX
8
1
10
21.160198
20
29.299908
0
VERTEX
8
1
10
21.134842
20
29.343014
0
VERTEX
8
1
10
21.269423
20
29.381277
42
-0.072803
0
VERTEX
8
1
10
23.878742
20
29.703011
42
-0.022852
0
VERTEX
8
1
10
25.585480
20
29.584438
0
VERTEX
8
1
10
25.580540
20
29.597866
42
0.239670
0
VERTEX
8
1
10
25.458359
20
29.675091
0
VERTEX
8
1
10
25.427570
20
29.680889
0
VERTEX
8
1
10
25.396545
20
29.685253
42
-0.170950
0
VERTEX
8
1
10
25.101654
20
29.798306
42
0.037785
0
VERTEX
8
1
10
24.833418
20
30.005552
42
0.157293
0
VERTEX
8
1
10
24.617418
20
30.045307
42
0.007955
0
VERTEX
8
1
10
24.431416
20
30.023735
42
-0.232991
0
VERTEX
8
1
10
24.216309
20
30.119259
0
VERTEX
8
1
10
24.123356
20
30.226116
42
0.166255
0
VERTEX
8
1
10
23.894962
20
30.362072
0
VERTEX
8
1
10
23.861656
20
30.372143
42
-0.388298
0
VERTEX
8
1
10
23.593784
20
30.774761
0
VERTEX
8
1
10
23.609322
20
30.797695
42
-0.029578
0
VERTEX
8
1
10
25.053967
20
30.710583
42
-0.001619
0
VERTEX
8
1
10
27.793385
20
30.320484
42
0.068890
0
VERTEX
8
1
10
27.047192
20
30.773127
42
0.169653
0
VERTEX
8
1
10
26.870491
20
30.776409
42
-0.295735
0
VERTEX
8
1
10
26.071854
20
31.003109
0
VERTEX
8
1
10
26.073490
20
31.010555
0
VERTEX
8
1
10
26.131653
20
31.101332
42
0.001882
0
VERTEX
8
1
10
25.139414
20
31.668655
42
0.087367
0
VERTEX
8
1
10
24.839430
20
31.763845
42
-0.014628
0
VERTEX
8
1
10
24.606314
20
31.807133
0
VERTEX
8
1
10
24.571390
20
31.818274
42
-0.196791
0
VERTEX
8
1
10
24.389362
20
31.956234
0
VERTEX
8
1
10
24.399033
20
31.958874
42
0.182112
0
VERTEX
8
1
10
24.622746
20
32.006298
0
VERTEX
8
1
10
24.606541
20
32.026119
42
0.178399
0
VERTEX
8
1
10
24.158092
20
32.223568
0
VERTEX
8
1
10
24.168190
20
32.237331
42
-0.139560
0
VERTEX
8
1
10
24.327782
20
32.296844
42
-0.067664
0
VERTEX
8
1
10
24.503925
20
32.296963
42
-0.000866
0
VERTEX
8
1
10
25.845007
20
32.101147
42
-0.119630
0
VERTEX
8
1
10
26.271116
20
31.915903
42
0.035354
0
VERTEX
8
1
10
26.550758
20
31.746988
42
0.148491
0
VERTEX
8
1
10
26.939400
20
31.702618
0
VERTEX
8
1
10
27.168121
20
31.735638
42
-0.092691
0
VERTEX
8
1
10
27.444225
20
31.731457
42
-0.062539
0
VERTEX
8
1
10
27.726772
20
31.608135
0
VERTEX
8
1
10
27.770771
20
31.586864
42
0.141465
0
VERTEX
8
1
10
28.052189
20
31.524563
42
0.035449
0
VERTEX
8
1
10
28.381691
20
31.599604
42
-0.166339
0
VERTEX
8
1
10
28.757818
20
31.558157
42
-0.046320
0
VERTEX
8
1
10
28.929573
20
31.465221
0
VERTEX
8
1
10
29.133377
20
31.331219
42
0.123185
0
VERTEX
8
1
10
29.559099
20
31.166563
42
-0.012448
0
VERTEX
8
1
10
29.836208
20
31.124952
42
-0.143444
0
VERTEX
8
1
10
30.064175
20
30.989058
42
-0.126197
0
VERTEX
8
1
10
30.120499
20
30.864697
0
VERTEX
8
1
10
30.115616
20
30.854412
0
VERTEX
8
1
10
29.947544
20
30.848721
0
VERTEX
8
1
10
29.942364
20
30.846676
42
0.085951
0
VERTEX
8
1
10
29.935986
20
30.791729
42
0.018992
0
VERTEX
8
1
10
31.079645
20
30.617794
42
0.026137
0
VERTEX
8
1
10
31.556759
20
30.595896
42
0.063770
0
VERTEX
8
1
10
31.722004
20
30.626995
0
VERTEX
8
1
10
31.750832
20
30.644039
0
VERTEX
8
1
10
31.731888
20
30.668468
42
-0.033513
0
VERTEX
8
1
10
30.888203
20
31.186642
0
VERTEX
8
1
10
30.868103
20
31.204159
42
0.078132
0
VERTEX
8
1
10
35.494411
20
31.365993
42
0.076404
0
VERTEX
8
1
10
35.623604
20
31.439419
42
0.616814
0
VERTEX
8
1
10
35.576405
20
31.548380
0
VERTEX
8
1
10
35.258503
20
31.565258
42
-0.030200
0
VERTEX
8
1
10
33.726368
20
31.733021
42
-0.039971
0
VERTEX
8
1
10
32.830486
20
31.976925
0
VERTEX
8
1
10
32.833893
20
31.981363
42
-0.025962
0
VERTEX
8
1
10
35.364246
20
32.042984
42
0.089518
0
VERTEX
8
1
10
35.469837
20
32.062866
42
0.513445
0
VERTEX
8
1
10
35.470551
20
32.087906
42
0.162945
0
VERTEX
8
1
10
35.432789
20
32.110821
0
VERTEX
8
1
10
34.746284
20
32.258873
42
-0.012281
0
VERTEX
8
1
10
32.825642
20
32.723587
42
-0.022412
0
VERTEX
8
1
10
31.078117
20
33.291286
0
VERTEX
8
1
10
31.020901
20
33.333584
0
VERTEX
8
1
10
35.322262
20
33.099087
42
0.004838
0
SEQEND
0
POLYLINE
8
1
66
1
70
1
0
VERTEX
8
1
10
2.464454
20
41.456890
0
VERTEX
8
1
10
2.853025
20
41.795315
0
VERTEX
8
1
10
2.901066
20
42.291821
0
VERTEX
8
1
10
3.126509
20
41.977749
0
VERTEX
8
1
10
3.550066
20
42.008389
0
VERTEX
8
1
10
3.281390
20
41.567074
0
VERTEX
8
1
10
3.478568
20
41.135601
0
VERTEX
8
1
10
3.066431
20
41.221737
0
VERTEX
8
1
10
2.763506
20
40.791317
0
VERTEX
8
1
10
2.769712
20
41.330791
0
SEQEND
0
POLYLINE
8
1
66
1
70
1
0
VERTEX
8
1
10
4.755362
20
35.118023
0
VERTEX
8
1
10
5.175154
20
35.144512
0
VERTEX
8
1
10
4.893796
20
34.718197
0
VERTEX
8
1
10
5.075606
20
34.293713
0
VERTEX
8
1
10
4.666929
20
34.381313
0
VERTEX
8
1
10
4.351180
20
33.963711
0
VERTEX
8
1
10
4.375879
20
34.489849
0
VERTEX
8
1
10
4.077702
20
34.615215
0
VERTEX
8
1
10
4.474817
20
34.941235
0
VERTEX
8
1
10
4.540260
20
35.428341
0
SEQEND
0
POLYLINE
8
1
66
1
70
1
0
VERTEX
8
1
10
4.223304
20
37.897579
0
VERTEX
8
1
10
4.305560
20
38.382336
0
VERTEX
8
1
10
4.508698
20
38.063549
0
VERTEX
8
1
10
4.928648
20
38.073940
0
VERTEX
8
1
10
4.632667
20
37.656872
0
VERTEX
8
1
10
4.798602
20
37.223995
0
VERTEX
8
1
10
4.394725
20
37.327862
0
VERTEX
8
1
10
4.065671
20
36.921368
0
VERTEX
8
1
10
4.108735
20
37.448345
0
VERTEX
8
1
10
3.815589
20
37.586269
0
SEQEND
0
POLYLINE
8
1
66
1
70
1
0
VERTEX
8
1
10
3.868616
20
39.240200
0
VERTEX
8
1
10
3.584863
20
38.808910
0
VERTEX
8
1
10
3.766301
20
38.369244
0
VERTEX
8
1
10
3.358728
20
38.472103
0
VERTEX
8
1
10
3.041853
20
38.053219
0
VERTEX
8
1
10
3.066539
20
38.593578
0
VERTEX
8
1
10
2.766104
20
38.732632
0
VERTEX
8
1
10
3.165565
20
39.055477
0
VERTEX
8
1
10
3.230527
20
39.549358
0
VERTEX
8
1
10
3.444435
20
39.226528
0
SEQEND
0
POLYLINE
8
1
66
1
70
1
0
VERTEX
8
1
10
7.112662
20
38.770779
42
-0.124785
0
VERTEX
8
1
10
7.020312
20
38.741665
0
VERTEX
8
1
10
6.838007
20
39.233379
0
VERTEX
8
1
10
6.797348
20
39.595608
0
VERTEX
8
1
10
6.906662
20
39.654629
42
-0.013969
0
VERTEX
8
1
10
7.130741
20
38.974800
42
-0.027946
0
VERTEX
8
1
10
7.155924
20
38.853832
42
-0.257308
0
SEQEND
0
POLYLINE
8
1
66
1
70
1
0
VERTEX
8
1
10
6.949885
20
36.682613
0
VERTEX
8
1
10
6.949404
20
36.702557
42
-0.179257
0
VERTEX
8
1
10
6.999518
20
36.867199
42
-0.215710
0
VERTEX
8
1
10
7.108622
20
36.922939
42
-0.112000
0
VERTEX
8
1
10
7.220124
20
36.913937
0
VERTEX
8
1
10
7.224749
20
36.775127
42
0.119846
0
VERTEX
8
1
10
7.027872
20
36.746067
42
0.109841
0
SEQEND
0
POLYLINE
8
1
66
1
70
1
0
VERTEX
8
1
10
7.077638
20
34.466228
42
-0.007128
0
VERTEX
8
1
10
6.988562
20
33.360058
42
-0.024152
0
VERTEX
8
1
10
6.923828
20
34.148540
42
-0.012242
0
VERTEX
8
1
10
6.898643
20
35.172909
0
VERTEX
8
1
10
6.904088
20
35.168179
0
VERTEX
8
1
10
6.982221
20
34.877117
42
0.141813
0
VERTEX
8
1
10
7.085301
20
34.835033
0
VERTEX
8
1
10
7.089948
20
34.810085
42
-0.015315
0
SEQEND
0
POLYLINE
8
1
66
1
70
1
0
VERTEX
8
1
10
7.243188
20
36.221111
42
-0.133510
0
VERTEX
8
1
10
7.144243
20
36.076061
42
-0.389701
0
VERTEX
8
1
10
7.067889
20
36.088829
42
-0.119821
0
VERTEX
8
1
10
7.022876
20
36.170773
42
-0.051198
0
VERTEX
8
1
10
6.956522
20
36.486813
42
-0.154299
0
VERTEX
8
1
10
7.122604
20
36.565289
42
-0.201006
0
VERTEX
8
1
10
7.233060
20
36.525265
0
SEQEND
0
POLYLINE
8
1
66
1
70
1
0
VERTEX
8
1
10
28.943069
20
35.901669
0
VERTEX
8
1
10
28.943069
20
36.026623
0
VERTEX
8
1
10
29.257931
20
36.026623
0
VERTEX
8
1
10
29.258087
20
35.698635
0
VERTEX
8
1
10
29.163467
20
35.683437
42
0.201303
0
VERTEX
8
1
10
29.079182
20
35.638271
0
VERTEX
8
1
10
29.078209
20
35.606869
42
0.013656
0
VERTEX
8
1
10
29.155289
20
34.506966
42
0.072214
0
VERTEX
8
1
10
29.170094
20
34.455349
0
VERTEX
8
1
10
29.354431
20
34.455364
0
VERTEX
8
1
10
29.354473
20
34.109447
0
VERTEX
8
1
10
28.986038
20
34.108974
0
VERTEX
8
1
10
28.984737
20
34.109798
0
VERTEX
8
1
10
28.984737
20
34.233150
0
VERTEX
8
1
10
28.985603
20
34.233990
0
VERTEX
8
1
10
29.229473
20
34.234097
0
VERTEX
8
1
10
29.229450
20
34.330349
0
VERTEX
8
1
10
29.133190
20
34.330364
42
-0.261136
0
VERTEX
8
1
10
29.037579
20
34.460979
0
VERTEX
8
1
10
29.029060
20
34.514416
42
-0.012956
0
VERTEX
8
1
10
28.950058
20
35.667564
42
-0.237661
0
VERTEX
8
1
10
29.133083
20
35.805660
0
VERTEX
8
1
10
29.132710
20
35.901623
0
SEQEND
0
POLYLINE
8
1
66
1
70
1
0
VERTEX
8
1
10
27.470848
20
36.026623
0
VERTEX
8
1
10
27.642635
20
36.026623
0
VERTEX
8
1
10
28.082352
20
35.049480
0
VERTEX
8
1
10
28.522072
20
36.026623
0
VERTEX
8
1
10
28.693069
20
36.026623
0
VERTEX
8
1
10
28.693069
20
35.901623
0
VERTEX
8
1
10
28.602901
20
35.901623
0
VERTEX
8
1
10
28.082352
20
34.744869
0
VERTEX
8
1
10
27.561810
20
35.901623
0
VERTEX
8
1
10
27.470848
20
35.901623
0
SEQEND
0
POLYLINE
8
1
66
1
70
1
0
VERTEX
8
1
10
26.835644
20
37.894772
0
VERTEX
8
1
10
26.788269
20
38.292797
42
0.644253
0
VERTEX
8
1
10
26.718876
20
38.315113
42
-0.087336
0
VERTEX
8
1
10
26.673237
20
38.298290
42
0.032741
0
VERTEX
8
1
10
26.415291
20
38.355312
0
VERTEX
8
1
10
26.415291
20
38.479626
42
-0.042444
0
VERTEX
8
1
10
26.664272
20
38.429928
42
-0.499702
0
VERTEX
8
1
10
26.909258
20
38.329510
0
VERTEX
8
1
10
26.973259
20
37.790981
0
VERTEX
8
1
10
26.634331
20
37.734737
0
VERTEX
8
1
10
26.595440
20
37.853588
42
0.116356
0
VERTEX
8
1
10
26.476097
20
38.053413
42
0.296934
0
VERTEX
8
1
10
26.192282
20
38.101017
0
VERTEX
8
1
10
26.183313
20
38.093327
42
0.372300
0
VERTEX
8
1
10
26.176910
20
38.026970
42
0.111280
0
VERTEX
8
1
10
26.218212
20
37.966976
42
0.035450
0
VERTEX
8
1
10
26.613588
20
37.725903
42
-0.063749
0
VERTEX
8
1
10
26.853779
20
37.552505
42
-0.142013
0
VERTEX
8
1
10
27.021992
20
37.251419
42
-0.052237
0
VERTEX
8
1
10
27.048035
20
37.083599
42
-0.123268
0
VERTEX
8
1
10
26.941139
20
36.763172
42
-0.158910
0
VERTEX
8
1
10
26.660688
20
36.548878
42
-0.063465
0
VERTEX
8
1
10
26.470848
20
36.500713
0
VERTEX
8
1
10
26.470848
20
36.625988
0
VERTEX
8
1
10
26.501099
20
36.631680
0
VERTEX
8
1
10
26.543083
20
36.641155
42
0.294457
0
VERTEX
8
1
10
26.906185
20
36.993938
0
VERTEX
8
1
10
26.912821
20
37.022732
0
VERTEX
8
1
10
26.917223
20
37.051952
42
0.255814
0
VERTEX
8
1
10
26.717159
20
37.505451
42
0.062611
0
VERTEX
8
1
10
26.476955
20
37.657215
42
-0.023303
0
VERTEX
8
1
10
26.152666
20
37.858635
42
-0.188102
0
VERTEX
8
1
10
26.042204
20
38.045364
42
-0.209770
0
VERTEX
8
1
10
26.088591
20
38.174953
0
VERTEX
8
1
10
26.127041
20
38.209301
42
-0.374097
0
VERTEX
8
1
10
26.621109
20
38.074810
42
-0.073494
0
VERTEX
8
1
10
26.721661
20
37.875805
0
SEQEND
0
POLYLINE
8
1
66
1
70
1
0
VERTEX
8
1
10
25.773705
20
38.300671
42
-0.183171
0
VERTEX
8
1
10
26.165291
20
38.484081
0
VERTEX
8
1
10
26.165291
20
38.360577
0
VERTEX
8
1
10
26.148462
20
38.357132
0
VERTEX
8
1
10
26.131641
20
38.353657
42
0.563280
0
VERTEX
8
1
10
25.825357
20
37.659832
42
0.088198
0
VERTEX
8
1
10
26.164776
20
37.409451
42
-0.079295
0
VERTEX
8
1
10
26.505566
20
37.153942
42
-0.129221
0
VERTEX
8
1
10
26.583870
20
37.007549
42
-0.435109
0
VERTEX
8
1
10
26.304369
20
36.719719
42
-0.111970
0
VERTEX
8
1
10
26.129211
20
36.750317
42
-0.171304
0
VERTEX
8
1
10
25.820423
20
37.142437
42
-0.031120
0
VERTEX
8
1
10
25.717457
20
37.133251
0
VERTEX
8
1
10
25.795086
20
36.641674
0
VERTEX
8
1
10
25.881344
20
36.651302
0
VERTEX
8
1
10
25.900604
20
36.689816
42
0.032236
0
VERTEX
8
1
10
26.220848
20
36.619900
0
VERTEX
8
1
10
26.220848
20
36.496075
42
-0.033846
0
VERTEX
8
1
10
25.966801
20
36.542721
0
VERTEX
8
1
10
25.962826
20
36.534786
0
VERTEX
8
1
10
25.691620
20
36.504406
0
VERTEX
8
1
10
25.689255
20
36.506237
0
VERTEX
8
1
10
25.571323
20
37.258251
42
0.051098
0
VERTEX
8
1
10
25.921154
20
37.283077
42
0.009627
0
VERTEX
8
1
10
25.956059
20
37.136471
42
0.158072
0
VERTEX
8
1
10
26.200787
20
36.854809
42
0.126634
0
VERTEX
8
1
10
26.365435
20
36.855148
42
0.380436
0
VERTEX
8
1
10
26.453342
20
37.012341
42
0.133661
0
VERTEX
8
1
10
26.423897
20
37.057323
42
0.097010
0
VERTEX
8
1
10
26.086817
20
37.307747
42
-0.089070
0
VERTEX
8
1
10
25.713514
20
37.597759
42
-0.344148
0
SEQEND
0
POLYLINE
8
1
66
1
70
1
0
VERTEX
8
1
10
25.461525
20
40.036205
0
VERTEX
8
1
10
25.461529
20
40.160702
0
VERTEX
8
1
10
25.825737
20
40.160702
0
VERTEX
8
1
10
25.827206
20
40.159283
0
VERTEX
8
1
10
25.827206
20
39.804668
0
VERTEX
8
1
10
25.673107
20
39.804302
42
0.375065
0
VERTEX
8
1
10
25.596085
20
39.738216
42
-0.005366
0
VERTEX
8
1
10
25.605490
20
38.936718
42
-0.123014
0
VERTEX
8
1
10
25.457560
20
38.492973
42
-0.147437
0
VERTEX
8
1
10
25.174608
20
38.268051
42
-0.067896
0
VERTEX
8
1
10
24.943069
20
38.201290
0
VERTEX
8
1
10
24.943069
20
38.328442
0
VERTEX
8
1
10
24.969700
20
38.333836
0
VERTEX
8
1
10
24.996174
20
38.339947
0
VERTEX
8
1
10
25.022474
20
38.346771
42
0.265738
0
VERTEX
8
1
10
25.427553
20
38.709858
42
0.069745
0
VERTEX
8
1
10
25.480476
20
38.936764
42
0.005525
0
VERTEX
8
1
10
25.470881
20
39.744930
42
-0.413956
0
VERTEX
8
1
10
25.702099
20
39.929668
0
VERTEX
8
1
10
25.702206
20
40.035702
0
SEQEND
0
POLYLINE
8
1
66
1
70
1
0
VERTEX
8
1
10
24.290291
20
40.035793
0
VERTEX
8
1
10
24.290291
20
40.160702
0
VERTEX
8
1
10
24.670162
20
40.160702
0
VERTEX
8
1
10
24.670441
20
39.796078
0
VERTEX
8
1
10
24.669464
20
39.795025
0
VERTEX
8
1
10
24.501331
20
39.795025
42
0.168814
0
VERTEX
8
1
10
24.439091
20
39.755032
0
VERTEX
8
1
10
24.439091
20
38.965405
42
0.106724
0
VERTEX
8
1
10
24.472822
20
38.744102
42
0.220273
0
VERTEX
8
1
10
24.595345
20
38.648754
42
0.067554
0
VERTEX
8
1
10
24.865120
20
38.609432
42
0.299565
0
VERTEX
8
1
10
25.143871
20
38.793896
42
0.106241
0
VERTEX
8
1
10
25.201141
20
39.026684
42
0.004992
0
VERTEX
8
1
10
25.182386
20
39.763004
0
VERTEX
8
1
10
25.180332
20
39.770481
42
0.257568
0
VERTEX
8
1
10
25.109470
20
39.804028
0
VERTEX
8
1
10
24.940983
20
39.805264
0
VERTEX
8
1
10
24.941044
20
40.160702
0
VERTEX
8
1
10
25.276344
20
40.160702
0
VERTEX
8
1
10
25.276405
20
40.035900
0
VERTEX
8
1
10
25.065983
20
40.035290
0
VERTEX
8
1
10
25.066032
20
39.929668
42
-0.112318
0
VERTEX
8
1
10
25.223820
20
39.901493
42
-0.261809
0
VERTEX
8
1
10
25.306707
20
39.770000
42
-0.007648
0
VERTEX
8
1
10
25.325953
20
39.034317
42
-0.126554
0
VERTEX
8
1
10
25.234261
20
38.695251
42
-0.192603
0
VERTEX
8
1
10
24.976448
20
38.500866
0
VERTEX
8
1
10
24.871624
20
38.484493
42
-0.095710
0
VERTEX
8
1
10
24.495283
20
38.553768
42
-0.224511
0
VERTEX
8
1
10
24.338839
20
38.751163
42
-0.078207
0
VERTEX
8
1
10
24.314091
20
38.929073
0
VERTEX
8
1
10
24.314091
20
39.794704
42
-0.219580
0
VERTEX
8
1
10
24.485664
20
39.919384
0
VERTEX
8
1
10
24.545307
20
39.920025
0
VERTEX
8
1
10
24.545441
20
40.035030
0
SEQEND
0
POLYLINE
8
1
66
1
70
1
0
VERTEX
8
1
10
23.591419
20
39.795559
0
VERTEX
8
1
10
23.591419
20
40.160702
0
VERTEX
8
1
10
24.039661
20
40.160702
0
VERTEX
8
1
10
24.040295
20
40.036388
0
VERTEX
8
1
10
24.039639
20
40.035702
0
VERTEX
8
1
10
23.716419
20
40.035686
0
VERTEX
8
1
10
23.716412
20
39.922527
0
VERTEX
8
1
10
23.715908
20
39.921581
42
-0.143605
0
VERTEX
8
1
10
23.875847
20
39.884197
42
-0.224757
0
VERTEX
8
1
10
23.938648
20
39.770992
0
VERTEX
8
1
10
23.942509
20
39.726864
42
-0.008710
0
VERTEX
8
1
10
23.968300
20
38.854259
0
VERTEX
8
1
10
23.971910
20
38.821068
42
0.313226
0
VERTEX
8
1
10
24.419695
20
38.328327
42
0.065586
0
VERTEX
8
1
10
24.693066
20
38.299694
0
VERTEX
8
1
10
24.692616
20
38.175213
42
-0.118200
0
VERTEX
8
1
10
24.235022
20
38.261932
42
-0.272959
0
VERTEX
8
1
10
23.842474
20
38.863506
42
0.010687
0
VERTEX
8
1
10
23.816860
20
39.730503
0
VERTEX
8
1
10
23.813610
20
39.764736
42
0.302298
0
VERTEX
8
1
10
23.756874
20
39.794628
0
SEQEND
0
POLYLINE
8
1
66
1
70
1
0
VERTEX
8
1
10
18.190929
20
40.699902
42
0.037590
0
VERTEX
8
1
10
18.231886
20
40.628384
42
0.055308
0
VERTEX
8
1
10
18.526529
20
40.396008
42
-0.122405
0
VERTEX
8
1
10
18.969995
20
40.512619
42
-0.124989
0
VERTEX
8
1
10
19.342270
20
40.412643
42
-0.141688
0
VERTEX
8
1
10
19.539968
20
40.192013
0
VERTEX
8
1
10
19.561615
20
40.156826
0
VERTEX
8
1
10
19.861080
20
40.111431
0
VERTEX
8
1
10
19.883900
20
40.125530
42
-0.123338
0
VERTEX
8
1
10
20.077402
20
40.212330
42
-0.110833
0
VERTEX
8
1
10
20.438774
20
40.218086
42
-0.057242
0
VERTEX
8
1
10
20.864464
20
40.087124
42
-0.025978
0
VERTEX
8
1
10
21.759375
20
39.658192
42
0.011952
0
VERTEX
8
1
10
22.506376
20
39.294430
42
0.056485
0
VERTEX
8
1
10
23.130356
20
39.106274
0
VERTEX
8
1
10
23.187370
20
39.099285
0
VERTEX
8
1
10
23.204739
20
39.055477
42
0.230513
0
VERTEX
8
1
10
23.265774
20
39.000267
42
-0.262865
0
VERTEX
8
1
10
23.358601
20
38.846107
42
-0.316243
0
VERTEX
8
1
10
23.248981
20
38.705032
42
0.016485
0
VERTEX
8
1
10
23.158726
20
38.656902
42
-0.199594
0
VERTEX
8
1
10
22.935972
20
38.556503
42
0.009031
0
VERTEX
8
1
10
22.836502
20
38.547237
42
-0.196555
0
VERTEX
8
1
10
22.531349
20
38.475246
42
0.027823
0
VERTEX
8
1
10
22.467995
20
38.476650
42
-0.144310
0
VERTEX
8
1
10
22.173328
20
38.428020
42
-0.045217
0
VERTEX
8
1
10
21.580978
20
38.529537
42
-0.306103
0
VERTEX
8
1
10
21.434795
20
38.458553
0
VERTEX
8
1
10
21.403107
20
38.460323
42
-0.033407
0
VERTEX
8
1
10
20.984272
20
38.558270
42
0.071237
0
VERTEX
8
1
10
20.933487
20
38.551922
0
VERTEX
8
1
10
20.928562
20
38.547520
42
-0.397420
0
VERTEX
8
1
10
20.735538
20
38.476223
0
VERTEX
8
1
10
20.770870
20
38.358456
0
VERTEX
8
1
10
20.530312
20
38.439083
42
-0.407699
0
VERTEX
8
1
10
20.344372
20
38.374081
42
-0.029818
0
VERTEX
8
1
10
20.294785
20
38.395229
42
-0.380625
0
VERTEX
8
1
10
20.101257
20
38.352108
0
VERTEX
8
1
10
20.091629
20
38.354336
42
-0.199727
0
VERTEX
8
1
10
19.949799
20
38.324306
42
0.186593
0
VERTEX
8
1
10
19.968239
20
38.254589
42
0.110751
0
VERTEX
8
1
10
20.191162
20
38.051235
0
VERTEX
8
1
10
20.213470
20
38.035473
0
VERTEX
8
1
10
20.235432
20
38.019222
0
VERTEX
8
1
10
20.234970
20
38.013958
0
VERTEX
8
1
10
20.158337
20
37.913540
0
VERTEX
8
1
10
20.126015
20
37.935421
42
-0.103785
0
VERTEX
8
1
10
19.875267
20
38.165035
0
VERTEX
8
1
10
19.852715
20
38.206310
42
-0.290171
0
VERTEX
8
1
10
19.868135
20
38.414776
0
VERTEX
8
1
10
19.892052
20
38.432659
42
-0.037242
0
VERTEX
8
1
10
20.009846
20
38.435257
42
0.427425
0
VERTEX
8
1
10
20.032116
20
38.473766
0
VERTEX
8
1
10
20.032116
20
38.539791
42
0.064103
0
VERTEX
8
1
10
20.169083
20
38.448910
42
0.472157
0
VERTEX
8
1
10
20.199493
20
38.458263
0
VERTEX
8
1
10
20.198036
20
38.475964
0
VERTEX
8
1
10
20.192890
20
38.496655
0
VERTEX
8
1
10
20.157120
20
38.591045
42
-0.226963
0
VERTEX
8
1
10
20.155521
20
38.617168
0
VERTEX
8
1
10
20.162956
20
38.616909
0
VERTEX
8
1
10
20.175667
20
38.611080
42
0.044395
0
VERTEX
8
1
10
20.383579
20
38.483013
42
0.271349
0
VERTEX
8
1
10
20.423519
20
38.479107
0
VERTEX
8
1
10
20.424416
20
38.488796
42
-0.205736
0
VERTEX
8
1
10
20.418348
20
38.614204
42
-0.408792
0
VERTEX
8
1
10
20.459618
20
38.621197
42
0.039354
0
VERTEX
8
1
10
20.563738
20
38.551575
0
VERTEX
8
1
10
20.588074
20
38.540310
42
-0.101744
0
VERTEX
8
1
10
20.581465
20
38.623627
42
-0.393897
0
VERTEX
8
1
10
20.622215
20
38.644447
0
VERTEX
8
1
10
20.642796
20
38.638058
0
VERTEX
8
1
10
20.749020
20
38.593075
42
0.140873
0
VERTEX
8
1
10
20.815147
20
38.580090
0
VERTEX
8
1
10
20.821194
20
38.584179
0
VERTEX
8
1
10
20.824337
20
38.591106
42
0.012170
0
VERTEX
8
1
10
20.808952
20
38.670017
42
-0.467202
0
VERTEX
8
1
10
20.830875
20
38.685680
42
0.021574
0
VERTEX
8
1
10
20.934258
20
38.665443
42
0.180254
0
VERTEX
8
1
10
20.977657
20
38.679180
42
0.029450
0
VERTEX
8
1
10
21.415260
20
38.572445
0
VERTEX
8
1
10
21.451481
20
38.569759
0
VERTEX
8
1
10
21.473438
20
38.572994
0
VERTEX
8
1
10
21.477993
20
38.583233
42
-0.054470
0
VERTEX
8
1
10
21.464420
20
38.679180
42
0.043761
0
VERTEX
8
1
10
22.140343
20
38.542324
0
VERTEX
8
1
10
22.235931
20
38.538113
0
VERTEX
8
1
10
22.319069
20
38.543041
0
VERTEX
8
1
10
22.385231
20
38.559002
0
VERTEX
8
1
10
22.428535
20
38.583019
42
-0.058643
0
VERTEX
8
1
10
22.613493
20
38.583191
42
0.171094
0
VERTEX
8
1
10
22.778419
20
38.641338
0
VERTEX
8
1
10
22.795189
20
38.649563
42
-0.060761
0
VERTEX
8
1
10
22.950686
20
38.667400
42
0.175163
0
VERTEX
8
1
10
23.084099
20
38.739727
42
-0.029840
0
VERTEX
8
1
10
23.232685
20
38.821018
42
0.438832
0
VERTEX
8
1
10
23.232285
20
38.855816
0
VERTEX
8
1
10
23.220020
20
38.870419
42
-0.142227
0
VERTEX
8
1
10
23.105568
20
38.970806
42
-0.066561
0
VERTEX
8
1
10
22.420206
20
39.188396
42
-0.017036
0
VERTEX
8
1
10
21.826132
20
39.476925
42
0.007781
0
VERTEX
8
1
10
20.996473
20
39.887749
42
0.033593
0
VERTEX
8
1
10
20.517365
20
40.062420
0
VERTEX
8
1
10
20.383949
20
40.089977
42
0.100802
0
VERTEX
8
1
10
20.073126
20
40.068680
0
VERTEX
8
1
10
20.043995
20
40.057804
0
VERTEX
8
1
10
20.015728
20
40.044849
42
0.359027
0
VERTEX
8
1
10
19.906528
20
39.836407
42
-0.077448
0
VERTEX
8
1
10
19.922211
20
39.496227
42
-0.140495
0
VERTEX
8
1
10
19.876898
20
39.417614
0
VERTEX
8
1
10
19.852591
20
39.405422
42
-0.347665
0
VERTEX
8
1
10
19.603325
20
39.526028
42
-0.091193
0
VERTEX
8
1
10
19.542793
20
39.698009
42
0.031883
0
VERTEX
8
1
10
19.469851
20
40.039730
0
VERTEX
8
1
10
19.445484
20
40.102779
42
0.168888
0
VERTEX
8
1
10
19.265553
20
40.303371
0
VERTEX
8
1
10
19.192198
20
40.335888
42
0.098188
0
VERTEX
8
1
10
18.915724
20
40.371990
42
0.123463
0
VERTEX
8
1
10
18.551451
20
40.249035
0
VERTEX
8
1
10
18.527836
20
40.238110
42
-0.060644
0
VERTEX
8
1
10
18.154385
20
40.523216
42
-0.111132
0
VERTEX
8
1
10
18.068115
20
40.682312
42
-0.384554
0
VERTEX
8
1
10
18.149300
20
40.803295
42
-0.094464
0
VERTEX
8
1
10
18.355415
20
40.845039
42
-0.073182
0
VERTEX
8
1
10
19.058399
20
40.794834
42
0.031740
0
VERTEX
8
1
10
19.830933
20
40.700607
42
0.031488
0
VERTEX
8
1
10
20.226734
20
40.712322
0
VERTEX
8
1
10
20.218231
20
40.698326
42
-0.217905
0
VERTEX
8
1
10
20.012453
20
40.588699
0
VERTEX
8
1
10
19.988564
20
40.587490
0
VERTEX
8
1
10
19.896393
20
40.588608
42
-0.045912
0
VERTEX
8
1
10
18.972286
20
40.697868
42
0.075754
0
VERTEX
8
1
10
18.276447
20
40.725719
42
0.046402
0
VERTEX
8
1
10
18.191032
20
40.702328
0
SEQEND
0
POLYLINE
8
1
66
1
70
1
0
VERTEX
8
1
10
22.246449
20
36.391293
0
VERTEX
8
1
10
22.247944
20
36.388607
0
VERTEX
8
1
10
22.075783
20
36.437252
0
VERTEX
8
1
10
22.072857
20
36.440456
0
VERTEX
8
1
10
21.958782
20
36.629604
0
VERTEX
8
1
10
21.963703
20
36.629345
42
5.816966
0
VERTEX
8
1
10
21.720186
20
36.997280
0
VERTEX
8
1
10
21.717915
20
36.997250
0
VERTEX
8
1
10
21.666674
20
37.069698
42
0.007986
0
VERTEX
8
1
10
20.959284
20
37.957527
0
VERTEX
8
1
10
20.922874
20
37.997326
42
0.194952
0
VERTEX
8
1
10
20.800749
20
38.014507
42
0.180094
0
VERTEX
8
1
10
20.518099
20
37.855846
42
0.148090
0
VERTEX
8
1
10
20.477039
20
37.734249
42
0.005612
0
VERTEX
8
1
10
20.915993
20
36.847057
0
VERTEX
8
1
10
20.996300
20
36.697720
42
-0.137849
0
VERTEX
8
1
10
21.029310
20
36.575623
0
VERTEX
8
1
10
21.027550
20
36.556408
42
0.156132
0
VERTEX
8
1
10
19.857115
20
37.407772
0
VERTEX
8
1
10
19.857939
20
37.411602
42
0.110546
0
VERTEX
8
1
10
19.892082
20
37.453182
42
-0.596968
0
VERTEX
8
1
10
19.956686
20
37.500523
42
-0.151895
0
VERTEX
8
1
10
20.013628
20
37.459820
42
0.249272
0
VERTEX
8
1
10
20.074863
20
37.453472
42
-0.430416
0
VERTEX
8
1
10
20.113476
20
37.419765
0
VERTEX
8
1
10
20.118763
20
37.414257
0
VERTEX
8
1
10
20.124062
20
37.416607
42
0.003578
0
VERTEX
8
1
10
20.182505
20
37.484482
42
-0.364480
0
VERTEX
8
1
10
20.219709
20
37.477676
42
0.200369
0
VERTEX
8
1
10
20.270248
20
37.467373
42
0.357688
0
VERTEX
8
1
10
20.267271
20
37.512665
42
-0.305526
0
VERTEX
8
1
10
20.278202
20
37.583717
42
-0.092797
0
VERTEX
8
1
10
20.337677
20
37.637249
0
VERTEX
8
1
10
20.317013
20
37.701855
0
VERTEX
8
1
10
20.317337
20
37.708294
42
0.018467
0
VERTEX
8
1
10
20.344933
20
37.880581
0
VERTEX
8
1
10
20.350849
20
37.905361
0
VERTEX
8
1
10
20.371658
20
37.876797
42
-0.197671
0
VERTEX
8
1
10
20.686384
20
38.129803
42
-0.132502
0
VERTEX
8
1
10
20.905523
20
38.149910
42
-0.164999
0
VERTEX
8
1
10
21.035400
20
38.064922
42
-0.010215
0
VERTEX
8
1
10
21.588692
20
37.377636
0
VERTEX
8
1
10
21.613243
20
37.428509
42
-2.112327
0
SEQEND
0
POLYLINE
8
1
66
1
70
1
0
VERTEX
8
1
10
19.582689
20
34.321468
42
-0.022191
0
VERTEX
8
1
10
19.571487
20
34.421978
42
0.160768
0
VERTEX
8
1
10
19.511826
20
34.516628
42
-0.003721
0
VERTEX
8
1
10
19.301912
20
34.704647
42
-0.236911
0
VERTEX
8
1
10
19.253321
20
34.828472
42
-0.098381
0
VERTEX
8
1
10
19.355381
20
35.200832
42
0.305262
0
VERTEX
8
1
10
19.340366
20
35.233822
0
VERTEX
8
1
10
19.329063
20
35.245220
42
0.031283
0
VERTEX
8
1
10
19.057138
20
35.412594
42
0.085950
0
VERTEX
8
1
10
18.414648
20
35.581142
42
-0.140966
0
VERTEX
8
1
10
18.243153
20
35.696430
42
-0.070672
0
VERTEX
8
1
10
17.959639
20
36.075500
42
0.337000
0
VERTEX
8
1
10
17.889023
20
36.090286
42
0.026911
0
VERTEX
8
1
10
17.816545
20
36.067104
0
VERTEX
8
1
10
17.802921
20
36.068050
42
-0.141463
0
VERTEX
8
1
10
17.766497
20
36.160702
42
-0.091704
0
VERTEX
8
1
10
17.779884
20
36.640057
42
0.060880
0
VERTEX
8
1
10
17.755611
20
36.897381
0
VERTEX
8
1
10
17.753122
20
36.926846
0
VERTEX
8
1
10
17.752069
20
36.956387
42
-0.102773
0
VERTEX
8
1
10
17.857147
20
37.047466
42
-0.025876
0
VERTEX
8
1
10
18.363409
20
37.330410
42
-0.306222
0
VERTEX
8
1
10
18.460165
20
37.271744
42
0.019045
0
VERTEX
8
1
10
18.523558
20
37.183250
42
0.319425
0
VERTEX
8
1
10
18.628481
20
37.171520
42
-0.199350
0
VERTEX
8
1
10
18.737520
20
37.167667
42
-0.329447
0
VERTEX
8
1
10
18.750639
20
37.121868
0
VERTEX
8
1
10
18.748341
20
37.108562
42
0.105323
0
VERTEX
8
1
10
18.726015
20
36.967510
42
0.208597
0
VERTEX
8
1
10
18.959917
20
36.735813
0
VERTEX
8
1
10
18.976814
20
36.732113
42
0.605073
0
VERTEX
8
1
10
19.112318
20
36.894100
42
-0.308757
0
VERTEX
8
1
10
19.155594
20
37.038097
42
-0.004907
0
VERTEX
8
1
10
19.550407
20
36.826504
0
VERTEX
8
1
10
19.572811
20
36.807461
42
-0.461419
0
VERTEX
8
1
10
19.568134
20
36.737545
42
-0.106409
0
VERTEX
8
1
10
19.378531
20
36.648998
42
0.031966
0
VERTEX
8
1
10
19.084818
20
36.159393
42
0.206809
0
VERTEX
8
1
10
19.090591
20
36.019962
42
0.096560
0
VERTEX
8
1
10
19.214098
20
35.834702
42
-0.057952
0
VERTEX
8
1
10
19.280149
20
35.734600
42
-0.411067
0
VERTEX
8
1
10
19.235920
20
35.718441
42
-0.070088
0
VERTEX
8
1
10
19.161673
20
35.765316
42
-0.008487
0
VERTEX
8
1
10
18.964687
20
35.965008
42
0.197407
0
VERTEX
8
1
10
18.662615
20
35.936630
42
0.105833
0
VERTEX
8
1
10
18.576328
20
35.855556
0
VERTEX
8
1
10
18.568682
20
35.831554
0
VERTEX
8
1
10
18.570465
20
35.808407
42
0.168692
0
VERTEX
8
1
10
18.636480
20
35.733578
42
0.064242
0
VERTEX
8
1
10
18.909395
20
35.619167
42
-0.107050
0
VERTEX
8
1
10
19.196167
20
35.425369
42
0.145478
0
VERTEX
8
1
10
19.388132
20
35.342510
42
0.042324
0
VERTEX
8
1
10
19.747250
20
35.328625
42
-0.114390
0
VERTEX
8
1
10
20.123552
20
35.251450
42
-0.123779
0
VERTEX
8
1
10
20.325485
20
35.075584
42
0.137718
0
VERTEX
8
1
10
20.590862
20
34.908569
0
VERTEX
8
1
10
20.626663
20
34.897823
42
-0.094124
0
VERTEX
8
1
10
20.823299
20
34.814404
0
VERTEX
8
1
10
20.821972
20
34.794659
42
-0.105437
0
VERTEX
8
1
10
20.744589
20
34.678963
42
-0.042646
0
VERTEX
8
1
10
20.560684
20
34.507610
42
-0.184995
0
VERTEX
8
1
10
20.375225
20
34.279980
0
VERTEX
8
1
10
20.347977
20
34.261898
42
0.183570
0
VERTEX
8
1
10
20.170465
20
34.072205
0
VERTEX
8
1
10
20.146223
20
34.021034
42
-0.075218
0
VERTEX
8
1
10
20.002897
20
33.782616
42
-0.090863
0
VERTEX
8
1
10
19.852842
20
33.670444
42
0.086743
0
VERTEX
8
1
10
19.740076
20
33.575405
42
-0.064359
0
VERTEX
8
1
10
19.696281
20
33.320560
42
-0.081680
0
VERTEX
8
1
10
19.666904
20
33.276043
0
VERTEX
8
1
10
19.648659
20
33.271313
42
-0.219301
0
VERTEX
8
1
10
19.531748
20
33.370239
42
-0.106209
0
VERTEX
8
1
10
19.494686
20
33.500088
42
-0.085729
0
VERTEX
8
1
10
19.506733
20
33.861004
0
VERTEX
8
1
10
19.524281
20
33.903088
42
0.138043
0
SEQEND
0
POLYLINE
8
1
66
1
70
1
0
VERTEX
8
1
10
15.054129
20
42.913677
0
VERTEX
8
1
10
15.067591
20
42.925396
0
VERTEX
8
1
10
15.088560
20
43.142101
0
VERTEX
8
1
10
15.247074
20
42.222759
0
VERTEX
8
1
10
15.054081
20
42.011272
0
VERTEX
8
1
10
15.062105
20
42.557827
0
VERTEX
8
1
10
14.702600
20
42.680431
0
SEQEND
0
POLYLINE
8
1
66
1
70
1
0
VERTEX
8
1
10
12.123289
20
42.081310
0
VERTEX
8
1
10
12.189255
20
42.483227
0
VERTEX
8
1
10
12.408350
20
42.222103
0
VERTEX
8
1
10
12.810137
20
42.239132
0
VERTEX
8
1
10
12.539928
20
41.906841
0
VERTEX
8
1
10
12.715946
20
41.569897
0
VERTEX
8
1
10
12.320024
20
41.641460
0
VERTEX
8
1
10
12.001469
20
41.297710
0
VERTEX
8
1
10
12.026331
20
41.732143
0
VERTEX
8
1
10
11.746675
20
41.830624
0
SEQEND
0
POLYLINE
8
1
66
1
70
1
0
VERTEX
8
1
10
12.915771
20
41.289501
42
-0.004274
0
VERTEX
8
1
10
13.672723
20
41.371807
0
VERTEX
8
1
10
13.690538
20
41.673214
0
VERTEX
8
1
10
13.417097
20
41.763241
0
VERTEX
8
1
10
13.417381
20
41.764339
0
VERTEX
8
1
10
13.786861
20
42.001949
0
VERTEX
8
1
10
13.853418
20
42.387814
0
VERTEX
8
1
10
14.074011
20
42.138561
0
VERTEX
8
1
10
14.468567
20
42.157162
0
VERTEX
8
1
10
14.469124
20
42.156231
0
VERTEX
8
1
10
14.203373
20
41.842495
0
VERTEX
8
1
10
14.377989
20
41.523998
0
VERTEX
8
1
10
13.984434
20
41.588711
0
VERTEX
8
1
10
13.788198
20
41.384930
42
0.007765
0
VERTEX
8
1
10
13.992580
20
41.408672
0
VERTEX
8
1
10
13.987370
20
41.399258
42
-0.022904
0
VERTEX
8
1
10
13.797796
20
41.221584
42
-0.130696
0
VERTEX
8
1
10
16.608727
20
41.087048
0
VERTEX
8
1
10
16.745502
20
41.036068
42
-0.036017
0
VERTEX
8
1
10
15.959192
20
41.060299
0
VERTEX
8
1
10
15.987446
20
41.043530
42
0.021582
0
VERTEX
8
1
10
17.750319
20
40.524837
0
VERTEX
8
1
10
17.779594
20
40.535290
42
-0.162339
0
VERTEX
8
1
10
17.761110
20
40.872589
0
VERTEX
8
1
10
17.770443
20
40.901455
42
-0.207653
0
VERTEX
8
1
10
18.131712
20
41.141495
42
-0.075561
0
VERTEX
8
1
10
18.470055
20
41.165859
0
VERTEX
8
1
10
18.565533
20
41.161922
42
-0.010476
0
VERTEX
8
1
10
19.424068
20
41.075371
42
0.019637
0
VERTEX
8
1
10
20.031593
20
41.041302
42
-0.241497
0
VERTEX
8
1
10
20.218979
20
40.918224
0
VERTEX
8
1
10
20.200451
20
40.911816
42
-0.047756
0
VERTEX
8
1
10
19.300537
20
40.953934
42
0.014937
0
VERTEX
8
1
10
18.419271
20
41.030910
42
0.070189
0
VERTEX
8
1
10
18.097662
20
40.990589
42
0.160238
0
VERTEX
8
1
10
17.888517
20
40.829189
0
VERTEX
8
1
10
17.881525
20
40.804501
42
0.267029
0
VERTEX
8
1
10
18.066610
20
40.332043
0
VERTEX
8
1
10
18.096672
20
40.315029
42
-0.062042
0
VERTEX
8
1
10
18.446835
20
40.098259
0
VERTEX
8
1
10
18.470909
20
40.074368
0
VERTEX
8
1
10
18.490965
20
40.071529
0
VERTEX
8
1
10
18.520731
20
40.072853
42
-0.143478
0
VERTEX
8
1
10
18.745605
20
40.021194
0
VERTEX
8
1
10
18.765507
20
40.007610
42
-0.276004
0
VERTEX
8
1
10
18.836588
20
39.866745
42
-0.393223
0
VERTEX
8
1
10
18.471586
20
39.431240
42
-0.392500
0
VERTEX
8
1
10
18.361996
20
39.688255
42
0.116751
0
VERTEX
8
1
10
18.360163
20
39.933697
42
0.295889
0
VERTEX
8
1
10
18.170031
20
40.081676
42
0.099871
0
VERTEX
8
1
10
17.760803
20
40.039761
42
0.036728
0
VERTEX
8
1
10
17.050905
20
39.767773
42
-0.016794
0
VERTEX
8
1
10
15.459832
20
39.086201
42
-0.017750
0
VERTEX
8
1
10
15.189486
20
38.997616
42
0.191345
0
VERTEX
8
1
10
15.054000
20
38.832806
42
-0.085670
0
VERTEX
8
1
10
15.246475
20
38.709927
0
VERTEX
8
1
10
15.258089
20
38.703655
42
0.033583
0
VERTEX
8
1
10
15.417695
20
38.686184
42
-0.111693
0
VERTEX
8
1
10
15.456350
20
38.666073
0
VERTEX
8
1
10
15.510111
20
38.648373
42
0.134606
0
VERTEX
8
1
10
15.670854
20
38.627998
42
-0.066578
0
VERTEX
8
1
10
15.790546
20
38.623699
42
0.197241
0
VERTEX
8
1
10
15.952795
20
38.545269
42
0.087770
0
VERTEX
8
1
10
16.303886
20
38.572460
42
-0.021219
0
VERTEX
8
1
10
16.833740
20
38.693188
42
0.112687
0
VERTEX
8
1
10
16.785231
20
38.578724
42
0.446240
0
VERTEX
8
1
10
16.807259
20
38.564968
42
0.013170
0
VERTEX
8
1
10
17.306587
20
38.762539
42
-0.102775
0
VERTEX
8
1
10
17.307497
20
38.654476
0
VERTEX
8
1
10
17.317606
20
38.653316
0
VERTEX
8
1
10
17.473415
20
38.679287
0
VERTEX
8
1
10
17.487396
20
38.581936
0
VERTEX
8
1
10
17.668102
20
38.651272
0
VERTEX
8
1
10
17.668102
20
38.554287
42
-0.051774
0
VERTEX
8
1
10
17.822016
20
38.619591
0
VERTEX
8
1
10
17.834131
20
38.619427
0
VERTEX
8
1
10
17.845978
20
38.616894
0
VERTEX
8
1
10
17.848860
20
38.610638
0
VERTEX
8
1
10
17.848888
20
38.526730
42
-0.037101
0
VERTEX
8
1
10
18.035416
20
38.618900
0
VERTEX
8
1
10
18.051418
20
38.621365
0
VERTEX
8
1
10
18.067612
20
38.621441
0
VERTEX
8
1
10
18.071865
20
38.615688
42
0.042407
0
VERTEX
8
1
10
18.057480
20
38.443066
42
-0.070963
0
VERTEX
8
1
10
18.227024
20
38.527802
42
-0.702685
0
VERTEX
8
1
10
18.235617
20
38.504192
0
VERTEX
8
1
10
18.234354
20
38.494328
42
0.450822
0
VERTEX
8
1
10
18.286268
20
38.440220
0
VERTEX
8
1
10
18.303715
20
38.439152
0
VERTEX
8
1
10
18.321138
20
38.440563
42
-0.237074
0
VERTEX
8
1
10
18.443739
20
38.416420
42
-0.246758
0
VERTEX
8
1
10
18.465660
20
38.348202
42
-0.114428
0
VERTEX
8
1
10
18.304962
20
38.117718
42
0.089131
0
VERTEX
8
1
10
17.986441
20
37.699139
42
0.000491
0
VERTEX
8
1
10
17.790928
20
37.617176
0
VERTEX
8
1
10
17.818680
20
37.673786
42
-0.063948
0
VERTEX
8
1
10
18.092426
20
38.100456
42
-0.035566
0
VERTEX
8
1
10
18.225260
20
38.232548
42
0.043350
0
VERTEX
8
1
10
18.302052
20
38.326702
42
-0.184783
0
VERTEX
8
1
10
18.156223
20
38.373821
0
VERTEX
8
1
10
18.150913
20
38.370678
0
VERTEX
8
1
10
17.926130
20
38.226955
0
VERTEX
8
1
10
17.925930
20
38.443188
0
VERTEX
8
1
10
17.717890
20
38.321026
0
VERTEX
8
1
10
17.717485
20
38.455181
0
VERTEX
8
1
10
17.536743
20
38.358135
0
VERTEX
8
1
10
17.536457
20
38.482403
0
VERTEX
8
1
10
17.379757
20
38.422115
0
VERTEX
8
1
10
17.361399
20
38.547924
0
VERTEX
8
1
10
17.115860
20
38.507061
0
VERTEX
8
1
10
17.138145
20
38.573864
42
-0.022753
0
VERTEX
8
1
10
16.819448
20
38.453014
42
-0.354834
0
VERTEX
8
1
10
16.662964
20
38.544994
0
VERTEX
8
1
10
16.659121
20
38.545300
0
VERTEX
8
1
10
16.477055
20
38.503567
42
-0.076936
0
VERTEX
8
1
10
15.998603
20
38.426369
42
-0.126868
0
VERTEX
8
1
10
15.746950
20
38.500683
0
VERTEX
8
1
10
15.724424
20
38.517696
0
VERTEX
8
1
10
15.708920
20
38.517773
42
-0.119934
0
VERTEX
8
1
10
15.461816
20
38.542000
42
0.065466
0
VERTEX
8
1
10
15.387392
20
38.565380
0
VERTEX
8
1
10
15.374859
20
38.577435
0
VERTEX
8
1
10
15.357445
20
38.579281
42
-0.119959
0
VERTEX
8
1
10
15.160275
20
38.618191
0
VERTEX
8
1
10
15.140768
20
38.646740
0
VERTEX
8
1
10
15.126934
20
38.657848
42
0.026161
0
VERTEX
8
1
10
14.894800
20
38.781811
42
-0.105880
0
VERTEX
8
1
10
15.009594
20
39.030277
42
-0.157683
0
VERTEX
8
1
10
15.187520
20
39.142448
42
0.025750
0
VERTEX
8
1
10
15.509480
20
39.258137
42
0.017995
0
VERTEX
8
1
10
17.085110
20
39.936108
42
-0.027242
0
VERTEX
8
1
10
17.669312
20
40.160610
42
-0.049383
0
VERTEX
8
1
10
18.016218
20
40.225048
42
-0.033395
0
VERTEX
8
1
10
17.971439
20
40.255260
0
VERTEX
8
1
10
15.138651
20
40.581768
42
0.135808
0
VERTEX
8
1
10
15.462681
20
40.903866
0
VERTEX
8
1
10
15.403717
20
40.867611
0
VERTEX
8
1
10
15.304068
20
40.839001
42
-0.041645
0
VERTEX
8
1
10
14.658461
20
40.786983
42
-0.014493
0
VERTEX
8
1
10
13.226805
20
40.812496
42
0.008248
0
VERTEX
8
1
10
12.470199
20
40.805088
42
-0.034782
0
VERTEX
8
1
10
11.860036
20
40.847637
42
-0.051844
0
VERTEX
8
1
10
11.551737
20
40.934887
0
VERTEX
8
1
10
11.616508
20
40.986187
42
-0.057041
0
VERTEX
8
1
10
12.227683
20
41.175270
42
-0.024743
0
SEQEND
0
POLYLINE
8
1
66
1
70
1
0
VERTEX
8
1
10
14.842894
20
40.010616
0
VERTEX
8
1
10
15.242369
20
40.333477
0
VERTEX
8
1
10
15.265053
20
40.505932
0
VERTEX
8
1
10
15.394474
20
39.695812
0
VERTEX
8
1
10
15.118650
20
39.331203
0
VERTEX
8
1
10
15.143322
20
39.871563
0
SEQEND
0
POLYLINE
8
1
66
1
70
1
0
VERTEX
8
1
10
14.646164
20
38.410793
0
VERTEX
8
1
10
14.255239
20
38.485638
0
VERTEX
8
1
10
13.924538
20
38.162716
0
VERTEX
8
1
10
13.967710
20
38.576885
0
VERTEX
8
1
10
13.697832
20
38.674541
0
VERTEX
8
1
10
14.078733
20
38.904766
0
VERTEX
8
1
10
14.162264
20
39.290295
0
VERTEX
8
1
10
14.370914
20
39.035091
0
VERTEX
8
1
10
14.765257
20
39.044491
0
VERTEX
8
1
10
14.485682
20
38.735882
0
SEQEND
0
POLYLINE
8
1
66
1
70
1
0
VERTEX
8
1
10
12.949963
20
40.034466
0
VERTEX
8
1
10
13.323830
20
40.266338
0
VERTEX
8
1
10
13.389477
20
40.655239
0
VERTEX
8
1
10
13.608450
20
40.394222
0
VERTEX
8
1
10
14.010088
20
40.398907
0
VERTEX
8
1
10
13.740185
20
40.083126
0
VERTEX
8
1
10
13.914480
20
39.752865
0
VERTEX
8
1
10
13.522743
20
39.833324
0
VERTEX
8
1
10
13.202425
20
39.505337
0
VERTEX
8
1
10
13.227327
20
39.931011
0
SEQEND
0
POLYLINE
8
1
66
1
70
1
0
VERTEX
8
1
10
12.992186
20
38.498150
0
VERTEX
8
1
10
12.599234
20
38.580685
0
VERTEX
8
1
10
12.268356
20
38.245647
0
VERTEX
8
1
10
12.311522
20
38.679073
0
VERTEX
8
1
10
12.036720
20
38.785610
0
VERTEX
8
1
10
12.423290
20
39.026714
0
VERTEX
8
1
10
12.506508
20
39.427914
0
VERTEX
8
1
10
12.713974
20
39.160534
0
VERTEX
8
1
10
13.114168
20
39.167171
0
VERTEX
8
1
10
12.830822
20
38.842022
0
SEQEND
0
POLYLINE
8
1
66
1
70
1
0
VERTEX
8
1
10
11.648455
20
40.409573
0
VERTEX
8
1
10
11.713892
20
40.814800
0
VERTEX
8
1
10
11.931686
20
40.541973
0
VERTEX
8
1
10
12.338552
20
40.544781
0
VERTEX
8
1
10
12.065481
20
40.211727
0
VERTEX
8
1
10
12.240938
20
39.862545
0
VERTEX
8
1
10
11.846712
20
39.949825
0
VERTEX
8
1
10
11.526554
20
39.608929
0
VERTEX
8
1
10
11.551451
20
40.054043
0
VERTEX
8
1
10
11.269251
20
40.165798
0
SEQEND
0
POLYLINE
8
1
66
1
70
1
0
VERTEX
8
1
10
10.440359
20
42.055920
0
VERTEX
8
1
10
10.506149
20
42.474590
0
VERTEX
8
1
10
10.724186
20
42.202190
0
VERTEX
8
1
10
11.130810
20
42.218716
0
VERTEX
8
1
10
10.857609
20
41.868343
0
VERTEX
8
1
10
11.034815
20
41.512707
0
VERTEX
8
1
10
10.636324
20
41.589901
0
VERTEX
8
1
10
10.318058
20
41.232418
0
VERTEX
8
1
10
10.342907
20
41.686153
0
VERTEX
8
1
10
10.058672
20
41.791927
0
SEQEND
0
POLYLINE
8
1
66
1
70
1
0
VERTEX
8
1
10
9.966476
20
40.445812
0
VERTEX
8
1
10
10.031710
20
40.867718
0
VERTEX
8
1
10
10.248520
20
40.583645
0
VERTEX
8
1
10
10.659977
20
40.585766
0
VERTEX
8
1
10
10.384098
20
40.234768
0
VERTEX
8
1
10
10.560694
20
39.866970
0
VERTEX
8
1
10
10.163925
20
39.959942
0
VERTEX
8
1
10
9.844114
20
39.605267
0
VERTEX
8
1
10
9.868990
20
40.069683
0
VERTEX
8
1
10
9.582430
20
40.188946
0
SEQEND
0
POLYLINE
8
1
66
1
70
1
0
VERTEX
8
1
10
9.149261
20
26.267620
0
VERTEX
8
1
10
8.829672
20
26.134411
0
VERTEX
8
1
10
8.818882
20
26.461605
42
0.120033
0
VERTEX
8
1
10
8.840940
20
26.636705
42
0.203805
0
VERTEX
8
1
10
8.789251
20
26.707012
0
VERTEX
8
1
10
8.778374
20
26.744076
0
VERTEX
8
1
10
8.769238
20
26.855129
0
VERTEX
8
1
10
8.761355
20
26.966286
42
-0.005001
0
VERTEX
8
1
10
8.688400
20
28.708254
0
VERTEX
8
1
10
9.353931
20
28.758450
0
VERTEX
8
1
10
9.485956
20
28.956921
0
VERTEX
8
1
10
8.744884
20
29.516140
0
VERTEX
8
1
10
8.791979
20
29.556454
42
0.105058
0
VERTEX
8
1
10
8.874331
20
29.571728
42
0.020008
0
VERTEX
8
1
10
9.197884
20
29.757549
0
VERTEX
8
1
10
9.206783
20
29.582241
0
VERTEX
8
1
10
9.929649
20
29.036312
0
VERTEX
8
1
10
9.928627
20
29.032864
0
VERTEX
8
1
10
9.528704
20
28.431591
0
VERTEX
8
1
10
9.025751
20
28.393841
0
VERTEX
8
1
10
9.024430
20
28.364986
42
0.004210
0
VERTEX
8
1
10
9.080274
20
27.060596
0
VERTEX
8
1
10
9.045971
20
27.047024
0
VERTEX
8
1
10
9.147392
20
26.312954
0
SEQEND
0
POLYLINE
8
1
66
1
70
1
0
VERTEX
8
1
10
8.790152
20
28.990002
0
VERTEX
8
1
10
8.753195
20
29.266293
42
-0.031351
0
VERTEX
8
1
10
8.978236
20
29.112814
42
-0.048690
0
VERTEX
8
1
10
9.036161
20
29.048779
0
VERTEX
8
1
10
9.040379
20
29.029613
0
VERTEX
8
1
10
9.018055
20
29.024242
42
0.236089
0
VERTEX
8
1
10
8.902336
20
28.965832
0
SEQEND
0
POLYLINE
8
1
66
1
70
1
0
VERTEX
8
1
10
13.238415
20
35.827648
0
VERTEX
8
1
10
12.842493
20
35.899242
0
VERTEX
8
1
10
12.523924
20
35.555477
0
VERTEX
8
1
10
12.548792
20
35.989864
0
VERTEX
8
1
10
12.269129
20
36.088390
0
VERTEX
8
1
10
12.645729
20
36.339092
0
VERTEX
8
1
10
12.711716
20
36.741009
0
VERTEX
8
1
10
12.930803
20
36.479885
0
VERTEX
8
1
10
13.332605
20
36.496929
0
VERTEX
8
1
10
13.062395
20
36.164623
0
SEQEND
0
POLYLINE
8
1
66
1
70
1
0
VERTEX
8
1
10
11.557289
20
35.770504
0
VERTEX
8
1
10
11.158804
20
35.847668
0
VERTEX
8
1
10
10.840532
20
35.490200
0
VERTEX
8
1
10
10.865389
20
35.943920
0
VERTEX
8
1
10
10.581127
20
36.049725
0
VERTEX
8
1
10
10.962814
20
36.313732
0
VERTEX
8
1
10
11.028610
20
36.732388
0
VERTEX
8
1
10
11.246655
20
36.459942
0
VERTEX
8
1
10
11.653263
20
36.476467
0
VERTEX
8
1
10
11.380077
20
36.126156
0
SEQEND
0
POLYLINE
8
1
66
1
70
1
0
VERTEX
8
1
10
13.938602
20
36.021328
0
VERTEX
8
1
10
14.309656
20
36.259914
0
VERTEX
8
1
10
14.375879
20
36.645611
0
VERTEX
8
1
10
14.596155
20
36.396313
0
VERTEX
8
1
10
14.992422
20
36.415005
0
VERTEX
8
1
10
14.725563
20
36.099972
0
VERTEX
8
1
10
14.900429
20
35.781780
0
VERTEX
8
1
10
14.507044
20
35.846661
0
VERTEX
8
1
10
14.188353
20
35.515697
0
VERTEX
8
1
10
14.213186
20
35.930935
0
SEQEND
0
POLYLINE
8
1
66
1
70
1
0
VERTEX
8
1
10
24.836441
20
32.718426
42
0.050816
0
VERTEX
8
1
10
24.327652
20
32.719524
42
-0.133729
0
VERTEX
8
1
10
24.761185
20
32.852886
0
VERTEX
8
1
10
24.702343
20
32.878246
42
0.074841
0
VERTEX
8
1
10
24.041611
20
33.007870
42
-0.001459
0
VERTEX
8
1
10
23.325418
20
33.037914
42
-0.065952
0
VERTEX
8
1
10
22.749130
20
33.140800
0
VERTEX
8
1
10
22.690487
20
33.160900
0
VERTEX
8
1
10
22.726788
20
33.186352
42
-0.071974
0
VERTEX
8
1
10
23.369129
20
33.293041
42
-0.026271
0
VERTEX
8
1
10
23.969990
20
33.292843
42
0.029217
0
VERTEX
8
1
10
24.680464
20
33.302113
0
VERTEX
8
1
10
24.775932
20
33.311443
0
VERTEX
8
1
10
25.051567
20
33.344540
42
-0.037709
0
VERTEX
8
1
10
25.807106
20
33.374454
42
-0.046422
0
VERTEX
8
1
10
26.217623
20
33.312225
42
-0.069140
0
VERTEX
8
1
10
26.458019
20
33.204067
0
VERTEX
8
1
10
26.466667
20
33.188274
0
VERTEX
8
1
10
25.804485
20
33.116253
42
0.070651
0
VERTEX
8
1
10
25.632107
20
33.077126
42
0.119642
0
VERTEX
8
1
10
25.550682
20
33.009197
0
VERTEX
8
1
10
25.561916
20
33.000973
42
-0.119487
0
VERTEX
8
1
10
27.131374
20
32.437191
0
VERTEX
8
1
10
27.164066
20
32.404736
42
-0.078378
0
VERTEX
8
1
10
26.403986
20
32.414669
42
-0.025308
0
VERTEX
8
1
10
25.698254
20
32.557491
0
VERTEX
8
1
10
25.546535
20
32.592007
42
0.033060
0
SEQEND
0
POLYLINE
8
1
66
1
70
1
0
VERTEX
8
1
10
27.220535
20
36.026623
0
VERTEX
8
1
10
27.220848
20
35.901623
0
VERTEX
8
1
10
27.012348
20
35.901501
0
VERTEX
8
1
10
27.012352
20
35.795681
0
VERTEX
8
1
10
27.140316
20
35.795406
42
-0.292387
0
VERTEX
8
1
10
27.206333
20
35.706844
42
0.005274
0
VERTEX
8
1
10
27.127323
20
34.496826
42
-0.408680
0
VERTEX
8
1
10
26.906788
20
34.320736
0
VERTEX
8
1
10
26.906319
20
34.233990
0
VERTEX
8
1
10
27.081959
20
34.233929
0
VERTEX
8
1
10
27.081959
20
34.109173
0
VERTEX
8
1
10
26.781330
20
34.108974
0
VERTEX
8
1
10
26.781422
20
34.445751
0
VERTEX
8
1
10
26.926708
20
34.445736
42
0.372481
0
VERTEX
8
1
10
27.001465
20
34.505840
42
-0.004605
0
VERTEX
8
1
10
27.078457
20
35.670593
0
VERTEX
8
1
10
26.887486
20
35.670605
0
VERTEX
8
1
10
26.887352
20
35.862041
42
0.045918
0
VERTEX
8
1
10
24.002289
20
35.826595
0
VERTEX
8
1
10
23.936050
20
35.808910
42
-0.047311
0
VERTEX
8
1
10
24.937473
20
35.376156
0
VERTEX
8
1
10
24.850365
20
35.379890
42
-0.008289
0
VERTEX
8
1
10
22.614746
20
35.649269
42
-0.009449
0
VERTEX
8
1
10
22.691406
20
35.458126
42
-0.105047
0
VERTEX
8
1
10
22.693235
20
35.249889
42
-0.211935
0
VERTEX
8
1
10
22.542797
20
35.072247
42
-0.020807
0
VERTEX
8
1
10
22.273920
20
34.955090
42
-0.301497
0
VERTEX
8
1
10
21.978535
20
35.048519
42
-0.014150
0
VERTEX
8
1
10
21.560776
20
35.607189
42
-0.398270
0
VERTEX
8
1
10
19.666794
20
32.760860
0
VERTEX
8
1
10
19.556370
20
32.578716
42
-0.072397
0
VERTEX
8
1
10
18.975658
20
31.866468
42
-0.086022
0
VERTEX
8
1
10
18.474663
20
31.560223
42
0.025921
0
VERTEX
8
1
10
17.770107
20
31.243603
0
VERTEX
8
1
10
17.847212
20
31.800152
0
VERTEX
8
1
10
17.847540
20
31.811260
42
-0.086125
0
VERTEX
8
1
10
17.202948
20
31.911896
42
-0.066270
0
VERTEX
8
1
10
16.443140
20
32.267700
42
-0.030414
0
VERTEX
8
1
10
15.776476
20
32.733898
0
VERTEX
8
1
10
15.747339
20
32.754314
42
0.141468
0
VERTEX
8
1
10
15.293182
20
32.976398
42
0.049816
0
VERTEX
8
1
10
14.668837
20
33.018764
0
VERTEX
8
1
10
14.574656
20
33.018932
0
VERTEX
8
1
10
14.480474
20
33.018871
0
VERTEX
8
1
10
14.692444
20
33.262295
42
0.062279
0
VERTEX
8
1
10
14.987194
20
33.695286
42
0.101581
0
VERTEX
8
1
10
15.095792
20
34.147999
42
0.032047
0
VERTEX
8
1
10
15.096039
20
34.396572
0
VERTEX
8
1
10
15.076508
20
34.795086
42
-0.127239
0
VERTEX
8
1
10
15.305620
20
35.975842
0
VERTEX
8
1
10
15.310333
20
35.995083
42
-0.031984
0
VERTEX
8
1
10
14.992834
20
36.047695
0
VERTEX
8
1
10
15.067846
20
36.160183
42
-0.050030
0
VERTEX
8
1
10
15.365128
20
36.534191
0
VERTEX
8
1
10
15.368755
20
36.866619
0
VERTEX
8
1
10
15.064047
20
36.992519
0
VERTEX
8
1
10
15.452274
20
37.331066
0
VERTEX
8
1
10
15.500517
20
37.827282
0
VERTEX
8
1
10
15.695164
20
37.556133
0
VERTEX
8
1
10
15.748947
20
36.917507
0
VERTEX
8
1
10
15.764826
20
36.838680
42
-0.184077
0
VERTEX
8
1
10
17.256451
20
37.060207
42
0.005366
0
VERTEX
8
1
10
16.916525
20
36.425030
0
VERTEX
8
1
10
16.969816
20
36.432400
42
-0.144426
0
VERTEX
8
1
10
18.003349
20
37.400814
0
VERTEX
8
1
10
17.964445
20
37.407299
42
-0.024212
0
VERTEX
8
1
10
18.132689
20
37.457943
0
VERTEX
8
1
10
18.140892
20
37.441708
42
-0.163338
0
VERTEX
8
1
10
18.201412
20
37.412857
42
-0.331542
0
VERTEX
8
1
10
18.197300
20
37.370892
42
0.149480
0
VERTEX
8
1
10
18.224239
20
37.349773
0
VERTEX
8
1
10
18.217125
20
37.345257
42
0.387263
0
VERTEX
8
1
10
16.869457
20
34.469753
0
VERTEX
8
1
10
16.860514
20
34.456951
42
-0.061395
0
VERTEX
8
1
10
16.314857
20
34.341305
0
VERTEX
8
1
10
16.281666
20
34.348995
0
VERTEX
8
1
10
16.252443
20
34.359234
0
VERTEX
8
1
10
16.217588
20
34.375740
42
-0.290858
0
VERTEX
8
1
10
15.790356
20
35.098434
42
-0.056874
0
VERTEX
8
1
10
15.872428
20
35.479080
42
-0.117996
0
VERTEX
8
1
10
16.084553
20
35.785839
42
0.057561
0
VERTEX
8
1
10
16.321243
20
35.680706
42
0.080568
0
VERTEX
8
1
10
16.415462
20
35.675671
0
VERTEX
8
1
10
16.432833
20
35.681942
0
VERTEX
8
1
10
16.446043
20
35.696529
42
-0.038640
0
VERTEX
8
1
10
16.550287
20
35.949474
42
-0.012143
0
VERTEX
8
1
10
17.069262
20
36.953259
0
VERTEX
8
1
10
17.011213
20
36.961193
0
VERTEX
8
1
10
16.952929
20
36.967125
42
0.165874
0
VERTEX
8
1
10
15.731557
20
36.651485
42
0.024601
0
VERTEX
8
1
10
15.581528
20
36.540630
0
VERTEX
8
1
10
15.453735
20
36.423824
0
VERTEX
8
1
10
15.330959
20
36.288204
0
VERTEX
8
1
10
15.214718
20
36.132427
0
VERTEX
8
1
10
15.218464
20
36.118496
42
0.016100
0
VERTEX
8
1
10
15.525536
20
36.092846
42
0.144745
0
VERTEX
8
1
10
15.204822
20
34.856075
0
VERTEX
8
1
10
15.225555
20
34.431393
42
-0.050668
0
VERTEX
8
1
10
15.211426
20
33.959991
42
-0.104446
0
VERTEX
8
1
10
15.018907
20
33.472767
42
-0.044390
0
VERTEX
8
1
10
14.762014
20
33.130856
42
-0.067511
0
VERTEX
8
1
10
15.446907
20
33.055691
42
-0.115065
0
VERTEX
8
1
10
15.846331
20
32.829113
0
VERTEX
8
1
10
16.023935
20
32.695644
42
0.053245
0
VERTEX
8
1
10
16.918158
20
32.143719
0
VERTEX
8
1
10
17.059042
20
32.083431
0
VERTEX
8
1
10
17.203823
20
32.030392
42
0.079277
0
VERTEX
8
1
10
17.806412
20
31.922741
0
VERTEX
8
1
10
17.959063
20
31.929943
0
VERTEX
8
1
10
17.998566
20
31.913462
42
0.002933
0
VERTEX
8
1
10
17.932629
20
31.450405
42
-0.002725
0
VERTEX
8
1
10
18.533234
20
31.706129
42
0.092501
0
VERTEX
8
1
10
19.013638
20
32.058239
42
0.061896
0
VERTEX
8
1
10
19.473614
20
32.659222
0
VERTEX
8
1
10
19.428564
20
32.683865
42
-0.027400
0
VERTEX
8
1
10
18.471172
20
32.679901
42
-0.051813
0
VERTEX
8
1
10
17.766823
20
32.806927
42
0.006441
0
VERTEX
8
1
10
17.945974
20
32.311062
42
-0.068896
0
VERTEX
8
1
10
17.259914
20
32.542782
42
-0.060041
0
VERTEX
8
1
10
16.917498
20
32.779842
0
VERTEX
8
1
10
16.855461
20
32.843822
42
-0.151564
0
VERTEX
8
1
10
16.642447
20
33.443645
0
VERTEX
8
1
10
16.644505
20
33.475094
42
-0.203297
0
VERTEX
8
1
10
16.732338
20
33.669582
42
-0.041989
0
VERTEX
8
1
10
17.096668
20
33.940823
0
VERTEX
8
1
10
17.144922
20
33.883160
42
0.253188
0
VERTEX
8
1
10
19.113167
20
32.811016
0
VERTEX
8
1
10
19.316416
20
32.818951
0
VERTEX
8
1
10
19.518963
20
32.844402
0
VERTEX
8
1
10
19.715801
20
32.886623
0
VERTEX
8
1
10
19.906181
20
32.944836
0
VERTEX
8
1
10
20.089348
20
33.018353
0
VERTEX
8
1
10
20.264568
20
33.106335
42
0.232554
0
VERTEX
8
1
10
21.452576
20
34.818462
0
VERTEX
8
1
10
21.473888
20
35.022274
42
0.131911
0
VERTEX
8
1
10
21.231895
20
36.218380
0
VERTEX
8
1
10
21.255630
20
36.245510
42
0.008264
0
VERTEX
8
1
10
22.037649
20
35.168468
0
VERTEX
8
1
10
22.078239
20
35.118404
42
0.332749
0
VERTEX
8
1
10
22.255520
20
35.065716
0
VERTEX
8
1
10
22.298893
20
35.083363
42
-0.007447
0
VERTEX
8
1
10
22.468969
20
35.155174
42
0.138711
0
VERTEX
8
1
10
22.564606
20
35.236294
42
0.170463
0
VERTEX
8
1
10
22.575493
20
35.415096
42
0.030441
0
VERTEX
8
1
10
22.248444
20
36.126202
0
VERTEX
8
1
10
22.240467
20
36.147396
0
VERTEX
8
1
10
22.365833
20
36.194118
42
0.030756
0
VERTEX
8
1
10
23.987040
20
36.018658
42
0.037339
0
VERTEX
8
1
10
25.290051
20
36.071468
0
VERTEX
8
1
10
25.437595
20
36.085796
42
-0.029712
0
VERTEX
8
1
10
26.129934
20
36.124729
0
VERTEX
8
1
10
26.220848
20
36.122921
0
VERTEX
8
1
10
26.220848
20
36.080929
0
VERTEX
8
1
10
26.470844
20
36.080502
0
VERTEX
8
1
10
26.470848
20
36.101635
42
-0.059024
0
VERTEX
8
1
10
26.887352
20
35.998699
0
VERTEX
8
1
10
26.887352
20
36.026516
0
SEQEND
0
POLYLINE
8
1
66
1
70
1
0
VERTEX
8
1
10
16.006456
20
36.144588
42
0.127195
0
VERTEX
8
1
10
15.540512
20
36.287457
42
-0.131629
0
VERTEX
8
1
10
15.735250
20
36.516781
42
-0.080104
0
VERTEX
8
1
10
16.113302
20
36.713272
42
-0.056031
0
VERTEX
8
1
10
16.819298
20
36.885357
42
-0.002487
0
VERTEX
8
1
10
16.313675
20
35.831417
0
VERTEX
8
1
10
16.295856
20
35.833080
42
0.133493
0
SEQEND
0
POLYLINE
8
1
66
1
70
1
0
VERTEX
8
1
10
18.511469
20
32.273861
42
-0.022900
0
VERTEX
8
1
10
18.127005
20
32.268658
42
-0.021403
0
VERTEX
8
1
10
18.012222
20
32.568287
42
-0.085252
0
VERTEX
8
1
10
18.009710
20
32.613445
0
VERTEX
8
1
10
18.013792
20
32.616436
42
0.038126
0
VERTEX
8
1
10
18.552389
20
32.563900
42
0.018698
0
VERTEX
8
1
10
19.228207
20
32.559399
0
VERTEX
8
1
10
19.253113
20
32.520275
42
-0.104272
0
VERTEX
8
1
10
18.535057
20
31.830984
42
-0.083348
0
VERTEX
8
1
10
18.085283
20
31.656796
42
-0.118662
0
VERTEX
8
1
10
18.151459
20
31.943310
0
VERTEX
8
1
10
18.181948
20
31.954708
42
0.128848
0
VERTEX
8
1
10
18.581015
20
32.163258
42
0.086318
0
VERTEX
8
1
10
18.666023
20
32.285320
0
VERTEX
8
1
10
18.661625
20
32.294460
42
-0.037804
0
SEQEND
0
POLYLINE
8
1
66
1
70
1
0
VERTEX
8
1
10
28.734478
20
34.233974
0
VERTEX
8
1
10
28.734737
20
34.108974
0
VERTEX
8
1
10
28.304386
20
34.109280
0
VERTEX
8
1
10
28.304386
20
34.454189
0
VERTEX
8
1
10
28.305157
20
34.455349
0
VERTEX
8
1
10
28.528736
20
34.455364
42
0.269139
0
VERTEX
8
1
10
28.544781
20
34.463711
0
VERTEX
8
1
10
28.519794
20
35.041790
0
VERTEX
8
1
10
28.097130
20
34.102505
0
VERTEX
8
1
10
28.094891
20
34.099346
0
VERTEX
8
1
10
27.856731
20
34.099331
0
VERTEX
8
1
10
27.443489
20
35.028667
42
0.010128
0
VERTEX
8
1
10
27.406265
20
34.484966
42
0.388500
0
VERTEX
8
1
10
27.457615
20
34.446117
0
VERTEX
8
1
10
27.609570
20
34.445736
0
VERTEX
8
1
10
27.609695
20
34.108974
0
VERTEX
8
1
10
27.331959
20
34.109081
0
VERTEX
8
1
10
27.331959
20
34.233547
0
VERTEX
8
1
10
27.484566
20
34.233974
0
VERTEX
8
1
10
27.484695
20
34.320736
0
VERTEX
8
1
10
27.462399
20
34.320827
42
-0.453943
0
VERTEX
8
1
10
27.281956
20
34.506134
42
-0.006324
0
VERTEX
8
1
10
27.359322
20
35.525021
0
VERTEX
8
1
10
27.937759
20
34.224331
0
VERTEX
8
1
10
28.014297
20
34.224331
0
VERTEX
8
1
10
28.620129
20
35.569347
0
VERTEX
8
1
10
28.622334
20
35.570141
0
VERTEX
8
1
10
28.669395
20
34.487835
42
-0.399644
0
VERTEX
8
1
10
28.550125
20
34.330364
0
VERTEX
8
1
10
28.429382
20
34.330288
0
VERTEX
8
1
10
28.429386
20
34.234295
0
SEQEND
0
POLYLINE
8
1
66
1
70
1
0
VERTEX
8
1
10
29.984737
20
31.912411
0
VERTEX
8
1
10
29.984737
20
31.787670
0
VERTEX
8
1
10
29.864628
20
31.784466
0
VERTEX
8
1
10
29.842907
20
31.784447
42
-0.321834
0
VERTEX
8
1
10
28.916275
20
32.645641
0
VERTEX
8
1
10
28.915152
20
32.696423
0
VERTEX
8
1
10
28.915964
20
32.747211
42
-0.339256
0
VERTEX
8
1
10
29.701492
20
33.745636
42
-0.049610
0
VERTEX
8
1
10
29.929176
20
33.784359
0
VERTEX
8
1
10
29.929180
20
33.659222
42
0.142839
0
VERTEX
8
1
10
29.404831
20
33.467133
42
0.213614
0
VERTEX
8
1
10
29.044735
20
32.808025
0
VERTEX
8
1
10
29.040009
20
32.711834
0
VERTEX
8
1
10
29.045898
20
32.639202
42
0.282490
0
VERTEX
8
1
10
29.745052
20
31.930536
0
VERTEX
8
1
10
29.850494
20
31.909435
42
0.009662
0
SEQEND
0
POLYLINE
8
1
66
1
70
1
0
VERTEX
8
1
10
30.941208
20
32.582607
42
-0.011619
0
VERTEX
8
1
10
30.695744
20
31.774853
0
VERTEX
8
1
10
30.607243
20
31.792538
42
0.119037
0
VERTEX
8
1
10
30.245853
20
31.804043
0
VERTEX
8
1
10
30.235249
20
31.803432
0
VERTEX
8
1
10
30.234737
20
31.928555
42
-0.100487
0
VERTEX
8
1
10
30.568626
20
31.929251
0
VERTEX
8
1
10
30.608040
20
31.919872
0
VERTEX
8
1
10
30.621347
20
31.947659
42
0.004714
0
VERTEX
8
1
10
30.765869
20
32.429913
0
VERTEX
8
1
10
30.640976
20
32.410702
42
-0.138071
0
VERTEX
8
1
10
30.348200
20
32.085613
42
-0.137950
0
VERTEX
8
1
10
30.132011
20
32.033276
42
-0.196458
0
VERTEX
8
1
10
30.008099
20
32.036026
42
-0.104273
0
VERTEX
8
1
10
29.635700
20
32.247650
42
-0.174989
0
VERTEX
8
1
10
29.436504
20
32.651314
42
-0.176655
0
VERTEX
8
1
10
29.554764
20
33.249149
42
-0.191413
0
VERTEX
8
1
10
29.904745
20
33.512291
42
-0.209193
0
VERTEX
8
1
10
30.329023
20
33.442848
42
-0.141298
0
VERTEX
8
1
10
30.572281
20
33.178570
0
VERTEX
8
1
10
30.610428
20
33.097393
0
VERTEX
8
1
10
30.698803
20
33.104992
0
VERTEX
8
1
10
30.679089
20
33.586758
0
VERTEX
8
1
10
30.631855
20
33.586742
0
VERTEX
8
1
10
30.634689
20
33.582119
42
-0.676020
0
VERTEX
8
1
10
30.619164
20
33.557911
42
-0.122463
0
VERTEX
8
1
10
30.571526
20
33.565456
42
0.050246
0
VERTEX
8
1
10
30.179180
20
33.655910
0
VERTEX
8
1
10
30.179180
20
33.781277
42
-0.047986
0
VERTEX
8
1
10
30.517834
20
33.712200
0
VERTEX
8
1
10
30.798641
20
33.711742
0
VERTEX
8
1
10
30.799732
20
33.709087
0
VERTEX
8
1
10
30.828499
20
32.990139
0
VERTEX
8
1
10
30.527554
20
32.965481
0
VERTEX
8
1
10
30.501694
20
33.030773
42
0.153177
0
VERTEX
8
1
10
30.275448
20
33.331585
0
VERTEX
8
1
10
30.250299
20
33.346703
42
0.338540
0
VERTEX
8
1
10
29.741062
20
33.278343
0
VERTEX
8
1
10
29.717674
20
33.254829
0
VERTEX
8
1
10
29.695852
20
33.229855
0
VERTEX
8
1
10
29.675686
20
33.203526
42
0.241273
0
VERTEX
8
1
10
29.602425
20
32.507523
42
0.151163
0
VERTEX
8
1
10
29.809139
20
32.270588
42
0.079616
0
VERTEX
8
1
10
30.068756
20
32.147152
0
VERTEX
8
1
10
30.124237
20
32.158978
42
0.211258
0
VERTEX
8
1
10
30.355034
20
32.242809
42
0.106082
0
VERTEX
8
1
10
30.556709
20
32.523510
0
VERTEX
8
1
10
30.939697
20
32.583111
0
SEQEND
0
POLYLINE
8
1
66
1
0
VERTEX
8
1
10
20.664948
20
32.786343
0
VERTEX
8
1
10
20.784138
20
32.778839
0
VERTEX
8
1
10
20.903458
20
32.773754
42
-0.003382
0
VERTEX
8
1
10
21.631844
20
32.761753
42
-0.020778
0
VERTEX
8
1
10
22.022305
20
32.727474
42
0.019948
0
VERTEX
8
1
10
23.228094
20
32.642410
42
-0.005670
0
VERTEX
8
1
10
23.867414
20
32.610638
0
SEQEND
0
POLYLINE
8
1
66
1
0
VERTEX
8
1
10
22.540138
20
29.952724
42
-0.070738
0
VERTEX
8
1
10
20.184875
20
29.871935
42
-0.021867
0
VERTEX
8
1
10
19.271982
20
30.006466
42
0.013193
0
VERTEX
8
1
10
18.827692
20
30.070166
42
0.022769
0
VERTEX
8
1
10
18.623079
20
30.077740
0
SEQEND
0
ARC
8
1
10
12.161415
20
-89.190186
40
121.261988
50
83.781769
51
86.481730
0
POLYLINE
8
1
66
1
0
VERTEX
8
1
10
19.164799
20
30.827816
42
0.034972
0
VERTEX
8
1
10
20.882999
20
30.671515
42
0.009436
0
VERTEX
8
1
10
21.959013
20
30.661880
42
-0.022516
0
VERTEX
8
1
10
23.084637
20
30.602459
0
VERTEX
8
1
10
23.271431
20
30.585888
0
SEQEND
0
POLYLINE
8
1
66
1
0
VERTEX
8
1
10
10.127987
20
29.521069
42
-0.023086
0
VERTEX
8
1
10
11.638618
20
30.033295
42
-0.037566
0
VERTEX
8
1
10
12.878496
20
30.273907
0
SEQEND
0
ARC
8
1
10
20.769917
20
1.790925
40
30.863074
50
120.316768
51
121.357420
0
POLYLINE
8
1
66
1
0
VERTEX
8
1
10
14.441801
20
31.344997
42
0.038182
0
VERTEX
8
1
10
13.443853
20
31.353254
42
0.047472
0
VERTEX
8
1
10
11.308621
20
31.028835
42
0.032706
0
VERTEX
8
1
10
9.154134
20
30.356472
0
SEQEND
0
ARC
8
1
10
-3.566933
20
-134.148438
40
166.470451
50
82.990570
51
83.311449
0
POLYLINE
8
1
66
1
0
VERTEX
8
1
10
17.574276
20
41.225689
0
VERTEX
8
1
10
17.211388
20
41.351498
42
0.021427
0
VERTEX
8
1
10
16.541777
20
41.549805
42
0.041888
0
VERTEX
8
1
10
16.011497
20
41.631859
42
0.043055
0
VERTEX
8
1
10
15.703466
20
41.617504
0
SEQEND
0
POLYLINE
8
1
66
1
0
VERTEX
8
1
10
22.233421
20
40.497662
0
VERTEX
8
1
10
22.185570
20
40.482178
42
-0.077894
0
VERTEX
8
1
10
21.186913
20
40.353565
42
-0.032553
0
VERTEX
8
1
10
20.142086
20
40.426235
0
SEQEND
0
POLYLINE
8
1
66
1
0
VERTEX
8
1
10
9.670474
20
31.656384
42
-0.089274
0
VERTEX
8
1
10
13.875522
20
32.360302
42
-0.048764
0
VERTEX
8
1
10
16.100420
20
32.106792
0
SEQEND
0
ARC
8
1
10
29.167505
20
-14.857375
40
50.481847
50
117.173312
51
118.469114
0
ARC
8
1
10
19.013033
20
2.860148
40
31.257438
50
114.425913
51
115.769494
0
POLYLINE
8
1
66
1
0
VERTEX
8
1
10
14.205969
20
33.411404
42
0.050359
0
VERTEX
8
1
10
11.895792
20
33.223583
42
0.022056
0
VERTEX
8
1
10
10.513540
20
32.919003
0
SEQEND
0
ARC
8
1
10
16.316298
20
28.571796
40
9.513556
50
82.105505
51
92.169553
0
ARC
8
1
10
13.157062
20
21.064253
40
13.330377
50
83.339776
51
105.037666
0
ARC
8
1
10
13.786436
20
15.680483
40
19.676969
50
113.262983
51
116.920977
0
POLYLINE
8
1
66
1
0
VERTEX
8
1
10
14.627241
20
35.205822
0
VERTEX
8
1
10
14.454241
20
35.222569
42
0.071371
0
VERTEX
8
1
10
9.870229
20
34.963238
0
SEQEND
0
ARC
8
1
10
24.685699
20
32.023659
40
7.508287
50
98.135336
51
100.868174
0
POLYLINE
8
1
66
1
0
VERTEX
8
1
10
28.999111
20
38.370235
42
0.047486
0
VERTEX
8
1
10
26.195744
20
39.175335
42
-0.017785
0
VERTEX
8
1
10
25.985966
20
39.244183
0
SEQEND
0
POLYLINE
8
1
66
1
0
VERTEX
8
1
10
27.453997
20
38.026379
42
-0.008627
0
VERTEX
8
1
10
29.564072
20
37.300686
42
0.005576
0
VERTEX
8
1
10
30.594200
20
36.951653
42
0.017599
0
VERTEX
8
1
10
31.467449
20
36.712429
0
SEQEND
0
POLYLINE
8
1
66
1
0
VERTEX
8
1
10
23.831932
20
38.245220
0
VERTEX
8
1
10
23.762165
20
38.248329
42
0.087821
0
VERTEX
8
1
10
23.109550
20
38.162395
0
VERTEX
8
1
10
23.058161
20
38.143906
0
VERTEX
8
1
10
23.007469
20
38.123577
42
-0.104582
0
VERTEX
8
1
10
22.594799
20
38.022625
0
VERTEX
8
1
10
22.518505
20
38.017635
42
-0.025727
0
VERTEX
8
1
10
21.584892
20
38.045315
0
SEQEND
0
POLYLINE
8
1
66
1
0
VERTEX
8
1
10
25.248638
20
37.242962
42
0.047364
0
VERTEX
8
1
10
24.233896
20
37.379417
42
0.039777
0
VERTEX
8
1
10
23.731506
20
37.354443
42
0.041196
0
VERTEX
8
1
10
23.456894
20
37.286785
0
SEQEND
0
ARC
8
1
10
23.698387
20
25.489023
40
11.897754
50
65.271161
51
71.471431
0
POLYLINE
8
1
66
1
0
VERTEX
8
1
10
29.457493
20
35.119915
42
-0.022896
0
VERTEX
8
1
10
30.039391
20
34.958965
42
-0.004543
0
VERTEX
8
1
10
30.786303
20
34.720181
42
0.013878
0
VERTEX
8
1
10
31.180380
20
34.612156
42
0.040397
0
VERTEX
8
1
10
31.457691
20
34.578182
0
SEQEND
0
ARC
8
1
10
23.999487
20
31.556099
40
4.973392
50
75.452246
51
96.746578
0
POLYLINE
8
1
66
1
0
VERTEX
8
1
10
26.707272
20
34.953579
0
VERTEX
8
1
10
26.638264
20
34.967445
42
0.057135
0
VERTEX
8
1
10
25.897497
20
35.011284
42
0.056119
0
VERTEX
8
1
10
25.010244
20
34.873604
42
0.050767
0
VERTEX
8
1
10
24.718473
20
34.755348
42
-0.054462
0
VERTEX
8
1
10
24.302086
20
34.618835
42
-0.070334
0
VERTEX
8
1
10
24.146481
20
34.616039
0
VERTEX
8
1
10
24.102545
20
34.609497
42
-0.049201
0
VERTEX
8
1
10
23.379005
20
34.577526
42
-0.021918
0
VERTEX
8
1
10
22.038883
20
34.693584
0
SEQEND
0
POLYLINE
8
1
66
1
0
VERTEX
8
1
10
32.374451
20
33.619762
42
-0.020492
0
VERTEX
8
1
10
31.235878
20
33.882221
42
-0.011002
0
VERTEX
8
1
10
29.665848
20
34.328167
0
SEQEND
0
POLYLINE
8
1
66
1
0
VERTEX
8
1
10
28.884060
20
33.533169
0
VERTEX
8
1
10
28.786201
20
33.558529
42
0.046749
0
VERTEX
8
1
10
26.645235
20
33.937695
42
0.047059
0
VERTEX
8
1
10
25.576572
20
33.910927
42
0.053160
0
VERTEX
8
1
10
25.128510
20
33.799847
42
-0.712180
0
VERTEX
8
1
10
25.129765
20
33.785061
42
-0.080272
0
VERTEX
8
1
10
24.969906
20
33.745602
42
-0.018432
0
VERTEX
8
1
10
24.034698
20
33.658318
42
-0.026133
0
VERTEX
8
1
10
23.375292
20
33.668545
42
-0.010987
0
VERTEX
8
1
10
21.668383
20
33.818157
0
SEQEND
0
ARC
8
1
10
26.422218
20
24.040869
40
8.836498
50
76.128448
51
87.610995
0
ARC
8
1
10
44.571739
20
91.856186
40
61.575881
50
-102.681625
51
-100.792785
0
ARC
8
1
10
26.173513
20
20.420820
40
11.492979
50
80.402205
51
88.793438
0
POLYLINE
8
1
66
1
0
VERTEX
8
1
10
30.371597
20
31.158138
0
VERTEX
8
1
10
30.339220
20
31.166912
42
0.008171
0
VERTEX
8
1
10
29.465683
20
31.441204
0
SEQEND
0
POLYLINE
8
1
66
1
0
VERTEX
8
1
10
17.581306
20
42.120602
42
0.019948
0
VERTEX
8
1
10
15.816327
20
42.630009
0
VERTEX
8
1
10
15.655966
20
42.666595
0
VERTEX
8
1
10
15.495113
20
42.700954
0
SEQEND
0
ARC
8
1
10
22.704466
20
-1.823822
40
32.676479
50
112.376571
51
113.860354
0
LINE
8
1
10
15.581106
20
39.620358
11
16.039486
21
39.620358
0
ARC
8
1
10
35.104042
20
41.186066
40
9.126395
50
-115.562831
51
-102.795154
0
POLYLINE
8
1
66
1
0
VERTEX
8
1
10
7.146425
20
39.817104
42
-0.064925
0
VERTEX
8
1
10
7.658659
20
39.759533
42
-0.059924
0
VERTEX
8
1
10
7.859980
20
39.674084
0
SEQEND
0
LINE
8
1
10
7.623903
20
37.998470
11
7.957087
21
38.009548
0
LINE
8
1
10
8.712189
20
35.366299
11
8.583139
21
36.737896
0
POLYLINE
8
1
66
1
0
VERTEX
8
1
10
6.985217
20
35.892513
42
-0.048348
0
VERTEX
8
1
10
7.169924
20
35.297474
42
-0.057297
0
VERTEX
8
1
10
7.178150
20
35.106747
0
SEQEND
0
LINE
8
1
10
8.052858
20
37.637508
11
8.229053
21
34.849865
0
POLYLINE
8
1
66
1
0
VERTEX
8
1
10
8.533163
20
36.986385
42
0.124972
0
VERTEX
8
1
10
8.596079
20
36.906635
42
0.353403
0
VERTEX
8
1
10
8.690504
20
36.925117
42
0.084313
0
VERTEX
8
1
10
8.741402
20
36.993313
0
SEQEND
0
POLYLINE
8
1
66
1
0
VERTEX
8
1
10
7.690269
20
37.818981
0
VERTEX
8
1
10
7.368214
20
37.474743
42
-0.006032
0
VERTEX
8
1
10
7.467172
20
36.171749
0
SEQEND
0
POLYLINE
8
1
66
1
0
VERTEX
8
1
10
7.227480
20
35.858059
0
VERTEX
8
1
10
7.587465
20
35.897823
0
VERTEX
8
1
10
7.624473
20
35.621136
0
VERTEX
8
1
10
7.294090
20
35.526745
0
SEQEND
0
ARC
8
1
10
7.892297
20
37.478554
40
3.243733
50
-91.953331
51
-79.653691
0
LINE
8
1
10
8.315689
20
34.059917
11
8.600527
21
29.678097
0
LINE
8
1
10
7.793173
20
33.917767
11
8.127647
21
33.914181
0
LINE
8
1
10
7.809267
20
33.696133
11
8.143740
21
33.692562
0
LINE
8
1
10
7.825360
20
33.474483
11
8.159819
21
33.470913
0
LINE
8
1
10
7.841453
20
33.252850
11
8.175919
21
33.249264
0
LINE
8
1
10
7.857532
20
33.031216
11
8.192005
21
33.027645
0
LINE
8
1
10
7.873618
20
32.809566
11
8.208092
21
32.805996
0
LINE
8
1
10
7.889718
20
32.587933
11
8.224186
21
32.584362
0
LINE
8
1
10
7.905804
20
32.366299
11
8.240271
21
32.362728
0
LINE
8
1
10
7.921897
20
32.144650
11
8.256365
21
32.141079
0
LINE
8
1
10
7.937991
20
31.923016
11
8.272449
21
31.919445
0
LINE
8
1
10
7.954076
20
31.701366
11
8.288549
21
31.697811
0
LINE
8
1
10
7.970163
20
31.479733
11
8.304636
21
31.476162
0
LINE
8
1
10
7.986248
20
31.258099
11
8.320715
21
31.254528
0
LINE
8
1
10
8.002348
20
31.036449
11
8.336807
21
31.032894
0
LINE
8
1
10
8.018435
20
30.814816
11
8.352900
21
30.811245
0
LINE
8
1
10
8.034521
20
30.593166
11
8.368994
21
30.589611
0
LINE
8
1
10
8.050613
20
30.371548
11
8.385080
21
30.367977
0
LINE
8
1
10
8.066700
20
30.149914
11
8.401165
21
30.146328
0
LINE
8
1
10
8.082792
20
29.928265
11
8.417259
21
29.924694
0
LINE
8
1
10
8.098879
20
29.706631
11
8.433344
21
29.703045
0
POLYLINE
8
1
66
1
0
VERTEX
8
1
10
8.146120
20
29.134899
0
VERTEX
8
1
10
8.129328
20
29.135876
42
0.182752
0
VERTEX
8
1
10
8.245987
20
29.081707
0
VERTEX
8
1
10
8.269073
20
29.086117
0
VERTEX
8
1
10
8.286802
20
29.099972
42
-0.199472
0
VERTEX
8
1
10
8.315473
20
29.057156
0
SEQEND
0
POLYLINE
8
1
66
1
0
VERTEX
8
1
10
6.040277
20
38.125347
42
-0.139908
0
VERTEX
8
1
10
6.039006
20
37.754471
42
-0.231580
0
VERTEX
8
1
10
5.863493
20
37.591396
0
SEQEND
0
POLYLINE
8
1
66
1
0
VERTEX
8
1
10
5.127880
20
39.651409
42
0.433985
0
VERTEX
8
1
10
5.197427
20
39.527679
42
0.113933
0
VERTEX
8
1
10
5.386807
20
39.495556
0
VERTEX
8
1
10
5.439695
20
39.496105
42
0.085399
0
VERTEX
8
1
10
6.387921
20
39.726391
42
0.035785
0
VERTEX
8
1
10
6.886377
20
40.009060
42
-0.085158
0
VERTEX
8
1
10
7.094994
20
40.100433
42
-0.112671
0
VERTEX
8
1
10
7.305569
20
40.093922
42
-0.054696
0
VERTEX
8
1
10
7.538981
20
40.021099
0
VERTEX
8
1
10
7.780257
20
39.923000
0
VERTEX
8
1
10
7.816195
20
39.909012
42
0.086653
0
VERTEX
8
1
10
8.156466
20
39.834953
0
VERTEX
8
1
10
8.195524
20
39.835587
0
VERTEX
8
1
10
8.234499
20
39.838223
0
SEQEND
0
POLYLINE
8
1
66
1
0
VERTEX
8
1
10
6.647382
20
39.090542
0
VERTEX
8
1
10
6.828751
20
38.651897
0
VERTEX
8
1
10
6.689930
20
38.647274
0
SEQEND
0
POLYLINE
8
1
66
1
0
VERTEX
8
1
10
7.974293
20
35.966290
0
VERTEX
8
1
10
7.753115
20
35.931133
0
VERTEX
8
1
10
7.762358
20
35.653515
0
VERTEX
8
1
10
7.928931
20
35.659069
0
SEQEND
0
POLYLINE
8
1
66
1
0
VERTEX
8
1
10
7.742948
20
36.236538
42
-0.134983
0
VERTEX
8
1
10
7.855295
20
36.323063
42
-0.311141
0
VERTEX
8
1
10
7.922431
20
36.295574
0
VERTEX
8
1
10
7.936363
20
36.270763
0
SEQEND
0
ARC
8
1
10
7.900914
20
36.139706
40
1.542095
50
-92.812600
51
-71.953501
0
POLYLINE
8
1
66
1
0
VERTEX
8
1
10
8.357092
20
28.641659
0
VERTEX
8
1
10
8.510630
20
26.534481
0
VERTEX
8
1
10
8.574465
20
26.286449
0
SEQEND
0
POLYLINE
8
1
66
1
0
VERTEX
8
1
10
6.296205
20
28.767590
42
0.006694
0
VERTEX
8
1
10
6.386372
20
28.570971
42
0.196873
0
VERTEX
8
1
10
6.420662
20
28.553112
42
-0.006763
0
VERTEX
8
1
10
6.642294
20
28.389996
0
SEQEND
0
POLYLINE
8
1
66
1
0
VERTEX
8
1
10
6.395204
20
28.298412
42
0.098649
0
VERTEX
8
1
10
6.713822
20
27.960644
42
-0.176441
0
VERTEX
8
1
10
6.684850
20
27.946743
0
SEQEND
0
POLYLINE
8
1
66
1
0
VERTEX
8
1
10
6.493288
20
27.856976
0
VERTEX
8
1
10
6.469717
20
27.850079
42
0.153045
0
VERTEX
8
1
10
6.497360
20
27.805820
42
-0.078566
0
VERTEX
8
1
10
6.558115
20
27.691690
42
0.144558
0
VERTEX
8
1
10
6.663102
20
27.586033
42
-0.008333
0
VERTEX
8
1
10
6.771580
20
27.503521
0
VERTEX
8
1
10
6.755155
20
27.504375
0
SEQEND
0
POLYLINE
8
1
66
1
0
VERTEX
8
1
10
6.522593
20
27.380703
42
-0.091250
0
VERTEX
8
1
10
6.592237
20
27.244272
42
0.129399
0
VERTEX
8
1
10
6.681260
20
27.126574
42
0.038654
0
VERTEX
8
1
10
6.820406
20
27.019573
0
VERTEX
8
1
10
6.823940
20
27.013165
0
VERTEX
8
1
10
6.799555
20
27.005581
0
SEQEND
0
POLYLINE
8
1
66
1
0
VERTEX
8
1
10
6.519166
20
27.079632
42
0.181120
0
VERTEX
8
1
10
6.547414
20
27.000563
42
0.117728
0
VERTEX
8
1
10
6.763305
20
26.787487
0
VERTEX
8
1
10
6.779191
20
26.782558
0
SEQEND
0
POLYLINE
8
1
66
1
0
VERTEX
8
1
10
6.448814
20
26.688183
42
-0.141447
0
VERTEX
8
1
10
6.506075
20
26.584270
42
0.109929
0
VERTEX
8
1
10
6.594782
20
26.456509
42
0.136695
0
VERTEX
8
1
10
6.646269
20
26.439220
0
VERTEX
8
1
10
6.652386
20
26.417034
0
SEQEND
0
POLYLINE
8
1
66
1
0
VERTEX
8
1
10
6.263715
20
26.404095
0
VERTEX
8
1
10
6.285446
20
26.400341
42
-0.068565
0
VERTEX
8
1
10
6.296207
20
26.328594
42
0.148661
0
VERTEX
8
1
10
6.390118
20
26.160259
0
VERTEX
8
1
10
6.456292
20
26.103420
0
VERTEX
8
1
10
6.440458
20
26.104229
0
SEQEND
0
POLYLINE
8
1
66
1
0
VERTEX
8
1
10
6.957888
20
28.928585
42
0.132504
0
VERTEX
8
1
10
6.833928
20
28.997488
42
0.388052
0
VERTEX
8
1
10
6.774601
20
28.947386
42
0.124281
0
VERTEX
8
1
10
6.771053
20
28.820965
0
VERTEX
8
1
10
6.781370
20
28.768291
42
-0.026895
0
VERTEX
8
1
10
6.962907
20
27.824677
42
-0.043997
0
VERTEX
8
1
10
6.981017
20
27.117306
42
-0.052862
0
VERTEX
8
1
10
6.899755
20
26.677313
42
-0.091943
0
VERTEX
8
1
10
6.659019
20
26.217403
0
VERTEX
8
1
10
6.565004
20
26.115551
0
VERTEX
8
1
10
6.456422
20
26.023525
0
VERTEX
8
1
10
6.332420
20
25.942364
0
VERTEX
8
1
10
6.192142
20
25.873135
0
VERTEX
8
1
10
6.117534
20
25.834454
42
0.294290
0
VERTEX
8
1
10
6.293138
20
25.651808
42
0.133092
0
VERTEX
8
1
10
6.543401
20
25.644253
0
VERTEX
8
1
10
6.592977
20
25.653988
42
0.018413
0
VERTEX
8
1
10
7.310331
20
25.855282
0
SEQEND
0
POLYLINE
8
1
66
1
0
VERTEX
8
1
10
8.251522
20
26.803783
0
VERTEX
8
1
10
7.552804
20
26.085690
0
VERTEX
8
1
10
7.874826
20
25.596142
0
SEQEND
0
POLYLINE
8
1
66
1
0
VERTEX
8
1
10
6.131377
20
26.205135
42
-0.116340
0
VERTEX
8
1
10
5.627624
20
25.914885
42
-0.049963
0
VERTEX
8
1
10
5.259887
20
25.832714
42
0.010399
0
VERTEX
8
1
10
4.997027
20
25.785990
42
0.100654
0
VERTEX
8
1
10
4.828501
20
25.713190
42
0.198896
0
VERTEX
8
1
10
4.735828
20
25.547222
0
SEQEND
0
POLYLINE
8
1
66
1
0
VERTEX
8
1
10
8.459684
20
25.560024
0
VERTEX
8
1
10
8.446400
20
25.552181
42
-0.058010
0
VERTEX
8
1
10
8.246769
20
25.500942
0
VERTEX
8
1
10
8.166128
20
25.483593
42
0.079906
0
VERTEX
8
1
10
7.538354
20
25.260420
42
-0.009553
0
VERTEX
8
1
10
7.208290
20
25.095545
0
VERTEX
8
1
10
7.157058
20
25.075178
0
VERTEX
8
1
10
7.105105
20
25.056728
42
-0.157012
0
VERTEX
8
1
10
6.788236
20
25.042950
0
VERTEX
8
1
10
6.704280
20
25.057278
42
0.005163
0
VERTEX
8
1
10
5.046272
20
25.284451
42
0.028435
0
VERTEX
8
1
10
4.660936
20
25.294582
0
VERTEX
8
1
10
4.587008
20
25.014156
0
VERTEX
8
1
10
4.695200
20
25.007099
42
-0.032532
0
VERTEX
8
1
10
5.590327
20
24.896847
0
VERTEX
8
1
10
5.650893
20
24.887905
42
0.039806
0
VERTEX
8
1
10
7.022589
20
24.862572
42
0.025408
0
VERTEX
8
1
10
7.303196
20
24.900448
42
-0.114199
0
VERTEX
8
1
10
7.892409
20
24.958172
0
VERTEX
8
1
10
8.536467
20
24.923321
0
SEQEND
0
POLYLINE
8
1
66
1
0
VERTEX
8
1
10
7.214215
20
28.742565
0
VERTEX
8
1
10
7.192814
20
28.737392
42
0.082769
0
VERTEX
8
1
10
7.185226
20
28.661846
0
VERTEX
8
1
10
7.192979
20
28.549328
42
0.071798
0
VERTEX
8
1
10
7.219239
20
28.431519
0
VERTEX
8
1
10
7.223644
20
28.408283
42
-0.019668
0
VERTEX
8
1
10
7.229369
20
28.309162
42
0.298433
0
VERTEX
8
1
10
7.281563
20
28.253201
42
-0.005052
0
VERTEX
8
1
10
7.497622
20
28.196865
42
0.096342
0
VERTEX
8
1
10
7.575946
20
28.200117
42
-0.138680
0
VERTEX
8
1
10
7.656232
20
28.181644
42
0.124499
0
VERTEX
8
1
10
7.795278
20
28.158577
0
VERTEX
8
1
10
7.828615
20
28.157595
0
VERTEX
8
1
10
7.861951
20
28.156565
42
-0.022288
0
VERTEX
8
1
10
8.028714
20
28.102732
42
0.109067
0
VERTEX
8
1
10
8.101545
20
28.108896
42
-0.222193
0
VERTEX
8
1
10
8.166302
20
28.084093
42
0.204783
0
VERTEX
8
1
10
8.209007
20
28.080853
0
SEQEND
0
POLYLINE
8
1
66
1
0
VERTEX
8
1
10
7.405750
20
27.998516
42
-0.189779
0
VERTEX
8
1
10
7.453287
20
27.990881
42
-0.067833
0
VERTEX
8
1
10
7.517087
20
27.953182
0
VERTEX
8
1
10
7.558465
20
27.929790
42
0.237406
0
VERTEX
8
1
10
7.666949
20
27.900255
0
VERTEX
8
1
10
7.688586
20
27.900351
0
VERTEX
8
1
10
7.710221
20
27.899990
42
-0.252807
0
VERTEX
8
1
10
7.813492
20
27.795788
42
0.094017
0
VERTEX
8
1
10
7.880827
20
27.672924
0
VERTEX
8
1
10
7.890740
20
27.665554
0
VERTEX
8
1
10
7.888795
20
27.681087
0
SEQEND
0
POLYLINE
8
1
66
1
0
VERTEX
8
1
10
7.363161
20
27.607998
42
0.058955
0
VERTEX
8
1
10
7.490959
20
27.514004
0
VERTEX
8
1
10
7.628719
20
27.439419
42
-0.060168
0
VERTEX
8
1
10
7.754620
20
27.353245
42
0.111295
0
VERTEX
8
1
10
7.922549
20
27.286785
42
-0.165264
0
VERTEX
8
1
10
8.007746
20
27.234097
0
VERTEX
8
1
10
8.019152
20
27.225628
42
-0.171254
0
VERTEX
8
1
10
8.190733
20
27.059341
42
0.062515
0
VERTEX
8
1
10
8.262623
20
26.968853
0
VERTEX
8
1
10
8.245974
20
26.970364
0
SEQEND
0
POLYLINE
8
1
66
1
0
VERTEX
8
1
10
7.201167
20
26.629848
0
VERTEX
8
1
10
7.217744
20
26.627331
42
-0.056496
0
VERTEX
8
1
10
7.333135
20
26.567440
42
-0.091040
0
VERTEX
8
1
10
7.455972
20
26.490673
42
0.194811
0
VERTEX
8
1
10
7.577425
20
26.476677
42
-0.199530
0
VERTEX
8
1
10
7.639771
20
26.454464
0
VERTEX
8
1
10
7.623150
20
26.477139
0
SEQEND
0
POLYLINE
8
1
66
1
0
VERTEX
8
1
10
6.493315
20
28.690762
42
0.241758
0
VERTEX
8
1
10
6.539873
20
28.732573
42
-0.008554
0
VERTEX
8
1
10
6.574311
20
28.789852
0
VERTEX
8
1
10
6.585915
20
28.799435
0
VERTEX
8
1
10
6.600669
20
28.805508
0
SEQEND
0
POLYLINE
8
1
66
1
0
VERTEX
8
1
10
6.432061
20
29.030590
42
0.101679
0
VERTEX
8
1
10
6.497678
20
28.991648
42
-0.031773
0
VERTEX
8
1
10
6.598853
20
28.929150
0
VERTEX
8
1
10
6.616030
20
28.910381
0
VERTEX
8
1
10
6.625659
20
28.889736
0
SEQEND
0
POLYLINE
8
1
66
1
0
VERTEX
8
1
10
6.757041
20
28.282650
0
VERTEX
8
1
10
6.738264
20
28.277569
0
VERTEX
8
1
10
6.734266
20
28.274212
0
VERTEX
8
1
10
6.726624
20
28.236080
0
VERTEX
8
1
10
6.720955
20
28.229931
0
VERTEX
8
1
10
6.682902
20
28.220287
42
0.235704
0
VERTEX
8
1
10
6.677458
20
28.168835
0
SEQEND
0
POLYLINE
8
1
66
1
0
VERTEX
8
1
10
6.826432
20
27.868069
42
0.321640
0
VERTEX
8
1
10
6.784395
20
27.827749
42
-0.176987
0
VERTEX
8
1
10
6.700753
20
27.751278
0
VERTEX
8
1
10
6.719078
20
27.753323
0
SEQEND
0
POLYLINE
8
1
66
1
0
VERTEX
8
1
10
6.843989
20
27.340588
0
VERTEX
8
1
10
6.845495
20
27.355740
42
0.000099
0
VERTEX
8
1
10
6.732318
20
27.293938
0
VERTEX
8
1
10
6.733861
20
27.309124
0
SEQEND
0
POLYLINE
8
1
66
1
0
VERTEX
8
1
10
5.961211
20
28.812008
0
VERTEX
8
1
10
5.983774
20
28.807384
0
VERTEX
8
1
10
5.990770
20
28.783520
42
0.090143
0
VERTEX
8
1
10
6.066222
20
28.704250
0
VERTEX
8
1
10
6.085375
20
28.685513
42
-0.290617
0
VERTEX
8
1
10
6.106495
20
28.622295
0
SEQEND
0
POLYLINE
8
1
66
1
0
VERTEX
8
1
10
5.916778
20
28.477016
0
VERTEX
8
1
10
5.914689
20
28.493710
42
-0.139292
0
VERTEX
8
1
10
5.952435
20
28.437330
42
0.110032
0
VERTEX
8
1
10
6.063134
20
28.298260
0
VERTEX
8
1
10
6.061139
20
28.315075
0
SEQEND
0
POLYLINE
8
1
66
1
0
VERTEX
8
1
10
5.928794
20
28.116116
0
VERTEX
8
1
10
5.926920
20
28.131863
42
0.153568
0
VERTEX
8
1
10
6.035647
20
28.068829
0
VERTEX
8
1
10
6.040766
20
28.092052
0
SEQEND
0
POLYLINE
8
1
66
1
0
VERTEX
8
1
10
5.855674
20
27.807949
42
0.222832
0
VERTEX
8
1
10
5.915625
20
27.740471
42
0.043591
0
VERTEX
8
1
10
5.998178
20
27.701519
0
SEQEND
0
ARC
8
1
10
5.973151
20
27.587782
40
0.209930
50
-155.221547
51
-116.118174
0
POLYLINE
8
1
66
1
0
VERTEX
8
1
10
5.708505
20
27.219402
42
0.191107
0
VERTEX
8
1
10
5.767004
20
27.153133
42
-0.143234
0
VERTEX
8
1
10
5.824173
20
27.084301
0
SEQEND
0
POLYLINE
8
1
66
1
0
VERTEX
8
1
10
5.576167
20
27.020443
0
VERTEX
8
1
10
5.581883
20
26.999722
42
-0.127521
0
VERTEX
8
1
10
5.669364
20
26.947144
42
0.218618
0
VERTEX
8
1
10
5.717748
20
26.941769
0
SEQEND
0
POLYLINE
8
1
66
1
0
VERTEX
8
1
10
6.117515
20
26.621563
0
VERTEX
8
1
10
5.864809
20
26.723951
42
-0.017081
0
VERTEX
8
1
10
4.874340
20
26.151205
42
-0.044004
0
VERTEX
8
1
10
4.513606
20
26.001944
42
-0.113806
0
VERTEX
8
1
10
4.299615
20
25.999430
42
-0.249697
0
VERTEX
8
1
10
4.188933
20
26.112667
0
SEQEND
0
ARC
8
1
10
15.953197
20
98.517067
40
74.080262
50
-99.841424
51
-98.965037
0
POLYLINE
8
1
66
1
0
VERTEX
8
1
10
3.076551
20
25.297436
42
0.006287
0
VERTEX
8
1
10
4.089951
20
25.097702
0
VERTEX
8
1
10
4.142569
20
25.090399
0
VERTEX
8
1
10
4.195369
20
25.084545
0
SEQEND
0
LINE
8
1
10
3.996614
20
24.827206
11
5.913473
21
24.535519
0
POLYLINE
8
1
66
1
70
1
0
VERTEX
8
1
10
38.494514
20
10.696041
42
0.836018
0
VERTEX
8
1
10
38.506775
20
10.804086
42
0.004871
0
VERTEX
8
1
10
35.947670
20
11.529461
42
-0.005875
0
VERTEX
8
1
10
34.426483
20
11.975075
42
0.057724
0
VERTEX
8
1
10
37.103874
20
11.583050
42
-0.031651
0
VERTEX
8
1
10
37.748413
20
11.516105
42
0.036786
0
VERTEX
8
1
10
38.216080
20
11.485882
0
VERTEX
8
1
10
38.244286
20
11.494854
42
0.195822
0
VERTEX
8
1
10
38.191559
20
11.564358
42
0.098524
0
VERTEX
8
1
10
37.890625
20
11.680218
42
-0.043339
0
VERTEX
8
1
10
34.745491
20
12.400982
0
VERTEX
8
1
10
34.780602
20
12.405606
42
0.018816
0
VERTEX
8
1
10
37.197815
20
12.359417
0
VERTEX
8
1
10
37.276680
20
12.368053
42
0.500782
0
VERTEX
8
1
10
37.278877
20
12.418233
42
0.147064
0
VERTEX
8
1
10
37.225677
20
12.444683
42
0.019198
0
VERTEX
8
1
10
36.876678
20
12.532619
0
VERTEX
8
1
10
35.430351
20
12.784084
0
VERTEX
8
1
10
35.373520
20
12.792950
42
0.199193
0
VERTEX
8
1
10
35.302254
20
12.742886
0
VERTEX
8
1
10
35.305573
20
12.735149
0
VERTEX
8
1
10
35.513527
20
12.537548
0
VERTEX
8
1
10
35.493835
20
12.535870
42
0.054051
0
VERTEX
8
1
10
34.219803
20
12.675014
0
VERTEX
8
1
10
34.175110
20
12.671001
42
-0.147895
0
VERTEX
8
1
10
34.405876
20
12.480501
42
-0.194226
0
VERTEX
8
1
10
34.415634
20
12.361050
0
VERTEX
8
1
10
34.395691
20
12.345592
42
-0.061685
0
VERTEX
8
1
10
33.741859
20
12.484982
0
VERTEX
8
1
10
33.716919
20
12.497906
42
-0.266037
0
VERTEX
8
1
10
33.916534
20
12.565304
42
0.005825
0
VERTEX
8
1
10
32.907005
20
12.875035
42
0.080606
0
VERTEX
8
1
10
32.499855
20
12.907619
42
-0.039930
0
VERTEX
8
1
10
32.334190
20
12.920919
42
-0.118659
0
VERTEX
8
1
10
32.205345
20
12.987865
0
VERTEX
8
1
10
32.194069
20
13.006069
0
VERTEX
8
1
10
32.537941
20
13.119732
0
VERTEX
8
1
10
32.549019
20
13.127316
0
VERTEX
8
1
10
32.083519
20
13.278194
0
VERTEX
8
1
10
32.066254
20
13.288189
42
-0.091885
0
VERTEX
8
1
10
32.666855
20
13.385372
42
-0.073562
0
VERTEX
8
1
10
31.479202
20
13.986553
42
0.030693
0
VERTEX
8
1
10
34.108078
20
13.513568
42
0.021712
0
VERTEX
8
1
10
34.673500
20
13.480862
0
VERTEX
8
1
10
34.805992
20
13.487011
0
VERTEX
8
1
10
34.904846
20
13.503124
0
VERTEX
8
1
10
34.966270
20
13.529995
0
VERTEX
8
1
10
34.898712
20
13.556561
42
-0.099011
0
VERTEX
8
1
10
33.019722
20
14.315166
42
0.050524
0
VERTEX
8
1
10
34.924694
20
14.074382
0
VERTEX
8
1
10
34.939262
20
14.071636
42
0.216951
0
VERTEX
8
1
10
35.023369
20
14.072154
42
0.008599
0
VERTEX
8
1
10
35.519905
20
14.080700
42
0.123421
0
VERTEX
8
1
10
36.147522
20
14.127087
0
VERTEX
8
1
10
36.105370
20
14.216625
0
VERTEX
8
1
10
36.090385
20
14.224224
42
-0.029794
0
VERTEX
8
1
10
34.242378
20
14.664396
42
-0.052437
0
VERTEX
8
1
10
32.896339
20
15.251475
42
-0.051421
0
VERTEX
8
1
10
32.124603
20
15.818493
0
VERTEX
8
1
10
32.133041
20
15.818951
0
VERTEX
8
1
10
33.580193
20
15.751934
0
VERTEX
8
1
10
33.644913
20
15.751949
0
VERTEX
8
1
10
33.698181
20
15.757351
0
VERTEX
8
1
10
33.721397
20
15.768429
0
VERTEX
8
1
10
33.716759
20
15.784969
0
VERTEX
8
1
10
33.686440
20
15.806744
0
VERTEX
8
1
10
33.632645
20
15.833416
42
0.020889
0
VERTEX
8
1
10
33.073441
20
16.034422
42
-0.008465
0
VERTEX
8
1
10
32.079773
20
16.391094
0
VERTEX
8
1
10
32.119133
20
16.387691
42
0.038180
0
VERTEX
8
1
10
29.260452
20
17.158642
0
VERTEX
8
1
10
29.234741
20
17.173321
42
-0.015851
0
VERTEX
8
1
10
29.652283
20
17.212780
42
0.036307
0
VERTEX
8
1
10
29.779327
20
17.234936
0
VERTEX
8
1
10
29.795959
20
17.244427
0
VERTEX
8
1
10
29.798363
20
17.255581
0
VERTEX
8
1
10
29.784531
20
17.268658
0
VERTEX
8
1
10
29.752434
20
17.283886
0
VERTEX
8
1
10
29.700058
20
17.301525
0
VERTEX
8
1
10
29.454613
20
17.403606
42
0.113219
0
VERTEX
8
1
10
23.985687
20
18.326015
0
VERTEX
8
1
10
23.901871
20
18.325619
42
0.066955
0
VERTEX
8
1
10
24.513374
20
18.570431
0
VERTEX
8
1
10
24.364515
20
18.607222
42
-0.021312
0
VERTEX
8
1
10
20.506355
20
19.501753
0
VERTEX
8
1
10
20.478958
20
19.524624
0
VERTEX
8
1
10
21.930889
20
19.501141
0
VERTEX
8
1
10
21.958820
20
19.502773
0
VERTEX
8
1
10
21.942043
20
19.511395
0
VERTEX
8
1
10
21.899319
20
19.538128
42
0.008416
0
VERTEX
8
1
10
21.420200
20
19.857920
42
0.020554
0
VERTEX
8
1
10
19.110950
20
20.519049
42
0.021134
0
VERTEX
8
1
10
17.570913
20
20.810177
0
VERTEX
8
1
10
17.556574
20
20.814037
0
VERTEX
8
1
10
17.571184
20
20.965099
42
0.010202
0
VERTEX
8
1
10
17.258657
20
21.134640
0
VERTEX
8
1
10
17.204958
20
21.134914
42
-0.008272
0
VERTEX
8
1
10
16.114904
20
21.108242
0
VERTEX
8
1
10
16.011415
20
20.977840
42
-0.044832
0
VERTEX
8
1
10
16.355417
20
20.762371
0
VERTEX
8
1
10
16.356771
20
20.745419
42
-0.176540
0
VERTEX
8
1
10
16.143599
20
20.661158
42
-0.073394
0
VERTEX
8
1
10
15.922934
20
20.674129
0
VERTEX
8
1
10
16.046476
20
20.461483
0
VERTEX
8
1
10
15.654264
20
20.530941
0
VERTEX
8
1
10
15.652342
20
20.530590
0
VERTEX
8
1
10
15.345533
20
20.195080
0
VERTEX
8
1
10
15.351397
20
20.621746
0
VERTEX
8
1
10
15.069735
20
20.717983
0
VERTEX
8
1
10
15.221929
20
20.818981
42
0.020568
0
VERTEX
8
1
10
14.243376
20
20.957088
0
VERTEX
8
1
10
14.177698
20
20.870693
0
VERTEX
8
1
10
14.366930
20
20.527248
0
VERTEX
8
1
10
13.970079
20
20.603130
0
VERTEX
8
1
10
13.663393
20
20.253338
0
VERTEX
8
1
10
13.669500
20
20.699581
0
VERTEX
8
1
10
13.382608
20
20.803371
0
VERTEX
8
1
10
13.669626
20
21.001324
42
0.021193
0
VERTEX
8
1
10
12.616793
20
21.013439
0
VERTEX
8
1
10
12.494585
20
20.845379
0
VERTEX
8
1
10
12.685770
20
20.483913
0
VERTEX
8
1
10
12.285887
20
20.564754
0
VERTEX
8
1
10
11.979582
20
20.200115
0
VERTEX
8
1
10
11.985811
20
20.665676
0
VERTEX
8
1
10
11.694304
20
20.776043
0
VERTEX
8
1
10
11.971064
20
20.975079
42
0.016048
0
VERTEX
8
1
10
11.306917
20
20.903530
0
VERTEX
8
1
10
11.723932
20
21.438763
42
0.101853
0
VERTEX
8
1
10
9.443041
20
21.533138
0
VERTEX
8
1
10
9.459768
20
21.551968
0
VERTEX
8
1
10
9.780332
20
21.867336
42
0.037507
0
VERTEX
8
1
10
7.379381
20
21.218128
42
0.033101
0
VERTEX
8
1
10
4.672069
20
20.080135
0
VERTEX
8
1
10
4.624959
20
19.984966
0
VERTEX
8
1
10
4.590612
20
19.883938
42
0.090010
0
VERTEX
8
1
10
4.520063
20
19.083839
42
0.041198
0
VERTEX
8
1
10
4.654920
20
18.209835
0
VERTEX
8
1
10
4.665094
20
18.210415
0
VERTEX
8
1
10
4.805494
20
18.400066
42
-0.205248
0
VERTEX
8
1
10
5.122364
20
16.253963
42
0.046066
0
VERTEX
8
1
10
5.061959
20
15.886249
42
0.149267
0
VERTEX
8
1
10
5.165243
20
15.521984
42
-0.004048
0
VERTEX
8
1
10
5.389005
20
15.190653
42
-0.133223
0
VERTEX
8
1
10
5.474068
20
14.860035
42
-0.136623
0
VERTEX
8
1
10
5.414831
20
14.696804
0
VERTEX
8
1
10
5.452444
20
14.699703
42
0.168760
0
VERTEX
8
1
10
6.143697
20
15.114346
0
VERTEX
8
1
10
6.147256
20
15.081921
42
0.128273
0
VERTEX
8
1
10
6.318773
20
14.210615
42
-0.061268
0
VERTEX
8
1
10
6.366473
20
14.035349
42
-0.201596
0
VERTEX
8
1
10
6.304998
20
13.865993
0
VERTEX
8
1
10
6.534986
20
13.882641
0
VERTEX
8
1
10
6.266717
20
13.441692
0
VERTEX
8
1
10
6.463468
20
13.010296
0
VERTEX
8
1
10
6.051961
20
13.095913
0
VERTEX
8
1
10
5.904939
20
12.887707
42
0.051842
0
VERTEX
8
1
10
6.005826
20
12.428967
0
VERTEX
8
1
10
6.035612
20
12.331997
0
VERTEX
8
1
10
6.065820
20
12.235149
42
-0.043701
0
VERTEX
8
1
10
6.206669
20
11.667240
42
-0.096633
0
VERTEX
8
1
10
6.171854
20
11.177990
0
VERTEX
8
1
10
6.808206
20
11.020061
42
0.048030
0
VERTEX
8
1
10
6.543691
20
10.676008
42
0.091552
0
VERTEX
8
1
10
6.422111
20
10.353400
42
0.198022
0
VERTEX
8
1
10
6.518635
20
9.996816
42
0.064903
0
VERTEX
8
1
10
6.654672
20
9.850323
0
VERTEX
8
1
10
6.697229
20
9.855465
42
-0.020651
0
VERTEX
8
1
10
7.754073
20
10.093227
0
VERTEX
8
1
10
7.768857
20
10.103771
0
VERTEX
8
1
10
7.329053
20
10.242321
0
VERTEX
8
1
10
7.366807
20
10.262524
42
-0.044491
0
VERTEX
8
1
10
8.332338
20
10.452802
42
0.002230
0
VERTEX
8
1
10
8.969023
20
10.542268
0
VERTEX
8
1
10
9.016093
20
10.563929
42
-0.032867
0
VERTEX
8
1
10
8.882407
20
12.516872
0
VERTEX
8
1
10
8.682520
20
12.559566
0
VERTEX
8
1
10
8.365458
20
12.158504
0
VERTEX
8
1
10
8.389643
20
12.666897
0
VERTEX
8
1
10
8.095907
20
12.788204
0
VERTEX
8
1
10
8.095510
20
12.789181
0
VERTEX
8
1
10
8.488871
20
13.098949
0
VERTEX
8
1
10
8.554575
20
13.567959
0
VERTEX
8
1
10
8.770041
20
13.266338
0
VERTEX
8
1
10
8.881556
20
13.272427
0
VERTEX
8
1
10
8.866419
20
13.360653
42
-0.141597
0
VERTEX
8
1
10
8.920107
20
13.801937
0
VERTEX
8
1
10
8.925230
20
13.822170
0
VERTEX
8
1
10
8.883032
20
14.226574
0
VERTEX
8
1
10
8.867872
20
14.240612
42
-0.035077
0
VERTEX
8
1
10
7.992628
20
14.102795
0
VERTEX
8
1
10
8.152990
20
13.762432
0
VERTEX
8
1
10
7.744157
20
13.849575
0
VERTEX
8
1
10
7.440324
20
13.437496
0
VERTEX
8
1
10
7.446455
20
13.958767
0
VERTEX
8
1
10
7.144193
20
14.082943
0
VERTEX
8
1
10
7.148588
20
14.086559
0
VERTEX
8
1
10
7.070489
20
14.091030
0
VERTEX
8
1
10
7.069204
20
14.094234
42
-0.050451
0
VERTEX
8
1
10
7.536142
20
14.466640
0
VERTEX
8
1
10
7.577650
20
14.878963
0
VERTEX
8
1
10
7.775163
20
14.611248
0
VERTEX
8
1
10
7.778051
20
14.609509
42
-0.020619
0
VERTEX
8
1
10
8.087999
20
14.759060
42
-0.215021
0
VERTEX
8
1
10
7.869857
20
15.063619
42
-0.090525
0
VERTEX
8
1
10
7.855575
20
15.332710
42
-0.018692
0
VERTEX
8
1
10
7.891107
20
15.680339
0
VERTEX
8
1
10
7.847883
20
15.700283
0
VERTEX
8
1
10
7.902391
20
15.740673
42
-0.114318
0
VERTEX
8
1
10
8.056540
20
16.092356
42
-0.138682
0
VERTEX
8
1
10
8.297754
20
16.257397
0
VERTEX
8
1
10
8.334150
20
16.464169
0
VERTEX
8
1
10
8.457651
20
16.276257
42
-0.053417
0
VERTEX
8
1
10
8.583052
20
16.253078
0
VERTEX
8
1
10
8.630068
20
16.225750
0
VERTEX
8
1
10
8.627882
20
16.311367
0
VERTEX
8
1
10
8.598589
20
16.621777
42
-0.099137
0
VERTEX
8
1
10
7.818342
20
16.517086
42
-0.105723
0
VERTEX
8
1
10
7.420770
20
16.630642
0
VERTEX
8
1
10
7.218572
20
16.375454
0
VERTEX
8
1
10
7.238161
20
16.791531
42
-0.062546
0
VERTEX
8
1
10
7.153909
20
16.937756
0
VERTEX
8
1
10
6.945974
20
17.032833
0
VERTEX
8
1
10
7.106042
20
17.155880
42
-0.061093
0
VERTEX
8
1
10
7.126550
20
17.442348
0
VERTEX
8
1
10
7.162157
20
17.618633
42
-0.010515
0
VERTEX
8
1
10
7.099920
20
17.790661
0
VERTEX
8
1
10
7.093874
20
17.793728
42
-0.037919
0
VERTEX
8
1
10
6.971139
20
17.756664
0
VERTEX
8
1
10
7.015695
20
17.652630
0
VERTEX
8
1
10
6.607954
20
17.739849
0
VERTEX
8
1
10
6.606138
20
17.738766
0
VERTEX
8
1
10
6.292074
20
17.323376
0
VERTEX
8
1
10
6.291425
20
17.323910
0
VERTEX
8
1
10
6.315980
20
17.847332
0
VERTEX
8
1
10
6.315256
20
17.848949
0
VERTEX
8
1
10
6.018667
20
17.973614
0
VERTEX
8
1
10
6.018857
20
17.974758
0
VERTEX
8
1
10
6.413900
20
18.299038
0
VERTEX
8
1
10
6.415166
20
18.301083
0
VERTEX
8
1
10
6.480909
20
18.786388
0
VERTEX
8
1
10
6.696046
20
18.476788
0
VERTEX
8
1
10
6.959268
20
18.493374
42
-0.034299
0
VERTEX
8
1
10
6.966161
20
18.778942
42
-0.092272
0
VERTEX
8
1
10
7.273836
20
19.580868
0
VERTEX
8
1
10
7.222066
20
19.591946
0
VERTEX
8
1
10
6.917856
20
19.180035
0
VERTEX
8
1
10
6.923807
20
19.701107
0
VERTEX
8
1
10
6.622011
20
19.825405
0
VERTEX
8
1
10
7.007169
20
20.144100
0
VERTEX
8
1
10
7.055299
20
20.621029
0
VERTEX
8
1
10
7.281232
20
20.315105
0
VERTEX
8
1
10
7.702436
20
20.338833
0
VERTEX
8
1
10
7.435098
20
19.919353
0
VERTEX
8
1
10
7.465852
20
19.854137
42
-0.117697
0
VERTEX
8
1
10
8.714235
20
20.784039
0
VERTEX
8
1
10
8.744028
20
21.068264
0
VERTEX
8
1
10
8.900705
20
20.862621
0
VERTEX
8
1
10
8.903753
20
20.861599
42
-0.172703
0
VERTEX
8
1
10
10.365240
20
20.934429
0
VERTEX
8
1
10
10.383360
20
20.948040
0
VERTEX
8
1
10
10.431608
20
21.389172
0
VERTEX
8
1
10
10.658678
20
21.101345
0
VERTEX
8
1
10
11.074625
20
21.116985
0
VERTEX
8
1
10
10.811499
20
20.739513
0
VERTEX
8
1
10
10.857584
20
20.712257
0
VERTEX
8
1
10
10.903105
20
20.684069
42
-0.108561
0
VERTEX
8
1
10
11.856459
20
19.701382
0
VERTEX
8
1
10
11.989950
20
19.706966
0
VERTEX
8
1
10
11.913950
20
19.605404
42
-0.029732
0
VERTEX
8
1
10
12.090761
20
19.260143
42
-0.097064
0
VERTEX
8
1
10
12.095292
20
18.315119
42
-0.180033
0
VERTEX
8
1
10
11.441123
20
17.284250
42
-0.079044
0
VERTEX
8
1
10
10.901449
20
16.985271
0
VERTEX
8
1
10
10.851610
20
16.829525
0
VERTEX
8
1
10
10.906454
20
16.297863
0
VERTEX
8
1
10
10.905153
20
16.297009
0
VERTEX
8
1
10
10.585634
20
16.255749
0
VERTEX
8
1
10
10.522310
20
16.864269
0
VERTEX
8
1
10
10.647856
20
17.257824
42
0.139533
0
VERTEX
8
1
10
11.434950
20
17.720959
0
VERTEX
8
1
10
11.537546
20
17.845409
0
VERTEX
8
1
10
11.629496
20
17.988995
0
VERTEX
8
1
10
11.707041
20
18.152935
0
VERTEX
8
1
10
11.766420
20
18.338497
0
VERTEX
8
1
10
11.803877
20
18.546856
0
VERTEX
8
1
10
11.815645
20
18.779263
0
VERTEX
8
1
10
11.797972
20
19.036953
0
VERTEX
8
1
10
11.751356
20
19.219784
42
0.098305
0
VERTEX
8
1
10
11.025266
20
20.180473
42
0.076597
0
VERTEX
8
1
10
10.454931
20
20.544460
0
VERTEX
8
1
10
10.269785
20
20.611782
0
VERTEX
8
1
10
10.073790
20
20.659115
0
VERTEX
8
1
10
9.867037
20
20.683895
0
VERTEX
8
1
10
9.649607
20
20.683575
0
VERTEX
8
1
10
9.421591
20
20.655590
0
VERTEX
8
1
10
9.246325
20
20.613415
42
0.121207
0
VERTEX
8
1
10
7.906460
20
19.821859
42
0.108705
0
VERTEX
8
1
10
7.394296
20
19.012554
0
VERTEX
8
1
10
7.339689
20
18.826015
0
VERTEX
8
1
10
7.316347
20
18.691296
0
VERTEX
8
1
10
7.314371
20
18.635775
0
VERTEX
8
1
10
7.314104
20
18.580221
0
VERTEX
8
1
10
7.315546
20
18.524685
42
0.085160
0
VERTEX
8
1
10
7.515459
20
17.695583
42
-0.123297
0
VERTEX
8
1
10
7.518774
20
17.596523
42
0.015153
0
VERTEX
8
1
10
7.460986
20
17.260782
42
0.133066
0
VERTEX
8
1
10
7.499384
20
17.037180
42
0.143454
0
VERTEX
8
1
10
7.610693
20
16.925152
0
VERTEX
8
1
10
7.674825
20
16.895580
42
0.128628
0
VERTEX
8
1
10
8.223305
20
16.875603
42
0.065013
0
VERTEX
8
1
10
8.860342
20
17.081860
0
VERTEX
8
1
10
8.877687
20
17.073193
42
0.021777
0
VERTEX
8
1
10
8.939894
20
16.787579
0
VERTEX
8
1
10
8.982183
20
16.352474
0
VERTEX
8
1
10
8.987833
20
16.203243
42
0.173636
0
VERTEX
8
1
10
9.021837
20
16.009747
0
VERTEX
8
1
10
9.160398
20
16.041668
42
0.102614
0
VERTEX
8
1
10
9.525352
20
16.108736
42
0.083732
0
VERTEX
8
1
10
9.661650
20
16.202724
0
VERTEX
8
1
10
9.685422
20
16.214855
42
-0.005687
0
VERTEX
8
1
10
9.869637
20
15.592387
42
-0.042453
0
VERTEX
8
1
10
9.785840
20
15.351850
42
-0.060010
0
VERTEX
8
1
10
9.706141
20
15.233837
0
VERTEX
8
1
10
9.681059
20
15.213970
42
-0.277239
0
VERTEX
8
1
10
9.598093
20
15.208050
42
0.014764
0
VERTEX
8
1
10
9.250457
20
15.444307
42
0.007893
0
VERTEX
8
1
10
8.468558
20
15.935328
42
0.222250
0
VERTEX
8
1
10
8.368097
20
15.905238
42
0.148905
0
VERTEX
8
1
10
8.291558
20
15.799267
42
0.076775
0
VERTEX
8
1
10
8.238245
20
15.596111
0
VERTEX
8
1
10
8.216543
20
15.403591
42
0.046492
0
VERTEX
8
1
10
8.209926
20
15.178773
42
0.105194
0
VERTEX
8
1
10
8.242551
20
15.080457
42
0.273541
0
VERTEX
8
1
10
8.340234
20
15.041937
42
0.094223
0
VERTEX
8
1
10
8.474592
20
15.073818
42
-0.107930
0
VERTEX
8
1
10
8.600654
20
15.039073
42
-0.063488
0
VERTEX
8
1
10
8.836954
20
14.891308
42
0.140641
0
VERTEX
8
1
10
8.884749
20
14.723110
42
0.347229
0
VERTEX
8
1
10
8.955309
20
14.715160
42
0.056719
0
VERTEX
8
1
10
9.038103
20
14.786114
42
-0.281285
0
VERTEX
8
1
10
9.203348
20
14.611156
42
0.001489
0
VERTEX
8
1
10
9.292198
20
13.739223
42
0.165864
0
VERTEX
8
1
10
9.215615
20
13.526356
42
0.085992
0
VERTEX
8
1
10
9.236788
20
13.314831
42
0.014492
0
VERTEX
8
1
10
9.266904
20
11.631989
42
0.020018
0
VERTEX
8
1
10
9.351899
20
10.760787
0
VERTEX
8
1
10
9.373940
20
10.566839
0
VERTEX
8
1
10
9.395014
20
10.372784
42
0.003203
0
VERTEX
8
1
10
9.346179
20
9.826962
42
0.245617
0
VERTEX
8
1
10
9.228983
20
9.604794
0
VERTEX
8
1
10
9.239298
20
8.871502
42
0.217844
0
VERTEX
8
1
10
9.335428
20
8.644906
42
0.124012
0
VERTEX
8
1
10
9.427183
20
8.604473
42
0.013407
0
VERTEX
8
1
10
9.467562
20
8.404720
42
0.269469
0
VERTEX
8
1
10
9.338640
20
8.170177
0
VERTEX
8
1
10
9.362425
20
7.455578
42
1.008500
0
VERTEX
8
1
10
9.890321
20
7.459484
0
VERTEX
8
1
10
9.866529
20
8.175610
42
0.336229
0
VERTEX
8
1
10
9.674490
20
8.430874
0
VERTEX
8
1
10
9.670275
20
8.444485
42
0.012699
0
VERTEX
8
1
10
9.655067
20
8.838060
0
VERTEX
8
1
10
9.655722
20
8.851833
0
VERTEX
8
1
10
9.645517
20
9.580227
42
0.174760
0
VERTEX
8
1
10
9.581461
20
9.777615
42
-0.001578
0
VERTEX
8
1
10
9.521032
20
10.377773
0
VERTEX
8
1
10
9.613264
20
11.387447
42
0.018863
0
VERTEX
8
1
10
9.677305
20
12.439938
0
VERTEX
8
1
10
9.680265
20
12.463680
42
0.051976
0
VERTEX
8
1
10
9.775415
20
12.503323
0
VERTEX
8
1
10
9.792170
20
12.505199
0
VERTEX
8
1
10
9.916410
20
12.509335
0
VERTEX
8
1
10
10.031328
20
12.402218
0
VERTEX
8
1
10
10.198671
20
12.379818
0
VERTEX
8
1
10
10.091028
20
12.293011
0
VERTEX
8
1
10
10.209814
20
12.046474
0
VERTEX
8
1
10
10.073572
20
11.986660
0
VERTEX
8
1
10
10.427805
20
7.189800
0
VERTEX
8
1
10
10.625685
20
7.058163
42
0.248516
0
VERTEX
8
1
10
10.568036
20
7.015486
42
0.158302
0
VERTEX
8
1
10
10.547537
20
6.930309
0
VERTEX
8
1
10
10.549540
20
6.860806
42
0.114322
0
VERTEX
8
1
10
10.429113
20
6.689663
42
0.394821
0
VERTEX
8
1
10
10.471479
20
6.587552
42
0.086171
0
VERTEX
8
1
10
10.755804
20
6.478603
0
VERTEX
8
1
10
9.558332
20
6.577557
42
0.189068
0
VERTEX
8
1
10
9.353048
20
6.654247
0
VERTEX
8
1
10
9.331068
20
6.656078
42
-0.042466
0
VERTEX
8
1
10
9.088840
20
6.737602
0
VERTEX
8
1
10
9.051411
20
6.749453
42
0.091833
0
VERTEX
8
1
10
8.849687
20
6.775513
42
0.104078
0
VERTEX
8
1
10
8.506412
20
6.689939
42
0.231455
0
VERTEX
8
1
10
8.337147
20
6.439989
42
0.079737
0
VERTEX
8
1
10
8.324629
20
6.064617
0
VERTEX
8
1
10
8.278196
20
5.846966
0
VERTEX
8
1
10
8.254629
20
5.673626
0
VERTEX
8
1
10
8.203932
20
5.532818
0
VERTEX
8
1
10
8.210024
20
5.337444
0
VERTEX
8
1
10
8.132002
20
5.197018
42
-0.037282
0
VERTEX
8
1
10
8.031412
20
4.859035
42
0.086197
0
VERTEX
8
1
10
7.930627
20
4.703014
0
VERTEX
8
1
10
7.901235
20
4.605648
42
0.012079
0
VERTEX
8
1
10
7.507142
20
4.268351
0
VERTEX
8
1
10
7.448326
20
4.219302
0
VERTEX
8
1
10
7.388475
20
4.171520
0
VERTEX
8
1
10
7.292879
20
4.138775
42
-0.309833
0
VERTEX
8
1
10
7.206941
20
4.279812
42
-0.083686
0
VERTEX
8
1
10
7.260980
20
4.518307
0
VERTEX
8
1
10
7.405317
20
4.646954
0
VERTEX
8
1
10
7.588338
20
4.800182
42
-0.083416
0
VERTEX
8
1
10
7.714540
20
5.029140
0
VERTEX
8
1
10
7.739412
20
5.095974
0
VERTEX
8
1
10
7.796209
20
5.321743
0
VERTEX
8
1
10
7.850889
20
5.420223
0
VERTEX
8
1
10
7.845415
20
5.585827
0
VERTEX
8
1
10
7.905130
20
5.750942
0
VERTEX
8
1
10
7.924310
20
5.890972
0
VERTEX
8
1
10
7.963197
20
6.074673
42
-0.080596
0
VERTEX
8
1
10
8.010131
20
6.601598
42
-0.237958
0
VERTEX
8
1
10
8.437968
20
7.038040
42
-0.128424
0
VERTEX
8
1
10
9.017815
20
7.104264
42
-0.037217
0
VERTEX
8
1
10
9.136763
20
7.073635
0
VERTEX
8
1
10
9.134077
20
7.082348
42
-0.155131
0
VERTEX
8
1
10
9.007185
20
7.424740
0
VERTEX
8
1
10
8.984064
20
8.116390
42
-0.028551
0
VERTEX
8
1
10
8.983351
20
8.205776
42
-0.057597
0
VERTEX
8
1
10
8.908346
20
8.302441
0
VERTEX
8
1
10
8.910383
20
8.309277
0
VERTEX
8
1
10
9.038069
20
8.429241
0
VERTEX
8
1
10
9.043238
20
8.440792
42
-0.173322
0
VERTEX
8
1
10
8.883696
20
8.842999
0
VERTEX
8
1
10
8.872858
20
9.563259
42
-0.173066
0
VERTEX
8
1
10
9.001856
20
9.982738
0
VERTEX
8
1
10
9.007711
20
10.049313
0
VERTEX
8
1
10
8.961580
20
10.042309
0
VERTEX
8
1
10
6.967004
20
9.625561
0
VERTEX
8
1
10
6.887720
20
9.605831
42
-0.099518
0
VERTEX
8
1
10
6.944311
20
9.465343
0
VERTEX
8
1
10
6.962747
20
9.454937
42
-0.354832
0
VERTEX
8
1
10
7.426679
20
8.806927
42
-0.078516
0
VERTEX
8
1
10
7.349485
20
8.541943
0
VERTEX
8
1
10
6.654520
20
7.033048
42
0.034685
0
VERTEX
8
1
10
6.300266
20
6.130815
42
0.073454
0
VERTEX
8
1
10
6.184221
20
5.304302
0
VERTEX
8
1
10
6.195264
20
5.218243
42
-0.143182
0
VERTEX
8
1
10
6.507415
20
5.358010
42
-0.165369
0
VERTEX
8
1
10
6.635019
20
5.323589
42
-0.257150
0
VERTEX
8
1
10
6.686418
20
5.152828
0
VERTEX
8
1
10
6.556222
20
4.357784
0
VERTEX
8
1
10
6.224546
20
3.749706
0
VERTEX
8
1
10
6.215875
20
3.745342
42
0.053780
0
VERTEX
8
1
10
5.702913
20
3.715694
42
0.196519
0
VERTEX
8
1
10
5.586427
20
3.633083
42
0.056106
0
VERTEX
8
1
10
5.388364
20
3.270168
0
VERTEX
8
1
10
5.323582
20
2.712201
42
0.007919
0
VERTEX
8
1
10
5.988255
20
2.568204
0
VERTEX
8
1
10
5.937566
20
2.231136
42
-0.126560
0
VERTEX
8
1
10
5.675527
20
1.747997
42
-0.277652
0
VERTEX
8
1
10
5.667482
20
1.321575
42
-0.056168
0
VERTEX
8
1
10
5.968949
20
1.354973
0
VERTEX
8
1
10
6.009808
20
1.352644
42
-0.286446
0
VERTEX
8
1
10
6.372501
20
1.121775
42
-0.148987
0
VERTEX
8
1
10
6.386079
20
0.966534
0
VERTEX
8
1
10
6.391206
20
0.958126
0
VERTEX
8
1
10
6.414388
20
0.959866
42
0.033221
0
VERTEX
8
1
10
6.798090
20
1.106091
42
0.008200
0
VERTEX
8
1
10
8.370248
20
1.831906
0
VERTEX
8
1
10
8.376703
20
1.839581
0
VERTEX
8
1
10
8.232664
20
1.851192
0
VERTEX
8
1
10
9.029539
20
2.164654
42
0.058943
0
VERTEX
8
1
10
9.747127
20
2.260389
42
0.020409
0
VERTEX
8
1
10
9.938551
20
2.321209
42
-0.149264
0
VERTEX
8
1
10
10.547600
20
2.333451
42
0.050382
0
VERTEX
8
1
10
10.639868
20
2.327053
42
0.030937
0
VERTEX
8
1
10
11.254339
20
2.381542
42
0.010165
0
VERTEX
8
1
10
11.184451
20
3.168179
0
VERTEX
8
1
10
11.186045
20
3.179256
0
VERTEX
8
1
10
11.626223
20
3.446468
0
VERTEX
8
1
10
11.627611
20
3.412090
42
-0.004633
0
VERTEX
8
1
10
13.119137
20
4.137571
42
0.038677
0
VERTEX
8
1
10
13.566668
20
4.585827
0
VERTEX
8
1
10
13.532530
20
4.582409
0
VERTEX
8
1
10
12.523634
20
4.281353
0
VERTEX
8
1
10
12.591604
20
4.346996
0
VERTEX
8
1
10
12.533758
20
4.669567
42
-0.039010
0
VERTEX
8
1
10
14.675855
20
5.479458
0
VERTEX
8
1
10
14.759768
20
5.511150
42
0.078848
0
VERTEX
8
1
10
15.478167
20
6.065533
0
VERTEX
8
1
10
15.421881
20
6.085979
0
VERTEX
8
1
10
13.362692
20
6.154964
0
VERTEX
8
1
10
13.301760
20
6.188717
42
-0.200239
0
VERTEX
8
1
10
13.391649
20
6.427055
42
-0.103030
0
VERTEX
8
1
10
13.562181
20
6.559226
42
-0.075287
0
VERTEX
8
1
10
13.948729
20
6.697521
42
0.035002
0
VERTEX
8
1
10
17.029089
20
7.419751
0
VERTEX
8
1
10
17.088366
20
7.460949
42
0.042830
0
VERTEX
8
1
10
16.108625
20
7.803844
0
VERTEX
8
1
10
16.094717
20
7.833126
42
-0.129271
0
VERTEX
8
1
10
16.416590
20
8.009228
42
0.010863
0
VERTEX
8
1
10
16.873413
20
8.124437
42
0.185771
0
VERTEX
8
1
10
17.324678
20
8.505831
42
0.074248
0
VERTEX
8
1
10
17.456387
20
8.835741
42
0.044953
0
VERTEX
8
1
10
17.548616
20
9.366772
0
VERTEX
8
1
10
17.564005
20
9.387707
0
VERTEX
8
1
10
17.961573
20
8.431042
0
VERTEX
8
1
10
18.054754
20
8.406979
42
-0.080015
0
VERTEX
8
1
10
21.126137
20
8.334194
0
VERTEX
8
1
10
21.210579
20
8.306255
0
VERTEX
8
1
10
19.925564
20
8.071026
0
VERTEX
8
1
10
19.879004
20
8.040859
0
VERTEX
8
1
10
19.896097
20
7.986370
0
VERTEX
8
1
10
19.920494
20
7.935467
42
0.334772
0
VERTEX
8
1
10
20.514912
20
7.706310
0
VERTEX
8
1
10
20.567230
20
7.727215
0
VERTEX
8
1
10
20.629528
20
7.763714
42
-0.114134
0
VERTEX
8
1
10
19.697290
20
7.298580
0
VERTEX
8
1
10
19.763033
20
7.263500
0
VERTEX
8
1
10
20.112816
20
7.190029
42
0.033357
0
VERTEX
8
1
10
22.976620
20
6.846399
42
0.013920
0
VERTEX
8
1
10
23.505577
20
6.839597
0
VERTEX
8
1
10
23.624832
20
6.848736
0
VERTEX
8
1
10
23.687920
20
6.864590
0
VERTEX
8
1
10
23.689148
20
6.887157
0
VERTEX
8
1
10
23.622841
20
6.916424
0
VERTEX
8
1
10
23.597488
20
6.959545
0
VERTEX
8
1
10
23.732067
20
6.997808
42
-0.072788
0
VERTEX
8
1
10
26.341387
20
7.319515
42
-0.022863
0
VERTEX
8
1
10
28.048119
20
7.200924
0
VERTEX
8
1
10
28.043182
20
7.214352
42
0.240039
0
VERTEX
8
1
10
27.921005
20
7.291607
0
VERTEX
8
1
10
27.890213
20
7.297405
0
VERTEX
8
1
10
27.859192
20
7.301769
42
-0.163778
0
VERTEX
8
1
10
27.586843
20
7.400048
0
VERTEX
8
1
10
27.547363
20
7.428339
0
VERTEX
8
1
10
27.508934
20
7.458041
0
VERTEX
8
1
10
27.471607
20
7.489118
42
0.083827
0
VERTEX
8
1
10
27.266527
20
7.634603
0
VERTEX
8
1
10
27.236364
20
7.646532
0
VERTEX
8
1
10
27.205505
20
7.656521
42
0.104710
0
VERTEX
8
1
10
26.969879
20
7.647762
0
VERTEX
8
1
10
26.937614
20
7.644024
42
-0.271573
0
VERTEX
8
1
10
26.678955
20
7.735760
0
VERTEX
8
1
10
26.585999
20
7.842602
42
0.166198
0
VERTEX
8
1
10
26.357605
20
7.978588
0
VERTEX
8
1
10
26.324303
20
7.988659
42
-0.388295
0
VERTEX
8
1
10
26.056427
20
8.391277
0
VERTEX
8
1
10
26.071960
20
8.414227
42
-0.030876
0
VERTEX
8
1
10
27.584694
20
8.318813
42
-0.001103
0
VERTEX
8
1
10
30.256042
20
7.936993
42
0.068906
0
VERTEX
8
1
10
29.509842
20
8.389628
42
0.169699
0
VERTEX
8
1
10
29.333138
20
8.392895
42
-0.295672
0
VERTEX
8
1
10
28.534500
20
8.619610
0
VERTEX
8
1
10
28.536125
20
8.627071
0
VERTEX
8
1
10
28.594284
20
8.717831
0
VERTEX
8
1
10
27.661102
20
9.252712
42
0.111783
0
VERTEX
8
1
10
27.257210
20
9.386540
42
-0.064022
0
VERTEX
8
1
10
26.977018
20
9.457349
42
-0.153728
0
VERTEX
8
1
10
26.852005
20
9.572750
0
VERTEX
8
1
10
26.861679
20
9.575390
42
0.182056
0
VERTEX
8
1
10
27.085388
20
9.622799
0
VERTEX
8
1
10
27.069183
20
9.642620
42
0.178508
0
VERTEX
8
1
10
26.620735
20
9.840084
0
VERTEX
8
1
10
26.630829
20
9.853848
42
-0.140656
0
VERTEX
8
1
10
26.794975
20
9.914225
42
-0.060815
0
VERTEX
8
1
10
26.945236
20
9.915340
42
-0.004690
0
VERTEX
8
1
10
28.349014
20
9.709359
42
-0.106294
0
VERTEX
8
1
10
28.733759
20
9.532418
42
0.035361
0
VERTEX
8
1
10
29.013401
20
9.363506
42
0.148501
0
VERTEX
8
1
10
29.402046
20
9.319134
0
VERTEX
8
1
10
29.630768
20
9.352154
42
-0.071222
0
VERTEX
8
1
10
29.875595
20
9.354122
42
-0.078831
0
VERTEX
8
1
10
30.146271
20
9.247585
42
0.071667
0
VERTEX
8
1
10
30.392681
20
9.147561
42
0.103815
0
VERTEX
8
1
10
30.580126
20
9.151608
42
0.038541
0
VERTEX
8
1
10
30.808016
20
9.207644
42
-0.099708
0
VERTEX
8
1
10
31.072937
20
9.221828
42
-0.090940
0
VERTEX
8
1
10
31.392220
20
9.081722
0
VERTEX
8
1
10
31.596016
20
8.947720
42
0.123176
0
VERTEX
8
1
10
32.021744
20
8.783058
42
-0.012477
0
VERTEX
8
1
10
32.298855
20
8.741455
42
-0.143439
0
VERTEX
8
1
10
32.526817
20
8.605552
42
-0.126160
0
VERTEX
8
1
10
32.583145
20
8.481213
0
VERTEX
8
1
10
32.578262
20
8.470928
0
VERTEX
8
1
10
32.410187
20
8.465221
0
VERTEX
8
1
10
32.405006
20
8.463177
42
0.085672
0
VERTEX
8
1
10
32.398621
20
8.408230
42
0.019012
0
VERTEX
8
1
10
33.542290
20
8.234296
42
0.026134
0
VERTEX
8
1
10
34.019405
20
8.212397
42
0.063782
0
VERTEX
8
1
10
34.184647
20
8.243496
0
VERTEX
8
1
10
34.213470
20
8.260540
0
VERTEX
8
1
10
34.194527
20
8.284954
42
-0.033463
0
VERTEX
8
1
10
33.350845
20
8.803143
0
VERTEX
8
1
10
33.330750
20
8.820629
42
0.078126
0
VERTEX
8
1
10
37.957069
20
8.982494
42
0.076365
0
VERTEX
8
1
10
38.086250
20
9.055920
42
0.616914
0
VERTEX
8
1
10
38.039047
20
9.164883
0
VERTEX
8
1
10
37.721153
20
9.181774
42
-0.030226
0
VERTEX
8
1
10
36.189007
20
9.349520
42
-0.039972
0
VERTEX
8
1
10
35.293129
20
9.593426
0
VERTEX
8
1
10
35.296532
20
9.597881
42
-0.025956
0
VERTEX
8
1
10
37.826889
20
9.659486
42
0.089676
0
VERTEX
8
1
10
37.932476
20
9.679373
42
0.513248
0
VERTEX
8
1
10
37.933189
20
9.704407
42
0.163180
0
VERTEX
8
1
10
37.895439
20
9.727322
0
VERTEX
8
1
10
37.208931
20
9.875380
42
-0.012287
0
VERTEX
8
1
10
35.288280
20
10.340100
42
-0.022409
0
VERTEX
8
1
10
33.540756
20
10.907803
0
VERTEX
8
1
10
33.483543
20
10.950100
0
VERTEX
8
1
10
37.784904
20
10.715570
42
0.004819
0
SEQEND
0
POLYLINE
8
1
66
1
70
1
0
VERTEX
8
1
10
4.927099
20
19.073391
0
VERTEX
8
1
10
5.315668
20
19.411816
0
VERTEX
8
1
10
5.363710
20
19.908321
0
VERTEX
8
1
10
5.589151
20
19.594250
0
VERTEX
8
1
10
6.012708
20
19.624889
0
VERTEX
8
1
10
5.744031
20
19.183575
0
VERTEX
8
1
10
5.941209
20
18.752102
0
VERTEX
8
1
10
5.529073
20
18.838238
0
VERTEX
8
1
10
5.226148
20
18.407818
0
VERTEX
8
1
10
5.232355
20
18.947308
0
SEQEND
0
POLYLINE
8
1
66
1
70
1
0
VERTEX
8
1
10
7.322803
20
10.867612
42
-0.016979
0
VERTEX
8
1
10
8.472815
20
11.405124
42
-0.729391
0
VERTEX
8
1
10
8.499490
20
11.351926
42
0.013699
0
VERTEX
8
1
10
7.346866
20
10.811114
42
-0.830594
0
SEQEND
0
POLYLINE
8
1
66
1
70
1
0
VERTEX
8
1
10
7.218004
20
12.734539
0
VERTEX
8
1
10
7.637796
20
12.761028
0
VERTEX
8
1
10
7.356439
20
12.334698
0
VERTEX
8
1
10
7.538248
20
11.910229
0
VERTEX
8
1
10
7.129571
20
11.997814
0
VERTEX
8
1
10
6.813821
20
11.580212
0
VERTEX
8
1
10
6.838521
20
12.106350
0
VERTEX
8
1
10
6.540346
20
12.231731
0
VERTEX
8
1
10
6.937459
20
12.557735
0
VERTEX
8
1
10
7.002904
20
13.044857
0
SEQEND
0
POLYLINE
8
1
66
1
70
1
0
VERTEX
8
1
10
6.685949
20
15.514095
0
VERTEX
8
1
10
6.768201
20
15.998852
0
VERTEX
8
1
10
6.971342
20
15.680050
0
VERTEX
8
1
10
7.391290
20
15.690441
0
VERTEX
8
1
10
7.095312
20
15.273388
0
VERTEX
8
1
10
7.261243
20
14.840511
0
VERTEX
8
1
10
6.857366
20
14.944378
0
VERTEX
8
1
10
6.528314
20
14.537884
0
VERTEX
8
1
10
6.571378
20
15.064861
0
VERTEX
8
1
10
6.278234
20
15.202770
0
SEQEND
0
POLYLINE
8
1
66
1
70
1
0
VERTEX
8
1
10
6.331258
20
16.856701
0
VERTEX
8
1
10
6.047506
20
16.425411
0
VERTEX
8
1
10
6.228944
20
15.985744
0
VERTEX
8
1
10
5.821371
20
16.088604
0
VERTEX
8
1
10
5.504495
20
15.669735
0
VERTEX
8
1
10
5.529180
20
16.210079
0
VERTEX
8
1
10
5.228746
20
16.349133
0
VERTEX
8
1
10
5.628210
20
16.671978
0
VERTEX
8
1
10
5.693170
20
17.165859
0
VERTEX
8
1
10
5.907079
20
16.843029
0
SEQEND
0
POLYLINE
8
1
66
1
70
1
0
VERTEX
8
1
10
8.531656
20
15.754147
42
-0.154719
0
VERTEX
8
1
10
8.526626
20
15.352454
42
-0.234591
0
VERTEX
8
1
10
8.327480
20
15.176671
42
-0.746645
0
VERTEX
8
1
10
8.307985
20
15.233349
42
0.302951
0
VERTEX
8
1
10
8.490156
20
15.454037
42
0.093773
0
VERTEX
8
1
10
8.471678
20
15.745595
42
-0.763227
0
SEQEND
0
POLYLINE
8
1
66
1
70
1
0
VERTEX
8
1
10
33.615547
20
10.541134
42
-0.829338
0
VERTEX
8
1
10
33.630531
20
10.600718
42
0.054190
0
VERTEX
8
1
10
35.561249
20
9.929802
42
-0.743828
0
VERTEX
8
1
10
35.547264
20
9.871593
42
-0.056408
0
SEQEND
0
POLYLINE
8
1
66
1
70
1
0
VERTEX
8
1
10
33.508057
20
9.368816
42
-0.905259
0
VERTEX
8
1
10
33.518654
20
9.430113
42
0.007638
0
VERTEX
8
1
10
35.519550
20
9.013049
42
-0.768466
0
VERTEX
8
1
10
35.503624
20
8.954783
42
-0.008523
0
SEQEND
0
POLYLINE
8
1
66
1
70
1
0
VERTEX
8
1
10
31.911232
20
12.706448
42
-0.884671
0
VERTEX
8
1
10
31.921555
20
12.767653
42
-0.030882
0
VERTEX
8
1
10
32.794807
20
12.514517
42
0.013067
0
VERTEX
8
1
10
33.552467
20
12.283932
42
0.058839
0
VERTEX
8
1
10
33.928570
20
12.224832
42
-0.876112
0
VERTEX
8
1
10
33.920265
20
12.163433
42
-0.060012
0
VERTEX
8
1
10
33.607697
20
12.206967
42
-0.024300
0
VERTEX
8
1
10
33.165504
20
12.330486
0
VERTEX
8
1
10
32.489868
20
12.548595
42
0.020642
0
SEQEND
0
POLYLINE
8
1
66
1
70
1
0
VERTEX
8
1
10
31.405876
20
13.643139
0
VERTEX
8
1
10
31.720726
20
13.643139
0
VERTEX
8
1
10
31.720726
20
13.314663
0
VERTEX
8
1
10
31.624802
20
13.299725
42
0.200280
0
VERTEX
8
1
10
31.541206
20
13.254086
42
0.015585
0
VERTEX
8
1
10
31.619120
20
12.117299
42
0.072938
0
VERTEX
8
1
10
31.632881
20
12.071850
0
VERTEX
8
1
10
31.817116
20
12.071835
0
VERTEX
8
1
10
31.817116
20
11.725552
0
VERTEX
8
1
10
31.447891
20
11.725475
0
VERTEX
8
1
10
31.447380
20
11.850033
0
VERTEX
8
1
10
31.692108
20
11.850811
0
VERTEX
8
1
10
31.691978
20
11.946865
0
VERTEX
8
1
10
31.595268
20
11.946865
42
-0.260527
0
VERTEX
8
1
10
31.499550
20
12.080746
0
VERTEX
8
1
10
31.490166
20
12.142877
42
-0.012663
0
VERTEX
8
1
10
31.412613
20
13.285901
42
-0.227794
0
VERTEX
8
1
10
31.595734
20
13.422512
0
VERTEX
8
1
10
31.595726
20
13.517620
0
VERTEX
8
1
10
31.405716
20
13.518398
0
SEQEND
0
POLYLINE
8
1
66
1
70
1
0
VERTEX
8
1
10
33.166832
20
14.568461
42
0.017782
0
VERTEX
8
1
10
33.944550
20
14.356638
42
-0.863114
0
VERTEX
8
1
10
33.924255
20
14.298230
42
-0.027941
0
VERTEX
8
1
10
32.589035
20
14.691031
42
-0.004704
0
VERTEX
8
1
10
31.081837
20
15.220062
42
0.005557
0
VERTEX
8
1
10
29.899488
20
15.616778
42
-0.785294
0
VERTEX
8
1
10
29.919815
20
15.673978
42
-0.011052
0
VERTEX
8
1
10
31.815464
20
15.024408
42
0.009079
0
SEQEND
0
POLYLINE
8
1
66
1
70
1
0
VERTEX
8
1
10
31.007362
20
12.080090
0
VERTEX
8
1
10
30.982803
20
12.659084
0
VERTEX
8
1
10
30.558136
20
11.715847
0
VERTEX
8
1
10
30.319984
20
11.715832
0
VERTEX
8
1
10
30.317787
20
11.718960
0
VERTEX
8
1
10
29.906487
20
12.644375
42
0.011573
0
VERTEX
8
1
10
29.869614
20
12.103037
42
0.387012
0
VERTEX
8
1
10
29.918068
20
12.062832
0
VERTEX
8
1
10
30.071846
20
12.062237
0
VERTEX
8
1
10
30.072342
20
11.725765
0
VERTEX
8
1
10
29.794601
20
11.725475
0
VERTEX
8
1
10
29.794731
20
11.850475
0
VERTEX
8
1
10
29.946831
20
11.850475
0
VERTEX
8
1
10
29.947342
20
11.937160
0
VERTEX
8
1
10
29.925606
20
11.937237
42
-0.461789
0
VERTEX
8
1
10
29.744453
20
12.127808
42
-0.006879
0
VERTEX
8
1
10
29.821791
20
13.139549
0
VERTEX
8
1
10
29.823975
20
13.137798
0
VERTEX
8
1
10
30.400986
20
11.840832
0
VERTEX
8
1
10
30.477516
20
11.840832
0
VERTEX
8
1
10
31.084862
20
13.189434
0
VERTEX
8
1
10
31.132866
20
12.085552
42
-0.364252
0
VERTEX
8
1
10
31.011871
20
11.946864
0
VERTEX
8
1
10
30.892029
20
11.946865
0
VERTEX
8
1
10
30.892288
20
11.850460
0
VERTEX
8
1
10
31.197372
20
11.850048
0
VERTEX
8
1
10
31.197380
20
11.725582
0
VERTEX
8
1
10
30.767029
20
11.725475
0
VERTEX
8
1
10
30.767227
20
12.071865
0
VERTEX
8
1
10
30.989410
20
12.071865
42
0.286478
0
SEQEND
0
POLYLINE
8
1
66
1
70
1
0
VERTEX
8
1
10
31.149902
20
13.941235
42
-0.852732
0
VERTEX
8
1
10
31.135330
20
13.880886
42
0.024326
0
VERTEX
8
1
10
29.923658
20
14.361157
42
-0.709391
0
VERTEX
8
1
10
29.940254
20
14.417751
42
-0.028217
0
SEQEND
0
POLYLINE
8
1
66
1
70
1
0
VERTEX
8
1
10
31.155716
20
13.643139
0
VERTEX
8
1
10
31.155716
20
13.518139
0
VERTEX
8
1
10
31.065544
20
13.518139
0
VERTEX
8
1
10
30.544998
20
12.361385
0
VERTEX
8
1
10
30.024452
20
13.518139
0
VERTEX
8
1
10
29.933495
20
13.518139
0
VERTEX
8
1
10
29.933495
20
13.643139
0
VERTEX
8
1
10
30.105278
20
13.643139
0
VERTEX
8
1
10
30.544998
20
12.665981
0
VERTEX
8
1
10
30.984711
20
13.643139
0
SEQEND
0
POLYLINE
8
1
66
1
70
1
0
VERTEX
8
1
10
28.442543
20
16.829876
42
-0.938111
0
VERTEX
8
1
10
28.450821
20
16.891870
0
VERTEX
8
1
10
28.469337
20
16.886684
42
0.031357
0
VERTEX
8
1
10
28.684296
20
16.818417
42
-0.046169
0
VERTEX
8
1
10
31.477297
20
16.014074
42
-0.868327
0
VERTEX
8
1
10
31.453857
20
15.956294
42
0.046483
0
VERTEX
8
1
10
28.650261
20
16.761669
42
-0.015736
0
SEQEND
0
POLYLINE
8
1
66
1
70
1
0
VERTEX
8
1
10
29.364395
20
14.838894
42
0.176052
0
VERTEX
8
1
10
29.179909
20
15.123074
42
0.056526
0
VERTEX
8
1
10
28.983751
20
15.247925
42
-0.023023
0
VERTEX
8
1
10
28.612440
20
15.477653
42
-0.193761
0
VERTEX
8
1
10
28.504509
20
15.668238
42
-0.215193
0
VERTEX
8
1
10
28.557114
20
15.797680
0
VERTEX
8
1
10
28.597015
20
15.830517
42
-0.348783
0
VERTEX
8
1
10
29.070099
20
15.710201
42
-0.086872
0
VERTEX
8
1
10
29.182632
20
15.492016
0
VERTEX
8
1
10
29.298271
20
15.511425
0
VERTEX
8
1
10
29.250656
20
15.911480
42
0.630842
0
VERTEX
8
1
10
29.180574
20
15.931027
42
-0.095285
0
VERTEX
8
1
10
29.134911
20
15.914776
42
0.033666
0
VERTEX
8
1
10
28.877937
20
15.971935
0
VERTEX
8
1
10
28.877937
20
16.096722
42
-0.038048
0
VERTEX
8
1
10
29.127739
20
16.046886
42
-0.498438
0
VERTEX
8
1
10
29.371971
20
15.945797
0
VERTEX
8
1
10
29.436241
20
15.409924
0
VERTEX
8
1
10
29.435043
20
15.407345
0
VERTEX
8
1
10
29.096886
20
15.351543
0
VERTEX
8
1
10
29.055428
20
15.477566
42
0.138894
0
VERTEX
8
1
10
28.916586
20
15.687842
42
0.269199
0
VERTEX
8
1
10
28.654697
20
15.717518
42
0.405636
0
VERTEX
8
1
10
28.636761
20
15.649737
42
0.107110
0
VERTEX
8
1
10
28.669624
20
15.594570
42
0.046903
0
VERTEX
8
1
10
29.029676
20
15.368779
42
-0.066973
0
VERTEX
8
1
10
29.324728
20
15.160577
42
-0.139810
0
VERTEX
8
1
10
29.485786
20
14.863045
42
-0.049814
0
VERTEX
8
1
10
29.510674
20
14.700085
42
-0.131695
0
VERTEX
8
1
10
29.395418
20
14.368176
0
VERTEX
8
1
10
29.375183
20
14.341730
42
-0.138749
0
VERTEX
8
1
10
29.094591
20
14.154386
42
-0.064132
0
VERTEX
8
1
10
28.933502
20
14.117840
0
VERTEX
8
1
10
28.933495
20
14.242611
42
0.196724
0
VERTEX
8
1
10
29.283485
20
14.429092
42
0.138401
0
VERTEX
8
1
10
29.384712
20
14.698711
42
0.041417
0
SEQEND
0
POLYLINE
8
1
66
1
70
1
0
VERTEX
8
1
10
28.236351
20
15.917187
42
-0.183317
0
VERTEX
8
1
10
28.627937
20
16.100552
0
VERTEX
8
1
10
28.627937
20
15.977077
0
VERTEX
8
1
10
28.611109
20
15.973631
0
VERTEX
8
1
10
28.594286
20
15.970156
42
0.563323
0
VERTEX
8
1
10
28.288002
20
15.276318
42
0.088882
0
VERTEX
8
1
10
28.627422
20
15.025949
42
-0.055388
0
VERTEX
8
1
10
28.927643
20
14.814692
42
-0.080271
0
VERTEX
8
1
10
29.031998
20
14.673458
0
VERTEX
8
1
10
29.046516
20
14.624065
42
-0.435117
0
VERTEX
8
1
10
28.767008
20
14.336225
42
-0.112069
0
VERTEX
8
1
10
28.591858
20
14.366833
42
-0.171355
0
VERTEX
8
1
10
28.283066
20
14.758968
42
-0.031714
0
VERTEX
8
1
10
28.180099
20
14.749752
0
VERTEX
8
1
10
28.257729
20
14.258205
0
VERTEX
8
1
10
28.343979
20
14.267834
0
VERTEX
8
1
10
28.363243
20
14.306332
42
0.032232
0
VERTEX
8
1
10
28.683495
20
14.236385
0
VERTEX
8
1
10
28.683495
20
14.112576
42
-0.033777
0
VERTEX
8
1
10
28.429443
20
14.159237
0
VERTEX
8
1
10
28.425468
20
14.151302
0
VERTEX
8
1
10
28.154266
20
14.120907
0
VERTEX
8
1
10
28.151909
20
14.122738
0
VERTEX
8
1
10
28.033966
20
14.874737
42
0.061059
0
VERTEX
8
1
10
28.385498
20
14.899807
42
0.032271
0
VERTEX
8
1
10
28.418701
20
14.752987
42
0.158134
0
VERTEX
8
1
10
28.663437
20
14.471325
42
0.126526
0
VERTEX
8
1
10
28.828079
20
14.471644
42
0.380506
0
VERTEX
8
1
10
28.915985
20
14.628840
42
0.133567
0
VERTEX
8
1
10
28.886536
20
14.673824
42
0.097002
0
VERTEX
8
1
10
28.549459
20
14.924249
42
-0.089078
0
VERTEX
8
1
10
28.176159
20
15.214262
42
-0.344149
0
SEQEND
0
POLYLINE
8
1
66
1
70
1
0
VERTEX
8
1
10
27.924171
20
17.652706
0
VERTEX
8
1
10
27.924171
20
17.777203
0
VERTEX
8
1
10
28.288383
20
17.777203
0
VERTEX
8
1
10
28.289856
20
17.775768
0
VERTEX
8
1
10
28.289848
20
17.421169
0
VERTEX
8
1
10
28.135750
20
17.420818
42
0.374969
0
VERTEX
8
1
10
28.058731
20
17.354717
42
-0.005371
0
VERTEX
8
1
10
28.068132
20
16.553234
42
-0.123017
0
VERTEX
8
1
10
27.920187
20
16.109484
42
-0.147473
0
VERTEX
8
1
10
27.637249
20
15.884562
42
-0.067881
0
VERTEX
8
1
10
27.405716
20
15.817806
0
VERTEX
8
1
10
27.405716
20
15.944942
42
0.171098
0
VERTEX
8
1
10
27.783127
20
16.137844
0
VERTEX
8
1
10
27.820946
20
16.187023
42
0.116549
0
VERTEX
8
1
10
27.943123
20
16.553280
42
0.005520
0
VERTEX
8
1
10
27.933531
20
17.361431
42
-0.414028
0
VERTEX
8
1
10
28.164742
20
17.546169
0
VERTEX
8
1
10
28.164848
20
17.652203
0
SEQEND
0
POLYLINE
8
1
66
1
70
1
0
VERTEX
8
1
10
24.709099
20
14.007793
0
VERTEX
8
1
10
24.710587
20
14.005108
0
VERTEX
8
1
10
24.538422
20
14.053738
0
VERTEX
8
1
10
24.535500
20
14.056942
0
VERTEX
8
1
10
24.421425
20
14.246120
0
VERTEX
8
1
10
24.426346
20
14.245861
42
5.817186
0
VERTEX
8
1
10
24.182831
20
14.613781
0
VERTEX
8
1
10
24.180557
20
14.613750
0
VERTEX
8
1
10
24.129311
20
14.686200
42
0.008000
0
VERTEX
8
1
10
23.421928
20
15.574034
0
VERTEX
8
1
10
23.385513
20
15.613827
42
0.194908
0
VERTEX
8
1
10
23.263393
20
15.631012
42
0.180131
0
VERTEX
8
1
10
22.980732
20
15.472352
42
0.148133
0
VERTEX
8
1
10
22.939682
20
15.350750
42
0.005632
0
VERTEX
8
1
10
23.378647
20
14.463567
0
VERTEX
8
1
10
23.458939
20
14.314219
42
-0.137897
0
VERTEX
8
1
10
23.491951
20
14.192135
0
VERTEX
8
1
10
23.490189
20
14.172924
42
0.156127
0
VERTEX
8
1
10
22.319756
20
15.024273
0
VERTEX
8
1
10
22.320580
20
15.028088
42
0.111091
0
VERTEX
8
1
10
22.354721
20
15.069698
42
-0.552320
0
VERTEX
8
1
10
22.411381
20
15.118649
42
-0.197061
0
VERTEX
8
1
10
22.467884
20
15.083789
42
0.306767
0
VERTEX
8
1
10
22.537504
20
15.069981
42
-0.430850
0
VERTEX
8
1
10
22.576118
20
15.036266
0
VERTEX
8
1
10
22.581413
20
15.030773
0
VERTEX
8
1
10
22.586708
20
15.033138
42
-0.001651
0
VERTEX
8
1
10
22.645317
20
15.100611
42
-0.375904
0
VERTEX
8
1
10
22.678526
20
15.095645
42
0.166962
0
VERTEX
8
1
10
22.732887
20
15.083889
42
0.358037
0
VERTEX
8
1
10
22.729919
20
15.129165
42
-0.305409
0
VERTEX
8
1
10
22.740841
20
15.200227
42
-0.092911
0
VERTEX
8
1
10
22.800323
20
15.253765
0
VERTEX
8
1
10
22.779655
20
15.318356
0
VERTEX
8
1
10
22.779976
20
15.324795
42
0.018444
0
VERTEX
8
1
10
22.807579
20
15.497082
0
VERTEX
8
1
10
22.813484
20
15.521862
0
VERTEX
8
1
10
22.834297
20
15.493298
42
-0.197678
0
VERTEX
8
1
10
23.149035
20
15.746305
42
-0.132636
0
VERTEX
8
1
10
23.368164
20
15.766413
42
-0.164933
0
VERTEX
8
1
10
23.498039
20
15.681438
42
-0.010211
0
VERTEX
8
1
10
24.051338
20
14.994153
0
VERTEX
8
1
10
24.075882
20
15.045025
42
-2.112279
0
SEQEND
0
POLYLINE
8
1
66
1
70
1
0
VERTEX
8
1
10
22.045330
20
11.937969
42
-0.022199
0
VERTEX
8
1
10
22.034126
20
12.038490
42
0.160889
0
VERTEX
8
1
10
21.974468
20
12.133113
42
-0.003666
0
VERTEX
8
1
10
21.764549
20
12.321163
42
-0.236724
0
VERTEX
8
1
10
21.715965
20
12.444988
42
-0.098375
0
VERTEX
8
1
10
21.818016
20
12.817336
42
0.305225
0
VERTEX
8
1
10
21.803005
20
12.850339
0
VERTEX
8
1
10
21.791702
20
12.861721
42
0.031292
0
VERTEX
8
1
10
21.519791
20
13.029095
42
0.085904
0
VERTEX
8
1
10
20.877293
20
13.197643
42
-0.140965
0
VERTEX
8
1
10
20.705788
20
13.312921
42
-0.070655
0
VERTEX
8
1
10
20.422283
20
13.691991
42
0.337159
0
VERTEX
8
1
10
20.351665
20
13.706787
42
0.026901
0
VERTEX
8
1
10
20.279190
20
13.683605
0
VERTEX
8
1
10
20.265564
20
13.684521
42
-0.141109
0
VERTEX
8
1
10
20.229141
20
13.777218
42
-0.091732
0
VERTEX
8
1
10
20.242531
20
14.256573
42
0.060834
0
VERTEX
8
1
10
20.218254
20
14.513897
0
VERTEX
8
1
10
20.215763
20
14.543346
0
VERTEX
8
1
10
20.214710
20
14.572903
42
-0.102772
0
VERTEX
8
1
10
20.319782
20
14.663982
42
-0.025822
0
VERTEX
8
1
10
20.826046
20
14.946911
42
-0.306199
0
VERTEX
8
1
10
20.922810
20
14.888247
42
0.019045
0
VERTEX
8
1
10
20.986202
20
14.799752
42
0.319390
0
VERTEX
8
1
10
21.091118
20
14.788005
42
-0.199332
0
VERTEX
8
1
10
21.200157
20
14.784161
42
-0.329546
0
VERTEX
8
1
10
21.213280
20
14.738369
0
VERTEX
8
1
10
21.210979
20
14.725063
42
0.105269
0
VERTEX
8
1
10
21.188652
20
14.584026
42
0.208625
0
VERTEX
8
1
10
21.422516
20
14.352359
42
0.394047
0
VERTEX
8
1
10
21.574272
20
14.418709
42
0.195027
0
VERTEX
8
1
10
21.574959
20
14.510601
42
-0.308788
0
VERTEX
8
1
10
21.618237
20
14.654583
42
-0.004907
0
VERTEX
8
1
10
22.013054
20
14.443020
0
VERTEX
8
1
10
22.035454
20
14.423962
42
-0.461469
0
VERTEX
8
1
10
22.030777
20
14.354061
42
-0.106476
0
VERTEX
8
1
10
21.841171
20
14.265499
42
0.031977
0
VERTEX
8
1
10
21.547457
20
13.775886
42
0.206753
0
VERTEX
8
1
10
21.553226
20
13.636435
42
0.096632
0
VERTEX
8
1
10
21.676737
20
13.451212
42
-0.057934
0
VERTEX
8
1
10
21.742790
20
13.351101
42
-0.412415
0
VERTEX
8
1
10
21.698563
20
13.334942
42
-0.070197
0
VERTEX
8
1
10
21.624313
20
13.381802
42
-0.008448
0
VERTEX
8
1
10
21.427326
20
13.581509
42
0.197516
0
VERTEX
8
1
10
21.125250
20
13.553131
42
0.105837
0
VERTEX
8
1
10
21.038967
20
13.472042
0
VERTEX
8
1
10
21.031322
20
13.448040
0
VERTEX
8
1
10
21.033108
20
13.424908
42
0.168779
0
VERTEX
8
1
10
21.099133
20
13.350079
42
0.064153
0
VERTEX
8
1
10
21.372032
20
13.235668
42
-0.107082
0
VERTEX
8
1
10
21.658812
20
13.041887
42
0.145424
0
VERTEX
8
1
10
21.850777
20
12.959011
42
0.042332
0
VERTEX
8
1
10
22.209892
20
12.945128
42
-0.114383
0
VERTEX
8
1
10
22.586195
20
12.867950
42
-0.123746
0
VERTEX
8
1
10
22.788128
20
12.692094
42
0.137719
0
VERTEX
8
1
10
23.053493
20
12.525087
0
VERTEX
8
1
10
23.089294
20
12.514339
42
-0.094097
0
VERTEX
8
1
10
23.285934
20
12.430904
0
VERTEX
8
1
10
23.284615
20
12.411175
42
-0.105690
0
VERTEX
8
1
10
23.207226
20
12.295466
42
-0.042602
0
VERTEX
8
1
10
23.023323
20
12.124111
42
-0.185076
0
VERTEX
8
1
10
22.837860
20
11.896496
0
VERTEX
8
1
10
22.810616
20
11.878414
42
0.183610
0
VERTEX
8
1
10
22.633108
20
11.688708
0
VERTEX
8
1
10
22.608864
20
11.637535
42
-0.075248
0
VERTEX
8
1
10
22.465527
20
11.399118
42
-0.090899
0
VERTEX
8
1
10
22.315474
20
11.286939
42
0.086939
0
VERTEX
8
1
10
22.202717
20
11.191891
42
-0.064369
0
VERTEX
8
1
10
22.158920
20
10.937076
42
-0.081694
0
VERTEX
8
1
10
22.129547
20
10.892559
0
VERTEX
8
1
10
22.111301
20
10.887814
42
-0.219404
0
VERTEX
8
1
10
21.994398
20
10.986739
42
-0.106215
0
VERTEX
8
1
10
21.957327
20
11.116587
42
-0.085706
0
VERTEX
8
1
10
21.969372
20
11.477489
0
VERTEX
8
1
10
21.986916
20
11.519573
42
0.138054
0
SEQEND
0
POLYLINE
8
1
66
1
70
1
0
VERTEX
8
1
10
25.781189
20
15.800426
42
0.073167
0
VERTEX
8
1
10
25.419497
20
15.682408
0
VERTEX
8
1
10
25.376389
20
15.666206
42
-0.074958
0
VERTEX
8
1
10
24.903244
20
15.599422
42
-0.021754
0
VERTEX
8
1
10
24.036142
20
15.632294
42
-0.799964
0
VERTEX
8
1
10
24.045769
20
15.693020
0
VERTEX
8
1
10
24.353676
20
15.675045
42
0.030875
0
VERTEX
8
1
10
25.093573
20
15.671858
42
0.057133
0
VERTEX
8
1
10
25.374077
20
15.732082
0
VERTEX
8
1
10
25.420574
20
15.753878
42
-0.080326
0
VERTEX
8
1
10
25.925852
20
15.884783
42
-0.047775
0
VERTEX
8
1
10
26.303188
20
15.891799
42
-0.739786
0
VERTEX
8
1
10
26.304230
20
15.832056
42
0.055383
0
SEQEND
0
POLYLINE
8
1
66
1
70
1
0
VERTEX
8
1
10
25.881737
20
14.080532
42
-0.876923
0
VERTEX
8
1
10
25.866089
20
14.140483
42
-0.094503
0
VERTEX
8
1
10
27.727261
20
14.013438
42
-0.783067
0
VERTEX
8
1
10
27.709816
20
13.955303
42
0.092710
0
SEQEND
0
POLYLINE
8
1
66
1
70
1
0
VERTEX
8
1
10
27.720261
20
14.889400
42
-0.820968
0
VERTEX
8
1
10
27.714455
20
14.828381
42
0.038793
0
VERTEX
8
1
10
26.776031
20
14.961577
42
0.045060
0
VERTEX
8
1
10
26.183973
20
14.937488
42
0.036724
0
VERTEX
8
1
10
25.919842
20
14.872028
42
-0.821164
0
VERTEX
8
1
10
25.907349
20
14.932063
42
-0.080426
0
VERTEX
8
1
10
26.554581
20
15.028576
42
-0.055977
0
SEQEND
0
POLYLINE
8
1
66
1
70
1
0
VERTEX
8
1
10
26.752937
20
17.652294
0
VERTEX
8
1
10
26.752937
20
17.777203
0
VERTEX
8
1
10
27.132805
20
17.777203
0
VERTEX
8
1
10
27.133080
20
17.412579
0
VERTEX
8
1
10
27.132103
20
17.411510
0
VERTEX
8
1
10
26.963974
20
17.411526
42
0.168678
0
VERTEX
8
1
10
26.901726
20
17.371517
0
VERTEX
8
1
10
26.901733
20
16.581921
42
0.106715
0
VERTEX
8
1
10
26.935471
20
16.360607
42
0.220209
0
VERTEX
8
1
10
27.057991
20
16.265255
42
0.067672
0
VERTEX
8
1
10
27.327759
20
16.225994
42
0.302197
0
VERTEX
8
1
10
27.607697
20
16.413343
42
0.104952
0
VERTEX
8
1
10
27.663483
20
16.646191
42
0.005192
0
VERTEX
8
1
10
27.645048
20
17.379509
0
VERTEX
8
1
10
27.642990
20
17.386986
42
0.257469
0
VERTEX
8
1
10
27.572113
20
17.420528
0
VERTEX
8
1
10
27.403625
20
17.421749
0
VERTEX
8
1
10
27.403679
20
17.777218
0
VERTEX
8
1
10
27.738983
20
17.777203
0
VERTEX
8
1
10
27.739044
20
17.652401
0
VERTEX
8
1
10
27.528625
20
17.651775
0
VERTEX
8
1
10
27.528679
20
17.546185
42
-0.112324
0
VERTEX
8
1
10
27.686464
20
17.518007
42
-0.261798
0
VERTEX
8
1
10
27.769348
20
17.386501
42
-0.007650
0
VERTEX
8
1
10
27.788595
20
16.650816
42
-0.126619
0
VERTEX
8
1
10
27.696896
20
16.311749
42
-0.192597
0
VERTEX
8
1
10
27.439087
20
16.117367
0
VERTEX
8
1
10
27.334267
20
16.100994
42
-0.095828
0
VERTEX
8
1
10
26.957933
20
16.170279
42
-0.224489
0
VERTEX
8
1
10
26.801487
20
16.367664
42
-0.078129
0
VERTEX
8
1
10
26.776733
20
16.545574
0
VERTEX
8
1
10
26.776733
20
17.411221
42
-0.219681
0
VERTEX
8
1
10
26.948311
20
17.535885
0
VERTEX
8
1
10
27.007942
20
17.536526
0
VERTEX
8
1
10
27.008080
20
17.651531
0
VERTEX
8
1
10
27.007355
20
17.652187
0
SEQEND
0
POLYLINE
8
1
66
1
70
1
0
VERTEX
8
1
10
26.054054
20
17.412029
0
VERTEX
8
1
10
26.054062
20
17.777203
0
VERTEX
8
1
10
26.502304
20
17.777203
0
VERTEX
8
1
10
26.502937
20
17.652905
0
VERTEX
8
1
10
26.502281
20
17.652203
0
VERTEX
8
1
10
26.179070
20
17.652203
0
VERTEX
8
1
10
26.179070
20
17.539013
0
VERTEX
8
1
10
26.178581
20
17.538067
42
-0.143671
0
VERTEX
8
1
10
26.338491
20
17.500694
42
-0.224796
0
VERTEX
8
1
10
26.401291
20
17.387478
0
VERTEX
8
1
10
26.408730
20
17.285564
42
-0.007055
0
VERTEX
8
1
10
26.430943
20
16.470760
0
VERTEX
8
1
10
26.434557
20
16.437569
42
0.313190
0
VERTEX
8
1
10
26.882341
20
15.944820
42
0.065654
0
VERTEX
8
1
10
27.155716
20
15.916210
0
VERTEX
8
1
10
27.155258
20
15.791714
42
-0.118249
0
VERTEX
8
1
10
26.697660
20
15.878460
42
-0.272966
0
VERTEX
8
1
10
26.305115
20
16.480007
42
0.010667
0
VERTEX
8
1
10
26.279501
20
17.347006
0
VERTEX
8
1
10
26.276253
20
17.381237
42
0.302200
0
VERTEX
8
1
10
26.219513
20
17.411129
0
SEQEND
0
POLYLINE
8
1
66
1
70
1
0
VERTEX
8
1
10
25.745255
20
16.984341
42
-0.988258
0
VERTEX
8
1
10
25.720963
20
17.042767
42
-0.020666
0
VERTEX
8
1
10
26.093813
20
17.103102
42
-0.750594
0
VERTEX
8
1
10
26.095299
20
17.043102
42
0.010940
0
SEQEND
0
POLYLINE
8
1
66
1
70
1
0
VERTEX
8
1
10
24.339241
20
18.055111
42
0.036587
0
VERTEX
8
1
10
24.693804
20
18.145332
42
-0.767206
0
VERTEX
8
1
10
24.713593
20
18.088299
0
VERTEX
8
1
10
24.666203
20
18.071316
0
VERTEX
8
1
10
24.618252
20
18.055984
42
-0.069613
0
VERTEX
8
1
10
23.687376
20
17.939199
42
-0.035647
0
VERTEX
8
1
10
22.593130
20
18.013731
42
-0.737687
0
VERTEX
8
1
10
22.597954
20
18.073238
42
0.030784
0
VERTEX
8
1
10
23.719561
20
17.999645
42
0.036041
0
SEQEND
0
POLYLINE
8
1
66
1
70
1
0
VERTEX
8
1
10
22.566795
20
18.227779
42
-0.070338
0
VERTEX
8
1
10
22.443142
20
18.203487
0
VERTEX
8
1
10
22.350645
20
18.204884
42
-0.045199
0
VERTEX
8
1
10
21.429010
20
18.315363
42
0.076105
0
VERTEX
8
1
10
20.735683
20
18.341619
42
0.046591
0
VERTEX
8
1
10
20.653267
20
18.318661
42
0.048248
0
VERTEX
8
1
10
20.697624
20
18.241100
42
0.049954
0
VERTEX
8
1
10
20.967331
20
18.025051
0
VERTEX
8
1
10
20.993717
20
18.015102
42
-0.105890
0
VERTEX
8
1
10
21.387798
20
18.129696
42
-0.124393
0
VERTEX
8
1
10
21.788071
20
18.038961
42
-0.155975
0
VERTEX
8
1
10
22.007477
20
17.798611
0
VERTEX
8
1
10
22.029877
20
17.772457
0
VERTEX
8
1
10
22.329353
20
17.727123
42
-0.151683
0
VERTEX
8
1
10
22.609344
20
17.842602
0
VERTEX
8
1
10
22.773598
20
17.852001
42
-0.069989
0
VERTEX
8
1
10
23.254593
20
17.732128
42
-0.030511
0
VERTEX
8
1
10
24.185295
20
17.293835
42
0.010579
0
VERTEX
8
1
10
24.972244
20
16.909405
42
0.056801
0
VERTEX
8
1
10
25.596161
20
16.722393
0
VERTEX
8
1
10
25.650192
20
16.715771
0
VERTEX
8
1
10
25.667885
20
16.670681
42
0.222493
0
VERTEX
8
1
10
25.729332
20
16.616104
42
-0.269109
0
VERTEX
8
1
10
25.821060
20
16.458275
42
-0.311513
0
VERTEX
8
1
10
25.704800
20
16.318110
42
0.029005
0
VERTEX
8
1
10
25.619919
20
16.272427
42
-0.202450
0
VERTEX
8
1
10
25.394966
20
16.172661
42
0.012850
0
VERTEX
8
1
10
25.298576
20
16.163570
42
-0.199658
0
VERTEX
8
1
10
24.975433
20
16.092861
0
VERTEX
8
1
10
24.953484
20
16.093410
0
VERTEX
8
1
10
24.931519
20
16.093212
42
-0.141038
0
VERTEX
8
1
10
24.661018
20
16.043453
42
-0.046836
0
VERTEX
8
1
10
24.043427
20
16.145702
42
-0.310760
0
VERTEX
8
1
10
23.893135
20
16.075283
0
VERTEX
8
1
10
23.859978
20
16.077526
42
-0.032307
0
VERTEX
8
1
10
23.441429
20
16.176281
42
-0.051277
0
VERTEX
8
1
10
23.397682
20
16.171474
42
-0.403223
0
VERTEX
8
1
10
23.199875
20
16.092617
0
VERTEX
8
1
10
23.198341
20
16.092175
0
VERTEX
8
1
10
23.233345
20
15.975002
0
VERTEX
8
1
10
22.992783
20
16.055218
42
-0.403217
0
VERTEX
8
1
10
22.804527
20
15.991482
0
VERTEX
8
1
10
22.781700
20
16.000546
0
VERTEX
8
1
10
22.759796
20
16.011654
42
-0.376220
0
VERTEX
8
1
10
22.561508
20
15.969692
0
VERTEX
8
1
10
22.552780
20
15.969677
42
-0.195794
0
VERTEX
8
1
10
22.412346
20
15.940838
42
0.192939
0
VERTEX
8
1
10
22.432663
20
15.868069
42
0.106743
0
VERTEX
8
1
10
22.657623
20
15.665051
0
VERTEX
8
1
10
22.678528
20
15.650234
0
VERTEX
8
1
10
22.699089
20
15.634945
0
VERTEX
8
1
10
22.696388
20
15.628872
0
VERTEX
8
1
10
22.620758
20
15.529751
42
-0.034953
0
VERTEX
8
1
10
22.430340
20
15.671157
42
-0.119253
0
VERTEX
8
1
10
22.297773
20
15.870182
42
-0.238034
0
VERTEX
8
1
10
22.337692
20
16.040447
0
VERTEX
8
1
10
22.359131
20
16.050167
42
-0.057510
0
VERTEX
8
1
10
22.471022
20
16.049841
42
0.350199
0
VERTEX
8
1
10
22.494301
20
16.078182
0
VERTEX
8
1
10
22.494759
20
16.156414
42
0.071628
0
VERTEX
8
1
10
22.635391
20
16.064266
42
0.555559
0
VERTEX
8
1
10
22.662392
20
16.078060
42
0.031405
0
VERTEX
8
1
10
22.614443
20
16.226074
42
-0.671066
0
VERTEX
8
1
10
22.627968
20
16.232616
0
VERTEX
8
1
10
22.641975
20
16.225460
42
0.051147
0
VERTEX
8
1
10
22.855721
20
16.095425
0
VERTEX
8
1
10
22.870819
20
16.091473
42
0.734737
0
VERTEX
8
1
10
22.886398
20
16.108273
42
-0.227361
0
VERTEX
8
1
10
22.883366
20
16.232891
42
-0.407110
0
VERTEX
8
1
10
22.925522
20
16.235989
42
0.078748
0
VERTEX
8
1
10
23.050880
20
16.156750
42
-0.126799
0
VERTEX
8
1
10
23.045853
20
16.243290
42
-0.401088
0
VERTEX
8
1
10
23.089005
20
16.260082
42
-0.026228
0
VERTEX
8
1
10
23.229017
20
16.202879
42
0.167111
0
VERTEX
8
1
10
23.282257
20
16.199038
0
VERTEX
8
1
10
23.285820
20
16.203802
0
VERTEX
8
1
10
23.287262
20
16.209576
42
0.038413
0
VERTEX
8
1
10
23.270300
20
16.284828
42
-0.332187
0
VERTEX
8
1
10
23.284752
20
16.301313
42
-0.037445
0
VERTEX
8
1
10
23.384586
20
16.282967
42
0.170285
0
VERTEX
8
1
10
23.440338
20
16.295757
42
0.019662
0
VERTEX
8
1
10
23.831512
20
16.195963
0
VERTEX
8
1
10
23.875828
20
16.190170
0
VERTEX
8
1
10
23.920364
20
16.186428
0
VERTEX
8
1
10
23.938698
20
16.191143
0
VERTEX
8
1
10
23.939919
20
16.202709
42
-0.053370
0
VERTEX
8
1
10
23.927063
20
16.295773
42
0.046914
0
VERTEX
8
1
10
24.625122
20
16.157192
0
VERTEX
8
1
10
24.718330
20
16.154858
0
VERTEX
8
1
10
24.798080
20
16.162090
0
VERTEX
8
1
10
24.859840
20
16.180767
0
VERTEX
8
1
10
24.897141
20
16.200787
42
-0.072690
0
VERTEX
8
1
10
25.054426
20
16.199076
42
0.182958
0
VERTEX
8
1
10
25.235096
20
16.254795
42
-0.142336
0
VERTEX
8
1
10
25.349640
20
16.280346
0
VERTEX
8
1
10
25.374916
20
16.281948
42
0.200091
0
VERTEX
8
1
10
25.529219
20
16.340168
42
-0.073419
0
VERTEX
8
1
10
25.676376
20
16.426098
0
VERTEX
8
1
10
25.692253
20
16.435452
42
0.515282
0
VERTEX
8
1
10
25.692719
20
16.475338
0
VERTEX
8
1
10
25.679054
20
16.490536
42
-0.149298
0
VERTEX
8
1
10
25.568069
20
16.587597
42
-0.068394
0
VERTEX
8
1
10
24.857986
20
16.816027
42
-0.015225
0
VERTEX
8
1
10
24.297766
20
17.088795
42
0.011682
0
VERTEX
8
1
10
23.470943
20
17.497904
42
0.020184
0
VERTEX
8
1
10
23.092323
20
17.646145
0
VERTEX
8
1
10
22.949135
20
17.686581
0
VERTEX
8
1
10
22.818787
20
17.710155
42
0.126295
0
VERTEX
8
1
10
22.478157
20
17.662060
42
0.368221
0
VERTEX
8
1
10
22.370640
20
17.443691
42
-0.082443
0
VERTEX
8
1
10
22.382992
20
17.105062
42
-0.151709
0
VERTEX
8
1
10
22.334591
20
17.030697
0
VERTEX
8
1
10
22.309063
20
17.020351
42
-0.370241
0
VERTEX
8
1
10
22.054083
20
17.165434
42
-0.080404
0
VERTEX
8
1
10
21.988369
20
17.415499
42
0.031972
0
VERTEX
8
1
10
21.927563
20
17.670589
0
VERTEX
8
1
10
21.901836
20
17.732769
42
0.172439
0
VERTEX
8
1
10
21.713020
20
17.927837
0
VERTEX
8
1
10
21.636581
20
17.958447
42
0.096183
0
VERTEX
8
1
10
21.365929
20
17.986843
42
0.122178
0
VERTEX
8
1
10
21.009018
20
17.862560
0
VERTEX
8
1
10
20.983582
20
17.858517
42
-0.051905
0
VERTEX
8
1
10
20.632111
20
18.123299
42
-0.134920
0
VERTEX
8
1
10
20.530287
20
18.304867
42
-0.329673
0
VERTEX
8
1
10
20.592487
20
18.411663
42
-0.104722
0
VERTEX
8
1
10
20.835457
20
18.462873
42
-0.070959
0
VERTEX
8
1
10
21.534462
20
18.408932
42
0.038407
0
VERTEX
8
1
10
22.381882
20
18.315166
0
VERTEX
8
1
10
22.508438
20
18.316601
0
VERTEX
8
1
10
22.628967
20
18.324947
0
VERTEX
8
1
10
22.687233
20
18.324932
42
-0.178473
0
SEQEND
0
POLYLINE
8
1
66
1
70
1
0
VERTEX
8
1
10
17.951216
20
20.286892
42
-0.831164
0
VERTEX
8
1
10
17.952845
20
20.348322
42
-0.020568
0
VERTEX
8
1
10
18.400909
20
20.247704
42
-0.020295
0
VERTEX
8
1
10
20.062960
20
19.761881
42
-0.741687
0
VERTEX
8
1
10
20.041889
20
19.705929
42
0.022785
0
VERTEX
8
1
10
18.095060
20
20.256145
0
SEQEND
0
POLYLINE
8
1
66
1
70
1
0
VERTEX
8
1
10
20.048168
20
18.871365
42
-0.837521
0
VERTEX
8
1
10
20.036442
20
18.810925
42
0.007660
0
VERTEX
8
1
10
19.294403
20
19.057640
42
0.039732
0
VERTEX
8
1
10
18.585011
20
19.208469
42
0.056059
0
VERTEX
8
1
10
18.162306
20
19.202978
42
-0.749495
0
VERTEX
8
1
10
18.152605
20
19.262188
42
-0.070570
0
VERTEX
8
1
10
18.578234
20
19.269938
42
-0.052521
0
VERTEX
8
1
10
19.316023
20
19.113686
42
-0.015595
0
SEQEND
0
POLYLINE
8
1
66
1
70
1
0
VERTEX
8
1
10
17.516771
20
20.530178
0
VERTEX
8
1
10
17.530233
20
20.541897
0
VERTEX
8
1
10
17.551203
20
20.758617
0
VERTEX
8
1
10
17.709719
20
19.839260
0
VERTEX
8
1
10
17.516726
20
19.627773
0
VERTEX
8
1
10
17.524748
20
20.174328
0
VERTEX
8
1
10
17.165243
20
20.296947
0
SEQEND
0
POLYLINE
8
1
66
1
70
1
0
VERTEX
8
1
10
14.585932
20
19.697826
0
VERTEX
8
1
10
14.651896
20
20.099728
0
VERTEX
8
1
10
14.870993
20
19.838604
0
VERTEX
8
1
10
15.272779
20
19.855648
0
VERTEX
8
1
10
15.002569
20
19.523342
0
VERTEX
8
1
10
15.178591
20
19.186398
0
VERTEX
8
1
10
14.782667
20
19.257961
0
VERTEX
8
1
10
14.464113
20
18.914211
0
VERTEX
8
1
10
14.488974
20
19.348644
0
VERTEX
8
1
10
14.209318
20
19.447124
0
SEQEND
0
POLYLINE
8
1
66
1
70
1
0
VERTEX
8
1
10
15.378414
20
18.906019
42
-0.004273
0
VERTEX
8
1
10
16.135365
20
18.988325
0
VERTEX
8
1
10
16.153177
20
19.289730
0
VERTEX
8
1
10
15.879740
20
19.379757
0
VERTEX
8
1
10
15.880022
20
19.380856
0
VERTEX
8
1
10
16.249506
20
19.618450
0
VERTEX
8
1
10
16.316061
20
20.004330
0
VERTEX
8
1
10
16.536654
20
19.755077
0
VERTEX
8
1
10
16.931211
20
19.773678
0
VERTEX
8
1
10
16.931768
20
19.772747
0
VERTEX
8
1
10
16.666014
20
19.458996
0
VERTEX
8
1
10
16.840631
20
19.140499
0
VERTEX
8
1
10
16.447077
20
19.205227
0
VERTEX
8
1
10
16.250841
20
19.001431
42
0.007839
0
VERTEX
8
1
10
16.455225
20
19.025188
0
VERTEX
8
1
10
16.450010
20
19.015789
42
-0.023744
0
VERTEX
8
1
10
16.260439
20
18.838085
42
-0.130694
0
VERTEX
8
1
10
19.071371
20
18.703548
0
VERTEX
8
1
10
19.208143
20
18.652569
42
-0.035997
0
VERTEX
8
1
10
18.421835
20
18.676815
0
VERTEX
8
1
10
18.450092
20
18.660030
42
0.021593
0
VERTEX
8
1
10
20.212959
20
18.141354
0
VERTEX
8
1
10
20.242237
20
18.151806
42
-0.162373
0
VERTEX
8
1
10
20.223755
20
18.489101
0
VERTEX
8
1
10
20.233086
20
18.517971
42
-0.207621
0
VERTEX
8
1
10
20.594351
20
18.758011
42
-0.075549
0
VERTEX
8
1
10
20.932697
20
18.782375
0
VERTEX
8
1
10
21.028173
20
18.778439
42
-0.010445
0
VERTEX
8
1
10
21.886715
20
18.691900
42
0.019580
0
VERTEX
8
1
10
22.494236
20
18.657789
42
-0.241502
0
VERTEX
8
1
10
22.681625
20
18.534710
0
VERTEX
8
1
10
22.663094
20
18.528332
42
-0.047754
0
VERTEX
8
1
10
21.763178
20
18.570438
42
0.014924
0
VERTEX
8
1
10
20.881910
20
18.647406
42
0.070200
0
VERTEX
8
1
10
20.560301
20
18.607096
42
0.160297
0
VERTEX
8
1
10
20.351158
20
18.445690
0
VERTEX
8
1
10
20.344162
20
18.421017
42
0.267062
0
VERTEX
8
1
10
20.529251
20
17.948544
0
VERTEX
8
1
10
20.559311
20
17.931530
42
-0.062121
0
VERTEX
8
1
10
20.909472
20
17.714762
0
VERTEX
8
1
10
20.933548
20
17.690868
0
VERTEX
8
1
10
20.953606
20
17.688030
0
VERTEX
8
1
10
20.983812
20
17.689396
42
-0.143063
0
VERTEX
8
1
10
21.209003
20
17.637812
0
VERTEX
8
1
10
21.228683
20
17.624205
42
-0.272806
0
VERTEX
8
1
10
21.299227
20
17.483248
42
-0.393261
0
VERTEX
8
1
10
20.934227
20
17.047771
42
-0.392593
0
VERTEX
8
1
10
20.824635
20
17.304758
42
0.116725
0
VERTEX
8
1
10
20.822807
20
17.550200
42
0.295930
0
VERTEX
8
1
10
20.632675
20
17.698177
42
0.099945
0
VERTEX
8
1
10
20.223442
20
17.656261
42
0.036704
0
VERTEX
8
1
10
19.513548
20
17.384289
42
-0.016819
0
VERTEX
8
1
10
17.922466
20
16.702728
42
-0.017682
0
VERTEX
8
1
10
17.652136
20
16.614101
42
0.191535
0
VERTEX
8
1
10
17.516642
20
16.449306
42
-0.085801
0
VERTEX
8
1
10
17.709120
20
16.326427
0
VERTEX
8
1
10
17.720736
20
16.320156
42
0.033638
0
VERTEX
8
1
10
17.880339
20
16.302679
42
-0.111695
0
VERTEX
8
1
10
17.918997
20
16.282574
0
VERTEX
8
1
10
17.972750
20
16.264874
42
0.134308
0
VERTEX
8
1
10
18.133501
20
16.244514
42
-0.066611
0
VERTEX
8
1
10
18.253191
20
16.240215
42
0.197308
0
VERTEX
8
1
10
18.415442
20
16.161800
42
0.087803
0
VERTEX
8
1
10
18.766531
20
16.188976
42
-0.021251
0
VERTEX
8
1
10
19.296381
20
16.309689
42
0.115519
0
VERTEX
8
1
10
19.248507
20
16.193140
42
0.419060
0
VERTEX
8
1
10
19.269903
20
16.181452
42
0.013160
0
VERTEX
8
1
10
19.769228
20
16.379070
42
-0.102803
0
VERTEX
8
1
10
19.770140
20
16.270977
0
VERTEX
8
1
10
19.780249
20
16.269817
0
VERTEX
8
1
10
19.936058
20
16.295788
0
VERTEX
8
1
10
19.950039
20
16.198452
0
VERTEX
8
1
10
20.130741
20
16.267773
0
VERTEX
8
1
10
20.130741
20
16.170788
42
-0.051813
0
VERTEX
8
1
10
20.284658
20
16.236092
0
VERTEX
8
1
10
20.296770
20
16.235933
0
VERTEX
8
1
10
20.308617
20
16.233410
0
VERTEX
8
1
10
20.311497
20
16.227154
0
VERTEX
8
1
10
20.311527
20
16.143230
42
-0.036849
0
VERTEX
8
1
10
20.498047
20
16.235415
0
VERTEX
8
1
10
20.514055
20
16.237877
0
VERTEX
8
1
10
20.530251
20
16.237942
0
VERTEX
8
1
10
20.534504
20
16.232204
42
0.042429
0
VERTEX
8
1
10
20.520119
20
16.059582
42
-0.070835
0
VERTEX
8
1
10
20.689665
20
16.144302
42
-0.702821
0
VERTEX
8
1
10
20.698256
20
16.120693
0
VERTEX
8
1
10
20.696995
20
16.110826
42
0.450889
0
VERTEX
8
1
10
20.748909
20
16.056736
0
VERTEX
8
1
10
20.766356
20
16.055668
0
VERTEX
8
1
10
20.783775
20
16.057079
42
-0.237102
0
VERTEX
8
1
10
20.906376
20
16.032930
42
-0.246676
0
VERTEX
8
1
10
20.928303
20
15.964703
42
-0.114474
0
VERTEX
8
1
10
20.767601
20
15.734234
42
0.089118
0
VERTEX
8
1
10
20.449081
20
15.315639
42
0.000545
0
VERTEX
8
1
10
20.253571
20
15.233667
0
VERTEX
8
1
10
20.281313
20
15.290280
42
-0.063955
0
VERTEX
8
1
10
20.555056
20
15.716953
42
-0.035387
0
VERTEX
8
1
10
20.687891
20
15.849051
42
0.043252
0
VERTEX
8
1
10
20.764694
20
15.943203
42
-0.192548
0
VERTEX
8
1
10
20.618862
20
15.990322
0
VERTEX
8
1
10
20.613556
20
15.987194
0
VERTEX
8
1
10
20.388771
20
15.843472
0
VERTEX
8
1
10
20.388569
20
16.059673
0
VERTEX
8
1
10
20.180531
20
15.937527
0
VERTEX
8
1
10
20.180126
20
16.071682
0
VERTEX
8
1
10
19.999382
20
15.974636
0
VERTEX
8
1
10
19.999100
20
16.098919
0
VERTEX
8
1
10
19.842398
20
16.038616
0
VERTEX
8
1
10
19.824045
20
16.164440
0
VERTEX
8
1
10
19.578501
20
16.123562
0
VERTEX
8
1
10
19.600790
20
16.190365
42
-0.022703
0
VERTEX
8
1
10
19.282093
20
16.069498
42
-0.354923
0
VERTEX
8
1
10
19.125608
20
16.161495
0
VERTEX
8
1
10
19.121767
20
16.161816
0
VERTEX
8
1
10
18.939695
20
16.120068
42
-0.076877
0
VERTEX
8
1
10
18.461246
20
16.042868
42
-0.126879
0
VERTEX
8
1
10
18.209585
20
16.117199
0
VERTEX
8
1
10
18.187067
20
16.134228
0
VERTEX
8
1
10
18.171562
20
16.134285
42
-0.120035
0
VERTEX
8
1
10
17.924461
20
16.158527
42
0.065845
0
VERTEX
8
1
10
17.850035
20
16.181881
0
VERTEX
8
1
10
17.837503
20
16.193935
0
VERTEX
8
1
10
17.812323
20
16.196178
42
-0.119615
0
VERTEX
8
1
10
17.622915
20
16.234692
0
VERTEX
8
1
10
17.603415
20
16.263241
0
VERTEX
8
1
10
17.589571
20
16.274349
42
0.026044
0
VERTEX
8
1
10
17.357443
20
16.398312
42
-0.105792
0
VERTEX
8
1
10
17.471046
20
16.644899
42
-0.149254
0
VERTEX
8
1
10
17.642317
20
16.757437
42
0.022370
0
VERTEX
8
1
10
17.959093
20
16.869865
42
0.018158
0
VERTEX
8
1
10
19.552130
20
17.555168
42
-0.032156
0
VERTEX
8
1
10
20.201494
20
17.796570
42
-0.046904
0
VERTEX
8
1
10
20.478859
20
17.841518
42
-0.027862
0
VERTEX
8
1
10
20.434078
20
17.871761
0
VERTEX
8
1
10
17.601294
20
18.198284
42
0.135907
0
VERTEX
8
1
10
17.925322
20
18.520382
0
VERTEX
8
1
10
17.866362
20
18.484112
0
VERTEX
8
1
10
17.766714
20
18.455502
42
-0.043797
0
VERTEX
8
1
10
17.103718
20
18.403894
42
-0.016883
0
VERTEX
8
1
10
15.879972
20
18.424019
42
0.012513
0
VERTEX
8
1
10
15.500517
20
18.429699
0
VERTEX
8
1
10
15.033876
20
18.422283
42
-0.039933
0
VERTEX
8
1
10
14.322680
20
18.464153
42
-0.051845
0
VERTEX
8
1
10
14.014383
20
18.551403
0
VERTEX
8
1
10
14.079153
20
18.602703
42
-0.056965
0
VERTEX
8
1
10
14.690327
20
18.791769
42
-0.024715
0
SEQEND
0
POLYLINE
8
1
66
1
70
1
0
VERTEX
8
1
10
20.090626
20
15.642529
42
-0.869476
0
VERTEX
8
1
10
20.089252
20
15.580654
42
0.042847
0
VERTEX
8
1
10
18.415159
20
15.663930
42
-0.783241
0
VERTEX
8
1
10
18.407640
20
15.724222
42
-0.044628
0
SEQEND
0
POLYLINE
8
1
66
1
70
1
0
VERTEX
8
1
10
17.363073
20
13.398281
0
VERTEX
8
1
10
16.969687
20
13.463161
0
VERTEX
8
1
10
16.650995
20
13.132198
0
VERTEX
8
1
10
16.675829
20
13.547436
0
VERTEX
8
1
10
16.401247
20
13.637829
0
VERTEX
8
1
10
16.772299
20
13.876415
0
VERTEX
8
1
10
16.838522
20
14.262112
0
VERTEX
8
1
10
17.058798
20
14.012814
0
VERTEX
8
1
10
17.455065
20
14.031506
0
VERTEX
8
1
10
17.188208
20
13.716488
0
SEQEND
0
POLYLINE
8
1
66
1
70
1
0
VERTEX
8
1
10
14.891420
20
11.959850
42
0.050444
0
VERTEX
8
1
10
12.161207
20
11.523397
42
-0.741913
0
VERTEX
8
1
10
12.143648
20
11.580578
42
-0.095829
0
VERTEX
8
1
10
17.177437
20
11.950146
42
-0.788398
0
VERTEX
8
1
10
17.168543
20
11.890024
42
0.044269
0
SEQEND
0
POLYLINE
8
1
66
1
70
1
0
VERTEX
8
1
10
16.669580
20
11.059155
42
-0.871412
0
VERTEX
8
1
10
16.676188
20
10.997601
42
0.049620
0
VERTEX
8
1
10
14.413176
20
10.817672
42
0.021745
0
VERTEX
8
1
10
12.976274
20
10.504246
42
-0.795897
0
VERTEX
8
1
10
12.962408
20
10.563564
42
-0.032318
0
VERTEX
8
1
10
15.021363
20
10.974499
42
-0.035945
0
SEQEND
0
POLYLINE
8
1
66
1
70
1
0
VERTEX
8
1
10
14.019934
20
13.387020
0
VERTEX
8
1
10
13.621447
20
13.464184
0
VERTEX
8
1
10
13.303175
20
13.106701
0
VERTEX
8
1
10
13.328032
20
13.560421
0
VERTEX
8
1
10
13.043768
20
13.666225
0
VERTEX
8
1
10
13.425455
20
13.930248
0
VERTEX
8
1
10
13.491251
20
14.348888
0
VERTEX
8
1
10
13.709295
20
14.076458
0
VERTEX
8
1
10
14.115908
20
14.092968
0
VERTEX
8
1
10
13.842718
20
13.742657
0
SEQEND
0
POLYLINE
8
1
66
1
70
1
0
VERTEX
8
1
10
14.623789
20
12.905482
42
-0.040776
0
VERTEX
8
1
10
17.100668
20
12.851652
42
-0.719708
0
VERTEX
8
1
10
17.098951
20
12.792417
42
0.073859
0
VERTEX
8
1
10
12.331128
20
12.548545
42
-0.796840
0
VERTEX
8
1
10
12.320848
20
12.608578
42
-0.034607
0
SEQEND
0
POLYLINE
8
1
66
1
70
1
0
VERTEX
8
1
10
15.701056
20
13.444164
0
VERTEX
8
1
10
15.305136
20
13.515743
0
VERTEX
8
1
10
14.986567
20
13.171978
0
VERTEX
8
1
10
15.011435
20
13.606380
0
VERTEX
8
1
10
14.731771
20
13.704906
0
VERTEX
8
1
10
15.108374
20
13.955608
0
VERTEX
8
1
10
15.174356
20
14.357510
0
VERTEX
8
1
10
15.393446
20
14.096386
0
VERTEX
8
1
10
15.795248
20
14.113430
0
VERTEX
8
1
10
15.525038
20
13.781124
0
SEQEND
0
POLYLINE
8
1
66
1
70
1
0
VERTEX
8
1
10
16.160475
20
16.291058
0
VERTEX
8
1
10
16.541376
20
16.521282
0
VERTEX
8
1
10
16.624907
20
16.906811
0
VERTEX
8
1
10
16.833559
20
16.651592
0
VERTEX
8
1
10
17.227900
20
16.660992
0
VERTEX
8
1
10
16.948324
20
16.352383
0
VERTEX
8
1
10
17.108805
20
16.027294
0
VERTEX
8
1
10
16.717882
20
16.102139
0
VERTEX
8
1
10
16.387182
20
15.779232
0
VERTEX
8
1
10
16.430353
20
16.193401
0
SEQEND
0
POLYLINE
8
1
66
1
70
1
0
VERTEX
8
1
10
15.412603
20
17.650967
0
VERTEX
8
1
10
15.786474
20
17.882854
0
VERTEX
8
1
10
15.852118
20
18.271740
0
VERTEX
8
1
10
16.071093
20
18.010723
0
VERTEX
8
1
10
16.472731
20
18.015423
0
VERTEX
8
1
10
16.202826
20
17.699642
0
VERTEX
8
1
10
16.377123
20
17.369366
0
VERTEX
8
1
10
15.985388
20
17.449825
0
VERTEX
8
1
10
15.665068
20
17.121838
0
VERTEX
8
1
10
15.689970
20
17.547527
0
SEQEND
0
POLYLINE
8
1
66
1
70
1
0
VERTEX
8
1
10
15.454828
20
16.114666
0
VERTEX
8
1
10
15.061876
20
16.197201
0
VERTEX
8
1
10
14.730997
20
15.862148
0
VERTEX
8
1
10
14.774164
20
16.295589
0
VERTEX
8
1
10
14.499365
20
16.402111
0
VERTEX
8
1
10
14.885931
20
16.643215
0
VERTEX
8
1
10
14.969152
20
17.044415
0
VERTEX
8
1
10
15.176615
20
16.777050
0
VERTEX
8
1
10
15.576811
20
16.783672
0
VERTEX
8
1
10
15.293463
20
16.458538
0
SEQEND
0
POLYLINE
8
1
66
1
70
1
0
VERTEX
8
1
10
17.305536
20
17.627132
0
VERTEX
8
1
10
17.705011
20
17.949978
0
VERTEX
8
1
10
17.727697
20
18.122433
0
VERTEX
8
1
10
17.857119
20
17.312328
0
VERTEX
8
1
10
17.581293
20
16.947704
0
VERTEX
8
1
10
17.605963
20
17.488079
0
SEQEND
0
POLYLINE
8
1
66
1
70
1
0
VERTEX
8
1
10
18.044138
20
17.205608
42
-0.938837
0
VERTEX
8
1
10
18.039438
20
17.267818
0
VERTEX
8
1
10
18.496092
20
17.268124
42
-1.060987
0
VERTEX
8
1
10
18.503874
20
17.205654
0
SEQEND
0
POLYLINE
8
1
66
1
70
1
0
VERTEX
8
1
10
14.111097
20
18.026073
0
VERTEX
8
1
10
14.176535
20
18.431301
0
VERTEX
8
1
10
14.394327
20
18.158489
0
VERTEX
8
1
10
14.801195
20
18.161282
0
VERTEX
8
1
10
14.528124
20
17.828228
0
VERTEX
8
1
10
14.703581
20
17.479061
0
VERTEX
8
1
10
14.309355
20
17.566341
0
VERTEX
8
1
10
13.989199
20
17.225430
0
VERTEX
8
1
10
14.014093
20
17.670544
0
VERTEX
8
1
10
13.731894
20
17.782299
0
SEQEND
0
POLYLINE
8
1
66
1
70
1
0
VERTEX
8
1
10
12.903002
20
19.672436
0
VERTEX
8
1
10
12.968790
20
20.091106
0
VERTEX
8
1
10
13.186831
20
19.818691
0
VERTEX
8
1
10
13.593451
20
19.835217
0
VERTEX
8
1
10
13.320253
20
19.484844
0
VERTEX
8
1
10
13.497458
20
19.129223
0
VERTEX
8
1
10
13.098967
20
19.206402
0
VERTEX
8
1
10
12.780703
20
18.848934
0
VERTEX
8
1
10
12.805548
20
19.302670
0
VERTEX
8
1
10
12.521315
20
19.408428
0
SEQEND
0
POLYLINE
8
1
66
1
70
1
0
VERTEX
8
1
10
12.429117
20
18.062328
0
VERTEX
8
1
10
12.494352
20
18.484219
0
VERTEX
8
1
10
12.711161
20
18.200146
0
VERTEX
8
1
10
13.122622
20
18.202267
0
VERTEX
8
1
10
12.846743
20
17.851269
0
VERTEX
8
1
10
13.023336
20
17.483471
0
VERTEX
8
1
10
12.626566
20
17.576443
0
VERTEX
8
1
10
12.306757
20
17.221767
0
VERTEX
8
1
10
12.331633
20
17.686184
0
VERTEX
8
1
10
12.045073
20
17.805462
0
SEQEND
0
POLYLINE
8
1
66
1
70
1
0
VERTEX
8
1
10
10.484289
20
15.252407
42
-0.918232
0
VERTEX
8
1
10
10.545992
20
15.260876
0
VERTEX
8
1
10
10.722479
20
12.474667
42
-1.005628
0
VERTEX
8
1
10
10.661306
20
12.459042
0
SEQEND
0
POLYLINE
8
1
66
1
70
1
0
VERTEX
8
1
10
10.283796
20
12.247021
42
0.089869
0
VERTEX
8
1
10
10.838067
20
12.321072
42
-0.830193
0
VERTEX
8
1
10
10.855536
20
12.262173
42
-0.096966
0
VERTEX
8
1
10
10.277410
20
12.186088
42
-0.780162
0
SEQEND
0
POLYLINE
8
1
66
1
70
1
0
VERTEX
8
1
10
8.693468
20
17.245892
42
-0.077410
0
VERTEX
8
1
10
7.834612
20
17.079149
42
-0.110402
0
VERTEX
8
1
10
7.620615
20
17.128551
42
-0.387502
0
VERTEX
8
1
10
7.563712
20
17.284088
42
-0.928908
0
VERTEX
8
1
10
7.618311
20
17.257818
0
VERTEX
8
1
10
7.616774
20
17.245483
0
VERTEX
8
1
10
7.617149
20
17.233057
42
0.303618
0
VERTEX
8
1
10
7.700265
20
17.161739
0
VERTEX
8
1
10
7.727640
20
17.154491
42
0.078457
0
VERTEX
8
1
10
8.068300
20
17.159649
42
0.101807
0
VERTEX
8
1
10
9.078905
20
17.495831
0
VERTEX
8
1
10
9.317671
20
17.642834
0
VERTEX
8
1
10
9.359312
20
17.667828
0
VERTEX
8
1
10
9.402140
20
17.690716
42
-0.175556
0
VERTEX
8
1
10
9.724004
20
17.750101
42
-0.046995
0
VERTEX
8
1
10
9.873156
20
17.716869
42
-0.012858
0
VERTEX
8
1
10
10.286159
20
17.556179
0
VERTEX
8
1
10
10.344549
20
17.535931
42
0.112498
0
VERTEX
8
1
10
10.694326
20
17.485882
42
-0.828338
0
VERTEX
8
1
10
10.710863
20
17.426342
42
-0.113031
0
VERTEX
8
1
10
10.379980
20
17.459652
0
VERTEX
8
1
10
10.318183
20
17.478802
42
-0.005474
0
VERTEX
8
1
10
9.913635
20
17.638945
42
0.062517
0
VERTEX
8
1
10
9.659098
20
17.694866
42
0.141887
0
VERTEX
8
1
10
9.395357
20
17.615978
0
VERTEX
8
1
10
9.344877
20
17.585903
0
VERTEX
8
1
10
9.294691
20
17.555355
42
-0.060675
0
SEQEND
0
POLYLINE
8
1
66
1
70
1
0
VERTEX
8
1
10
10.418688
20
15.657299
42
-0.902791
0
VERTEX
8
1
10
10.427038
20
15.595653
0
VERTEX
8
1
10
10.087580
20
15.583721
42
-0.903372
0
VERTEX
8
1
10
10.079229
20
15.645366
0
SEQEND
0
POLYLINE
8
1
66
1
70
1
0
VERTEX
8
1
10
9.320395
20
16.280010
42
-0.479169
0
VERTEX
8
1
10
9.296526
20
16.237560
0
VERTEX
8
1
10
9.153818
20
16.232540
42
-0.957842
0
VERTEX
8
1
10
9.148668
20
16.294781
0
VERTEX
8
1
10
9.244066
20
16.298092
0
VERTEX
8
1
10
9.243792
20
16.301754
0
VERTEX
8
1
10
9.080347
20
16.697292
42
-0.887131
0
VERTEX
8
1
10
9.136560
20
16.723568
0
SEQEND
0
POLYLINE
8
1
66
1
70
1
0
VERTEX
8
1
10
9.575304
20
16.387280
42
-0.124742
0
VERTEX
8
1
10
9.482950
20
16.358166
0
VERTEX
8
1
10
9.300650
20
16.849895
0
VERTEX
8
1
10
9.259993
20
17.212124
0
VERTEX
8
1
10
9.369307
20
17.271160
42
-0.013954
0
VERTEX
8
1
10
9.593387
20
16.591318
42
-0.028011
0
VERTEX
8
1
10
9.618560
20
16.470335
42
-0.257032
0
SEQEND
0
POLYLINE
8
1
66
1
70
1
0
VERTEX
8
1
10
9.982569
20
17.373943
42
0.044738
0
VERTEX
8
1
10
9.602459
20
17.403063
42
-0.803317
0
VERTEX
8
1
10
9.602221
20
17.464121
42
-0.074521
0
VERTEX
8
1
10
10.147997
20
17.399761
42
-0.065274
0
VERTEX
8
1
10
10.341265
20
17.315685
42
-0.937624
0
VERTEX
8
1
10
10.307352
20
17.263332
42
0.091567
0
SEQEND
0
POLYLINE
8
1
66
1
70
1
0
VERTEX
8
1
10
9.799654
20
15.089687
42
-0.154883
0
VERTEX
8
1
10
9.804476
20
15.108013
0
VERTEX
8
1
10
10.126966
20
15.453503
42
-0.985037
0
VERTEX
8
1
10
10.178942
20
15.418179
0
VERTEX
8
1
10
9.863552
20
15.080471
42
-0.006464
0
VERTEX
8
1
10
9.960534
20
13.782548
42
-0.814095
0
VERTEX
8
1
10
9.899340
20
13.781338
42
0.006983
0
SEQEND
0
POLYLINE
8
1
66
1
70
1
0
VERTEX
8
1
10
9.695742
20
14.140545
0
VERTEX
8
1
10
9.705873
20
13.836391
42
-0.130393
0
VERTEX
8
1
10
9.607586
20
13.692839
42
-0.389758
0
VERTEX
8
1
10
9.528358
20
13.707449
42
-0.136585
0
VERTEX
8
1
10
9.489580
20
13.776958
42
-0.054931
0
VERTEX
8
1
10
9.419001
20
14.104778
42
-0.165839
0
VERTEX
8
1
10
9.599065
20
14.182180
42
-0.186065
0
SEQEND
0
POLYLINE
8
1
66
1
70
1
0
VERTEX
8
1
10
9.412523
20
14.299129
0
VERTEX
8
1
10
9.412042
20
14.319070
42
-0.179249
0
VERTEX
8
1
10
9.462167
20
14.483719
42
-0.215933
0
VERTEX
8
1
10
9.571267
20
14.539457
42
-0.111979
0
VERTEX
8
1
10
9.682768
20
14.530453
0
VERTEX
8
1
10
9.687391
20
14.391644
0
VERTEX
8
1
10
9.664594
20
14.392951
42
0.158562
0
VERTEX
8
1
10
9.464486
20
14.346179
42
0.069023
0
SEQEND
0
POLYLINE
8
1
66
1
70
1
0
VERTEX
8
1
10
9.540271
20
12.082745
42
-0.007138
0
VERTEX
8
1
10
9.451197
20
10.976559
42
-0.024123
0
VERTEX
8
1
10
9.386470
20
11.765040
42
-0.012246
0
VERTEX
8
1
10
9.361284
20
12.789409
0
VERTEX
8
1
10
9.366728
20
12.784679
0
VERTEX
8
1
10
9.444864
20
12.493633
42
0.141815
0
VERTEX
8
1
10
9.547941
20
12.451550
0
VERTEX
8
1
10
9.552588
20
12.426571
42
-0.015322
0
SEQEND
0
POLYLINE
8
1
66
1
70
1
0
VERTEX
8
1
10
9.474016
20
13.526119
42
-0.062559
0
VERTEX
8
1
10
9.669317
20
12.870129
42
-0.072229
0
VERTEX
8
1
10
9.669662
20
12.711315
42
-0.760630
0
VERTEX
8
1
10
9.609881
20
12.718639
42
0.094493
0
VERTEX
8
1
10
9.581511
20
12.997735
42
0.041560
0
VERTEX
8
1
10
9.416887
20
13.504825
42
-0.799028
0
SEQEND
0
POLYLINE
8
1
66
1
70
1
0
VERTEX
8
1
10
10.117361
20
13.247234
42
-0.366457
0
VERTEX
8
1
10
10.100355
20
13.209332
0
VERTEX
8
1
10
9.765936
20
13.113369
42
-0.931064
0
VERTEX
8
1
10
9.743387
20
13.171505
0
VERTEX
8
1
10
10.052313
20
13.260189
0
VERTEX
8
1
10
10.023329
20
13.478817
0
VERTEX
8
1
10
10.018984
20
13.479458
0
VERTEX
8
1
10
9.697760
20
13.443951
42
-0.968230
0
VERTEX
8
1
10
9.680899
20
13.504436
0
VERTEX
8
1
10
10.045496
20
13.545269
42
-0.391746
0
VERTEX
8
1
10
10.080553
20
13.521374
0
SEQEND
0
POLYLINE
8
1
66
1
70
1
0
VERTEX
8
1
10
10.229261
20
13.832653
42
-0.857637
0
VERTEX
8
1
10
10.176844
20
13.865322
42
-0.130979
0
VERTEX
8
1
10
10.294043
20
13.963512
42
-0.492502
0
VERTEX
8
1
10
10.430092
20
13.884123
42
-0.695422
0
VERTEX
8
1
10
10.373382
20
13.869381
0
VERTEX
8
1
10
10.360201
20
13.893154
42
0.333032
0
VERTEX
8
1
10
10.326029
20
13.908215
42
0.135839
0
SEQEND
0
POLYLINE
8
1
66
1
70
1
0
VERTEX
8
1
10
10.236650
20
13.239147
42
-0.437647
0
VERTEX
8
1
10
10.194281
20
13.264278
0
VERTEX
8
1
10
10.184511
20
13.547512
42
-0.353732
0
VERTEX
8
1
10
10.209078
20
13.578167
0
VERTEX
8
1
10
10.426294
20
13.612743
42
-1.022296
0
VERTEX
8
1
10
10.445673
20
13.552807
0
VERTEX
8
1
10
10.247911
20
13.521114
0
VERTEX
8
1
10
10.255121
20
13.304409
0
VERTEX
8
1
10
10.257471
20
13.302364
0
VERTEX
8
1
10
10.385550
20
13.306652
42
-0.994769
0
VERTEX
8
1
10
10.397478
20
13.244884
0
SEQEND
0
POLYLINE
8
1
66
1
70
1
0
VERTEX
8
1
10
10.249887
20
11.821758
42
-1.031440
0
VERTEX
8
1
10
10.241510
20
11.884350
42
0.056756
0
VERTEX
8
1
10
10.940398
20
11.935202
42
-0.769262
0
VERTEX
8
1
10
10.950426
20
11.875622
42
-0.056533
0
SEQEND
0
POLYLINE
8
1
66
1
70
1
0
VERTEX
8
1
10
10.259741
20
11.502987
42
-1.004230
0
VERTEX
8
1
10
10.252428
20
11.565334
0
VERTEX
8
1
10
10.586363
20
11.561977
42
-1.004230
0
VERTEX
8
1
10
10.593676
20
11.499630
0
SEQEND
0
POLYLINE
8
1
66
1
70
1
0
VERTEX
8
1
10
10.271574
20
11.281384
42
-1.000000
0
VERTEX
8
1
10
10.272238
20
11.343884
0
VERTEX
8
1
10
10.606718
20
11.340313
42
-0.994643
0
VERTEX
8
1
10
10.606390
20
11.277813
0
SEQEND
0
POLYLINE
8
1
66
1
70
1
0
VERTEX
8
1
10
10.291925
20
11.059719
42
-1.004170
0
VERTEX
8
1
10
10.284616
20
11.122065
0
VERTEX
8
1
10
10.618536
20
11.118694
42
-1.004230
0
VERTEX
8
1
10
10.625849
20
11.056347
0
SEQEND
0
POLYLINE
8
1
66
1
70
1
0
VERTEX
8
1
10
10.308020
20
10.838070
42
-1.004230
0
VERTEX
8
1
10
10.300707
20
10.900417
0
VERTEX
8
1
10
10.634634
20
10.897060
42
-1.004230
0
VERTEX
8
1
10
10.641947
20
10.834713
0
SEQEND
0
POLYLINE
8
1
66
1
70
1
0
VERTEX
8
1
10
10.324095
20
10.616436
42
-1.004230
0
VERTEX
8
1
10
10.316790
20
10.678783
0
VERTEX
8
1
10
10.650721
20
10.675426
42
-1.004230
0
VERTEX
8
1
10
10.658033
20
10.613080
0
SEQEND
0
POLYLINE
8
1
66
1
70
1
0
VERTEX
8
1
10
10.340185
20
10.394802
42
-1.004230
0
VERTEX
8
1
10
10.332872
20
10.457150
0
VERTEX
8
1
10
10.666807
20
10.453777
42
-1.004230
0
VERTEX
8
1
10
10.674120
20
10.391430
0
SEQEND
0
POLYLINE
8
1
66
1
70
1
0
VERTEX
8
1
10
10.352026
20
10.173183
42
-1.000000
0
VERTEX
8
1
10
10.352690
20
10.235683
0
VERTEX
8
1
10
10.687162
20
10.232128
42
-0.994643
0
VERTEX
8
1
10
10.686834
20
10.169628
0
SEQEND
0
POLYLINE
8
1
66
1
70
1
0
VERTEX
8
1
10
10.372370
20
9.951519
42
-1.004169
0
VERTEX
8
1
10
10.365061
20
10.013866
0
VERTEX
8
1
10
10.698992
20
10.010509
42
-1.004230
0
VERTEX
8
1
10
10.706297
20
9.948163
0
SEQEND
0
POLYLINE
8
1
66
1
70
1
0
VERTEX
8
1
10
10.388464
20
9.729885
42
-1.004230
0
VERTEX
8
1
10
10.381151
20
9.792233
0
VERTEX
8
1
10
10.715078
20
9.788876
42
-1.004230
0
VERTEX
8
1
10
10.722391
20
9.726528
0
SEQEND
0
POLYLINE
8
1
66
1
70
1
0
VERTEX
8
1
10
10.404558
20
9.508236
42
-1.004230
0
VERTEX
8
1
10
10.397245
20
9.570583
0
VERTEX
8
1
10
10.731165
20
9.567242
42
-1.004230
0
VERTEX
8
1
10
10.738478
20
9.504894
0
SEQEND
0
POLYLINE
8
1
66
1
70
1
0
VERTEX
8
1
10
10.420645
20
9.286587
42
-1.004230
0
VERTEX
8
1
10
10.413332
20
9.348934
0
VERTEX
8
1
10
10.747259
20
9.345592
42
-1.004230
0
VERTEX
8
1
10
10.754572
20
9.283246
0
SEQEND
0
POLYLINE
8
1
66
1
70
1
0
VERTEX
8
1
10
10.432470
20
9.064999
42
-1.000000
0
VERTEX
8
1
10
10.433134
20
9.127499
0
VERTEX
8
1
10
10.767607
20
9.123928
42
-0.994643
0
VERTEX
8
1
10
10.767279
20
9.061428
0
SEQEND
0
POLYLINE
8
1
66
1
70
1
0
VERTEX
8
1
10
10.452814
20
8.843319
42
-1.004169
0
VERTEX
8
1
10
10.445505
20
8.905666
0
VERTEX
8
1
10
10.779432
20
8.902355
42
-1.004290
0
VERTEX
8
1
10
10.786741
20
8.839976
0
SEQEND
0
POLYLINE
8
1
66
1
70
1
0
VERTEX
8
1
10
10.464655
20
8.621700
42
-1.000000
0
VERTEX
8
1
10
10.465319
20
8.684200
0
VERTEX
8
1
10
10.799780
20
8.680645
42
-0.994522
0
VERTEX
8
1
10
10.799452
20
8.618145
0
SEQEND
0
POLYLINE
8
1
66
1
70
1
0
VERTEX
8
1
10
10.485003
20
8.400051
42
-1.004245
0
VERTEX
8
1
10
10.477690
20
8.462399
0
VERTEX
8
1
10
10.811609
20
8.459026
42
-1.004230
0
VERTEX
8
1
10
10.818922
20
8.396679
0
SEQEND
0
POLYLINE
8
1
66
1
70
1
0
VERTEX
8
1
10
10.501089
20
8.178387
42
-1.004230
0
VERTEX
8
1
10
10.493776
20
8.240734
0
VERTEX
8
1
10
10.827703
20
8.237408
42
-1.004230
0
VERTEX
8
1
10
10.835016
20
8.175060
0
SEQEND
0
POLYLINE
8
1
66
1
70
1
0
VERTEX
8
1
10
10.512918
20
7.956783
42
-0.906852
0
VERTEX
8
1
10
10.507471
20
8.018718
0
VERTEX
8
1
10
10.848051
20
8.015728
42
-0.994643
0
VERTEX
8
1
10
10.847723
20
7.953229
0
SEQEND
0
POLYLINE
8
1
66
1
70
1
0
VERTEX
8
1
10
10.533258
20
7.735149
42
-1.004170
0
VERTEX
8
1
10
10.525957
20
7.797496
0
VERTEX
8
1
10
10.859880
20
7.794109
42
-1.004201
0
VERTEX
8
1
10
10.867186
20
7.731762
0
SEQEND
0
POLYLINE
8
1
66
1
70
1
0
VERTEX
8
1
10
10.545099
20
7.513515
42
-1.000000
0
VERTEX
8
1
10
10.545763
20
7.576015
0
VERTEX
8
1
10
10.880228
20
7.572460
42
-0.994583
0
VERTEX
8
1
10
10.879904
20
7.509961
0
SEQEND
0
POLYLINE
8
1
66
1
70
1
0
VERTEX
8
1
10
10.895990
20
7.288296
0
VERTEX
8
1
10
10.561186
20
7.291882
42
-0.994583
0
VERTEX
8
1
10
10.561510
20
7.354381
0
VERTEX
8
1
10
10.896315
20
7.350796
42
-0.994704
0
SEQEND
0
POLYLINE
8
1
66
1
70
1
0
VERTEX
8
1
10
10.808508
20
6.680874
42
-1.114963
0
VERTEX
8
1
10
10.745245
20
6.674404
0
VERTEX
8
1
10
10.737097
20
6.671337
42
-0.262188
0
VERTEX
8
1
10
10.563981
20
6.738654
42
-0.630266
0
VERTEX
8
1
10
10.599749
20
6.783229
42
-0.445708
0
VERTEX
8
1
10
10.639959
20
6.753277
42
0.180348
0
VERTEX
8
1
10
10.716833
20
6.730328
0
VERTEX
8
1
10
10.724197
20
6.736949
42
-0.403500
0
VERTEX
8
1
10
10.774726
20
6.735416
42
-0.191717
0
SEQEND
0
POLYLINE
8
1
66
1
70
1
0
VERTEX
8
1
10
10.677767
20
4.697536
42
0.069730
0
VERTEX
8
1
10
10.751428
20
4.602722
42
-0.662548
0
VERTEX
8
1
10
10.719164
20
4.554089
42
-0.481157
0
VERTEX
8
1
10
10.677488
20
4.589657
42
-0.015925
0
VERTEX
8
1
10
10.578685
20
4.733962
42
0.121784
0
VERTEX
8
1
10
10.494287
20
4.797543
42
-0.086263
0
VERTEX
8
1
10
10.427899
20
4.849107
0
VERTEX
8
1
10
10.414405
20
4.858582
0
VERTEX
8
1
10
10.400015
20
4.866634
0
VERTEX
8
1
10
10.323729
20
4.887646
42
-0.116132
0
VERTEX
8
1
10
10.206231
20
4.942677
42
0.003086
0
VERTEX
8
1
10
10.108877
20
5.010387
0
VERTEX
8
1
10
9.945074
20
5.099316
42
-0.065444
0
VERTEX
8
1
10
9.800745
20
5.205647
42
-0.742416
0
VERTEX
8
1
10
9.836332
20
5.253919
42
0.068978
0
VERTEX
8
1
10
10.014616
20
5.134819
42
-0.017680
0
VERTEX
8
1
10
10.188353
20
5.032955
42
0.091892
0
VERTEX
8
1
10
10.303366
20
4.958935
0
VERTEX
8
1
10
10.387438
20
4.934978
42
-0.163384
0
VERTEX
8
1
10
10.468950
20
4.891866
0
VERTEX
8
1
10
10.488252
20
4.876091
0
VERTEX
8
1
10
10.508809
20
4.861991
42
-0.164787
0
SEQEND
0
POLYLINE
8
1
66
1
70
1
0
VERTEX
8
1
10
10.055395
20
3.698330
0
VERTEX
8
1
10
10.363581
20
3.229809
42
-0.914276
0
VERTEX
8
1
10
10.314871
20
3.191067
0
VERTEX
8
1
10
9.990221
20
3.683681
42
-0.320417
0
VERTEX
8
1
10
9.989874
20
3.720181
0
VERTEX
8
1
10
10.687494
20
4.437710
42
-1.039038
0
VERTEX
8
1
10
10.738626
20
4.400845
0
SEQEND
0
POLYLINE
8
1
66
1
70
1
0
VERTEX
8
1
10
10.033541
20
4.060574
0
VERTEX
8
1
10
10.012117
20
4.058270
42
-0.260538
0
VERTEX
8
1
10
9.875490
20
4.103146
0
VERTEX
8
1
10
9.859385
20
4.115002
42
-0.030715
0
VERTEX
8
1
10
9.717044
20
4.195967
42
0.060700
0
VERTEX
8
1
10
9.647333
20
4.219802
42
-0.832080
0
VERTEX
8
1
10
9.668982
20
4.276611
42
-0.121458
0
VERTEX
8
1
10
9.724844
20
4.260921
42
0.027138
0
VERTEX
8
1
10
9.877752
20
4.177441
42
-0.093935
0
VERTEX
8
1
10
9.932168
20
4.134444
42
0.216405
0
VERTEX
8
1
10
9.997097
20
4.121725
42
-0.010969
0
VERTEX
8
1
10
10.098027
20
4.121648
0
VERTEX
8
1
10
10.105694
20
4.117868
42
-0.036788
0
VERTEX
8
1
10
10.134610
20
4.078754
42
-0.767450
0
VERTEX
8
1
10
10.082465
20
4.048645
42
0.222568
0
SEQEND
0
POLYLINE
8
1
66
1
70
1
0
VERTEX
8
1
10
9.880610
20
5.585796
42
-1.157710
0
VERTEX
8
1
10
9.865047
20
5.645195
42
-0.229177
0
VERTEX
8
1
10
9.960282
20
5.618771
42
-0.017398
0
VERTEX
8
1
10
10.075076
20
5.548897
42
0.161303
0
VERTEX
8
1
10
10.123328
20
5.548944
42
-0.334465
0
VERTEX
8
1
10
10.290628
20
5.454372
42
0.029188
0
VERTEX
8
1
10
10.346560
20
5.335110
0
VERTEX
8
1
10
10.353888
20
5.328777
42
-0.394828
0
VERTEX
8
1
10
10.383307
20
5.294582
42
-0.875242
0
VERTEX
8
1
10
10.328849
20
5.262362
42
-0.148056
0
VERTEX
8
1
10
10.267951
20
5.354969
42
0.054148
0
VERTEX
8
1
10
10.207885
20
5.464803
42
0.284532
0
VERTEX
8
1
10
10.122399
20
5.483258
42
-0.201802
0
VERTEX
8
1
10
10.016982
20
5.512309
42
0.019135
0
VERTEX
8
1
10
9.890501
20
5.584835
0
SEQEND
0
POLYLINE
8
1
66
1
70
1
0
VERTEX
8
1
10
9.617144
20
6.265820
42
-0.099689
0
VERTEX
8
1
10
9.627512
20
6.369241
0
VERTEX
8
1
10
9.632900
20
6.376130
42
-0.224578
0
VERTEX
8
1
10
9.686952
20
6.388890
42
-0.783573
0
VERTEX
8
1
10
9.681295
20
6.327999
42
0.087758
0
VERTEX
8
1
10
9.680956
20
6.264144
42
0.024306
0
VERTEX
8
1
10
9.692957
20
6.120464
42
-0.109041
0
VERTEX
8
1
10
9.721014
20
5.938399
42
0.378430
0
VERTEX
8
1
10
9.764986
20
5.895840
42
0.004584
0
VERTEX
8
1
10
9.980223
20
5.842403
0
VERTEX
8
1
10
9.988482
20
5.841991
42
-0.190884
0
VERTEX
8
1
10
10.149240
20
5.819214
42
0.121655
0
VERTEX
8
1
10
10.256785
20
5.808520
42
-0.122136
0
VERTEX
8
1
10
10.437944
20
5.769390
42
0.126807
0
VERTEX
8
1
10
10.531500
20
5.750149
42
-0.283629
0
VERTEX
8
1
10
10.650393
20
5.725582
0
VERTEX
8
1
10
10.654154
20
5.725201
42
-1.320040
0
VERTEX
8
1
10
10.669900
20
5.665401
42
-0.270126
0
VERTEX
8
1
10
10.591234
20
5.690044
42
0.239715
0
VERTEX
8
1
10
10.552799
20
5.689721
42
-0.149455
0
VERTEX
8
1
10
10.432692
20
5.704815
0
VERTEX
8
1
10
10.408709
20
5.713482
42
0.156732
0
VERTEX
8
1
10
10.237232
20
5.742092
42
-0.115690
0
VERTEX
8
1
10
10.089096
20
5.778553
42
0.132580
0
VERTEX
8
1
10
9.987146
20
5.779339
0
VERTEX
8
1
10
9.937865
20
5.788455
42
-0.025338
0
VERTEX
8
1
10
9.713827
20
5.848873
0
VERTEX
8
1
10
9.685339
20
5.870022
42
-0.188722
0
VERTEX
8
1
10
9.658043
20
5.989497
42
0.084425
0
VERTEX
8
1
10
9.634745
20
6.097103
42
-0.029893
0
SEQEND
0
POLYLINE
8
1
66
1
70
1
0
VERTEX
8
1
10
9.131231
20
5.865170
0
VERTEX
8
1
10
9.161432
20
5.872753
42
-0.221471
0
VERTEX
8
1
10
9.179704
20
5.918839
42
-0.202846
0
VERTEX
8
1
10
9.233445
20
5.927151
42
-0.727110
0
VERTEX
8
1
10
9.224863
20
5.868191
0
VERTEX
8
1
10
9.224016
20
5.858462
42
-0.303386
0
VERTEX
8
1
10
9.192559
20
5.816900
0
VERTEX
8
1
10
9.180405
20
5.812078
0
VERTEX
8
1
10
9.167746
20
5.808804
0
VERTEX
8
1
10
9.170244
20
5.793545
42
-1.050438
0
VERTEX
8
1
10
9.109590
20
5.779956
42
-0.218098
0
VERTEX
8
1
10
9.116295
20
5.853012
0
VERTEX
8
1
10
9.123085
20
5.859924
0
SEQEND
0
POLYLINE
8
1
66
1
70
1
0
VERTEX
8
1
10
8.976835
20
5.449001
42
-0.095603
0
VERTEX
8
1
10
9.050421
20
5.319571
42
0.137429
0
VERTEX
8
1
10
9.138999
20
5.231638
42
-0.010991
0
VERTEX
8
1
10
9.258954
20
5.139791
42
-0.671159
0
VERTEX
8
1
10
9.231730
20
5.089413
42
-0.387504
0
VERTEX
8
1
10
9.186895
20
5.116177
42
-0.011983
0
VERTEX
8
1
10
9.040066
20
5.229790
42
-0.129002
0
VERTEX
8
1
10
8.974771
20
5.338589
42
0.007388
0
VERTEX
8
1
10
8.904932
20
5.448589
42
-0.577778
0
VERTEX
8
1
10
8.937098
20
5.500546
42
-0.912203
0
SEQEND
0
POLYLINE
8
1
66
1
70
1
0
VERTEX
8
1
10
9.154135
20
5.532619
42
-0.657099
0
VERTEX
8
1
10
9.120802
20
5.579494
0
VERTEX
8
1
10
9.111406
20
5.589886
42
-0.101330
0
VERTEX
8
1
10
8.829210
20
5.902431
42
-0.939086
0
VERTEX
8
1
10
8.884684
20
5.930904
42
0.099710
0
VERTEX
8
1
10
9.201530
20
5.598224
42
-0.399633
0
VERTEX
8
1
10
9.199707
20
5.558614
42
-0.224935
0
SEQEND
0
POLYLINE
8
1
66
1
70
1
0
VERTEX
8
1
10
8.889902
20
4.282040
42
-0.876076
0
VERTEX
8
1
10
8.926371
20
4.332164
42
-0.147394
0
VERTEX
8
1
10
8.996219
20
4.217308
42
0.098376
0
VERTEX
8
1
10
9.070031
20
4.102847
42
0.131283
0
VERTEX
8
1
10
9.122145
20
4.083530
42
-0.278697
0
VERTEX
8
1
10
9.142702
20
4.051952
42
-1.184425
0
VERTEX
8
1
10
9.084314
20
4.027370
42
-0.163637
0
VERTEX
8
1
10
9.017480
20
4.069730
42
-0.110137
0
VERTEX
8
1
10
8.915555
20
4.250378
42
0.088183
0
SEQEND
0
POLYLINE
8
1
66
1
70
1
0
VERTEX
8
1
10
9.149675
20
4.415890
42
-0.086135
0
VERTEX
8
1
10
8.968174
20
4.622545
42
-0.181851
0
VERTEX
8
1
10
8.953862
20
4.710871
42
-0.869038
0
VERTEX
8
1
10
9.011696
20
4.690153
0
VERTEX
8
1
10
9.013309
20
4.677685
0
VERTEX
8
1
10
9.017110
20
4.665701
42
0.113876
0
VERTEX
8
1
10
9.222727
20
4.440548
0
VERTEX
8
1
10
9.241915
20
4.431133
42
-1.067662
0
VERTEX
8
1
10
9.237040
20
4.368192
42
-0.106078
0
SEQEND
0
POLYLINE
8
1
66
1
70
1
0
VERTEX
8
1
10
9.302427
20
4.602566
0
VERTEX
8
1
10
9.273825
20
4.592953
42
-0.666669
0
VERTEX
8
1
10
9.233248
20
4.635342
42
-0.070766
0
VERTEX
8
1
10
9.076212
20
4.766815
42
-0.099567
0
VERTEX
8
1
10
9.002645
20
4.908581
42
0.073494
0
VERTEX
8
1
10
8.972107
20
4.959436
42
-0.144440
0
VERTEX
8
1
10
8.938044
20
5.046535
42
-1.092673
0
VERTEX
8
1
10
9.000631
20
5.041058
42
0.189443
0
VERTEX
8
1
10
9.019259
20
5.004127
42
-0.069299
0
VERTEX
8
1
10
9.078743
20
4.883279
42
0.129297
0
VERTEX
8
1
10
9.163204
20
4.769728
42
0.019693
0
VERTEX
8
1
10
9.312390
20
4.652010
42
-0.427333
0
SEQEND
0
POLYLINE
8
1
66
1
70
1
0
VERTEX
8
1
10
9.337934
20
4.956097
42
-0.510282
0
VERTEX
8
1
10
9.295744
20
4.927793
42
0.034147
0
VERTEX
8
1
10
9.203479
20
4.879326
42
-0.537414
0
VERTEX
8
1
10
9.163873
20
4.913525
42
-0.567306
0
VERTEX
8
1
10
9.206423
20
4.955273
42
0.064789
0
VERTEX
8
1
10
9.293633
20
5.001627
42
-0.694374
0
SEQEND
0
POLYLINE
8
1
66
1
70
1
0
VERTEX
8
1
10
9.291319
20
5.515743
42
-0.956938
0
VERTEX
8
1
10
9.288168
20
5.452282
0
VERTEX
8
1
10
9.284895
20
5.449932
42
-0.121506
0
VERTEX
8
1
10
9.195183
20
5.341746
42
-0.289373
0
VERTEX
8
1
10
9.141348
20
5.345613
42
-0.602286
0
VERTEX
8
1
10
9.161313
20
5.400802
42
0.181692
0
VERTEX
8
1
10
9.230082
20
5.481767
42
-0.230942
0
SEQEND
0
POLYLINE
8
1
66
1
70
1
0
VERTEX
8
1
10
8.852041
20
6.644466
42
-1.207188
0
VERTEX
8
1
10
8.902061
20
6.683454
42
0.082283
0
VERTEX
8
1
10
9.017408
20
6.613512
42
-0.065097
0
VERTEX
8
1
10
9.099447
20
6.551189
0
VERTEX
8
1
10
9.114763
20
6.525707
42
-1.233184
0
VERTEX
8
1
10
9.056842
20
6.501003
42
0.173152
0
VERTEX
8
1
10
9.003687
20
6.547726
0
VERTEX
8
1
10
8.894609
20
6.607769
42
-0.436258
0
VERTEX
8
1
10
8.858210
20
6.635845
0
SEQEND
0
POLYLINE
8
1
66
1
70
1
0
VERTEX
8
1
10
9.058912
20
6.452953
42
-0.964397
0
VERTEX
8
1
10
9.070224
20
6.391906
42
0.257527
0
VERTEX
8
1
10
9.042632
20
6.351867
42
-0.236540
0
VERTEX
8
1
10
8.955684
20
6.275489
42
-0.884064
0
VERTEX
8
1
10
8.948586
20
6.336413
42
0.227631
0
VERTEX
8
1
10
8.987551
20
6.384212
42
-0.261873
0
SEQEND
0
POLYLINE
8
1
66
1
70
1
0
VERTEX
8
1
10
8.729853
20
6.372433
42
-0.781306
0
VERTEX
8
1
10
8.778971
20
6.408017
42
-0.030018
0
VERTEX
8
1
10
8.867918
20
6.217022
42
0.230141
0
VERTEX
8
1
10
8.900255
20
6.196392
42
-0.013415
0
VERTEX
8
1
10
9.131782
20
6.022744
42
-0.802939
0
VERTEX
8
1
10
9.087435
20
5.980618
0
VERTEX
8
1
10
8.873121
20
6.140087
42
-0.250131
0
VERTEX
8
1
10
8.815271
20
6.182934
42
-0.008020
0
SEQEND
0
POLYLINE
8
1
66
1
70
1
0
VERTEX
8
1
10
8.723822
20
3.989330
42
-0.982549
0
VERTEX
8
1
10
8.726818
20
4.050540
42
-0.188920
0
VERTEX
8
1
10
8.774046
20
4.035992
42
-0.101144
0
VERTEX
8
1
10
8.790422
20
3.946758
42
0.190759
0
VERTEX
8
1
10
8.917273
20
3.762829
0
VERTEX
8
1
10
8.935503
20
3.747677
42
-0.455006
0
VERTEX
8
1
10
8.944632
20
3.700756
0
VERTEX
8
1
10
8.981399
20
3.732678
42
0.119084
0
VERTEX
8
1
10
9.310830
20
4.239763
42
0.072026
0
VERTEX
8
1
10
9.412017
20
4.751823
42
0.055566
0
VERTEX
8
1
10
9.385083
20
5.492386
42
0.027484
0
VERTEX
8
1
10
9.204016
20
6.419031
42
-0.129390
0
VERTEX
8
1
10
9.211860
20
6.593941
42
-0.408925
0
VERTEX
8
1
10
9.333837
20
6.635341
42
-0.121402
0
VERTEX
8
1
10
9.447031
20
6.561640
42
-0.792120
0
VERTEX
8
1
10
9.404158
20
6.518475
42
0.114535
0
VERTEX
8
1
10
9.297289
20
6.582642
42
0.404135
0
VERTEX
8
1
10
9.267460
20
6.556920
42
0.145095
0
VERTEX
8
1
10
9.263915
20
6.456515
42
0.032251
0
VERTEX
8
1
10
9.318250
20
6.201495
42
-0.022126
0
VERTEX
8
1
10
9.448122
20
5.501980
0
VERTEX
8
1
10
9.474688
20
5.236980
0
VERTEX
8
1
10
9.483961
20
4.963238
0
VERTEX
8
1
10
9.469950
20
4.688137
0
VERTEX
8
1
10
9.426680
20
4.419048
0
VERTEX
8
1
10
9.348158
20
4.163296
0
VERTEX
8
1
10
9.228399
20
3.928265
0
VERTEX
8
1
10
9.061422
20
3.721294
0
VERTEX
8
1
10
8.841238
20
3.549770
0
VERTEX
8
1
10
8.616896
20
3.435436
42
0.271935
0
VERTEX
8
1
10
8.772470
20
3.295399
42
0.127524
0
VERTEX
8
1
10
9.014776
20
3.294430
0
VERTEX
8
1
10
9.071319
20
3.306134
42
0.017270
0
VERTEX
8
1
10
9.767592
20
3.502779
42
-0.864026
0
VERTEX
8
1
10
9.786703
20
3.443707
42
-0.024182
0
VERTEX
8
1
10
8.998175
20
3.227352
42
-0.151602
0
VERTEX
8
1
10
8.691698
20
3.257871
42
-0.255856
0
VERTEX
8
1
10
8.547622
20
3.466088
42
-0.183695
0
VERTEX
8
1
10
8.559656
20
3.484890
42
0.086583
0
VERTEX
8
1
10
8.929688
20
3.690635
42
-0.489118
0
VERTEX
8
1
10
8.871893
20
3.718990
42
-0.169284
0
VERTEX
8
1
10
8.729502
20
3.928265
0
SEQEND
0
POLYLINE
8
1
66
1
70
1
0
VERTEX
8
1
10
8.570974
20
3.842754
42
-1.191259
0
VERTEX
8
1
10
8.608354
20
3.792501
0
VERTEX
8
1
10
8.594938
20
3.779071
42
-0.141672
0
VERTEX
8
1
10
7.861669
20
3.441479
42
-0.018570
0
VERTEX
8
1
10
7.585655
20
3.396894
42
0.066814
0
VERTEX
8
1
10
7.339265
20
3.325092
42
0.233714
0
VERTEX
8
1
10
7.226604
20
3.150133
42
-0.738195
0
VERTEX
8
1
10
7.167562
20
3.159130
42
-0.267478
0
VERTEX
8
1
10
7.322053
20
3.383502
42
-0.082912
0
VERTEX
8
1
10
7.482130
20
3.438335
0
VERTEX
8
1
10
7.536176
20
3.449780
42
0.027230
0
VERTEX
8
1
10
8.049384
20
3.548733
42
0.113495
0
SEQEND
0
POLYLINE
8
1
66
1
70
1
0
VERTEX
8
1
10
8.420683
20
6.397274
42
-1.190062
0
VERTEX
8
1
10
8.439112
20
6.457303
42
-0.415213
0
VERTEX
8
1
10
8.477957
20
6.424145
42
0.150997
0
VERTEX
8
1
10
8.505953
20
6.384253
42
-0.001490
0
VERTEX
8
1
10
8.584396
20
6.308318
42
-0.295484
0
VERTEX
8
1
10
8.591364
20
6.216841
42
-0.802765
0
VERTEX
8
1
10
8.539330
20
6.250210
42
0.244246
0
VERTEX
8
1
10
8.524084
20
6.281857
0
VERTEX
8
1
10
8.465357
20
6.335110
42
-0.118314
0
SEQEND
0
POLYLINE
8
1
66
1
70
1
0
VERTEX
8
1
10
8.347219
20
6.099163
42
-0.767163
0
VERTEX
8
1
10
8.396466
20
6.133249
42
-0.174076
0
VERTEX
8
1
10
8.444598
20
6.064813
42
0.098954
0
VERTEX
8
1
10
8.518381
20
5.966228
42
-0.410824
0
VERTEX
8
1
10
8.557691
20
5.921904
42
-0.588664
0
VERTEX
8
1
10
8.512949
20
5.886150
42
-0.120284
0
VERTEX
8
1
10
8.378984
20
6.059414
42
-0.380478
0
SEQEND
0
POLYLINE
8
1
66
1
70
1
0
VERTEX
8
1
10
8.480200
20
5.729519
42
-0.887616
0
VERTEX
8
1
10
8.531637
20
5.690044
42
-0.453988
0
VERTEX
8
1
10
8.494719
20
5.652691
42
-0.084987
0
VERTEX
8
1
10
8.391569
20
5.701366
0
VERTEX
8
1
10
8.383196
20
5.702480
42
-0.563321
0
VERTEX
8
1
10
8.374394
20
5.776835
42
-0.430131
0
VERTEX
8
1
10
8.419508
20
5.761445
42
0.120033
0
VERTEX
8
1
10
8.469801
20
5.728527
0
SEQEND
0
POLYLINE
8
1
66
1
70
1
0
VERTEX
8
1
10
8.287058
20
5.424236
42
-0.916446
0
VERTEX
8
1
10
8.348380
20
5.430489
42
0.192235
0
VERTEX
8
1
10
8.414740
20
5.372082
0
VERTEX
8
1
10
8.472460
20
5.347042
42
-0.789071
0
VERTEX
8
1
10
8.463594
20
5.286907
42
-0.124005
0
VERTEX
8
1
10
8.314322
20
5.365822
42
-0.129805
0
SEQEND
0
POLYLINE
8
1
66
1
70
1
0
VERTEX
8
1
10
8.214384
20
5.111004
42
-1.012265
0
VERTEX
8
1
10
8.276145
20
5.120809
42
0.166754
0
VERTEX
8
1
10
8.366339
20
5.040295
42
-1.290703
0
VERTEX
8
1
10
8.369802
20
4.977322
42
-0.257345
0
SEQEND
0
POLYLINE
8
1
66
1
70
1
0
VERTEX
8
1
10
8.141897
20
4.824230
42
-1.135560
0
VERTEX
8
1
10
8.202421
20
4.839504
42
0.126626
0
VERTEX
8
1
10
8.220732
20
4.814770
0
VERTEX
8
1
10
8.269102
20
4.776897
42
-0.195016
0
VERTEX
8
1
10
8.318440
20
4.699752
42
-0.882097
0
VERTEX
8
1
10
8.257895
20
4.693640
42
0.117791
0
VERTEX
8
1
10
8.236231
20
4.722836
0
VERTEX
8
1
10
8.187239
20
4.761120
42
-0.155615
0
SEQEND
0
POLYLINE
8
1
66
1
70
1
0
VERTEX
8
1
10
8.009443
20
4.625866
42
-1.082250
0
VERTEX
8
1
10
8.069521
20
4.643124
42
-0.059633
0
VERTEX
8
1
10
8.153002
20
4.588526
0
VERTEX
8
1
10
8.160699
20
4.586888
0
VERTEX
8
1
10
8.168562
20
4.587200
42
-1.195097
0
VERTEX
8
1
10
8.181084
20
4.526489
42
-0.291347
0
VERTEX
8
1
10
8.083193
20
4.563883
42
0.162665
0
VERTEX
8
1
10
8.037870
20
4.584240
42
-0.268874
0
SEQEND
0
POLYLINE
8
1
66
1
70
1
0
VERTEX
8
1
10
7.900033
20
8.597408
42
-0.928373
0
VERTEX
8
1
10
7.868845
20
8.651362
42
-0.007781
0
VERTEX
8
1
10
8.544715
20
8.967209
42
-0.818399
0
VERTEX
8
1
10
8.567202
20
8.910213
42
0.005441
0
SEQEND
0
POLYLINE
8
1
66
1
70
1
0
VERTEX
8
1
10
7.580789
20
7.108807
42
-0.824670
0
VERTEX
8
1
10
7.542333
20
7.156582
42
-0.008870
0
VERTEX
8
1
10
8.570903
20
7.700113
42
-0.788604
0
VERTEX
8
1
10
8.594324
20
7.643993
42
0.005329
0
SEQEND
0
POLYLINE
8
1
66
1
70
1
0
VERTEX
8
1
10
7.187551
20
5.735394
42
-0.906452
0
VERTEX
8
1
10
7.151750
20
5.786221
42
-0.007431
0
VERTEX
8
1
10
7.645646
20
6.080160
42
-0.728740
0
VERTEX
8
1
10
7.677492
20
6.029903
42
0.001361
0
SEQEND
0
POLYLINE
8
1
66
1
70
1
0
VERTEX
8
1
10
6.622156
20
3.717846
42
-0.971938
0
VERTEX
8
1
10
6.680162
20
3.741817
42
0.339669
0
VERTEX
8
1
10
6.813568
20
3.639494
42
0.127112
0
VERTEX
8
1
10
7.046026
20
3.673533
42
0.042530
0
VERTEX
8
1
10
7.319826
20
3.795925
42
0.019048
0
VERTEX
8
1
10
8.315656
20
4.370082
42
-0.137890
0
VERTEX
8
1
10
8.332499
20
4.371487
0
VERTEX
8
1
10
8.590441
20
4.267605
42
-0.936717
0
VERTEX
8
1
10
8.573790
20
4.207486
0
VERTEX
8
1
10
8.330194
20
4.305629
42
-0.018388
0
VERTEX
8
1
10
7.333492
20
3.730928
42
-0.045512
0
VERTEX
8
1
10
6.981221
20
3.587607
42
-0.129498
0
VERTEX
8
1
10
6.746131
20
3.588771
42
-0.239160
0
SEQEND
0
POLYLINE
8
1
66
1
70
1
0
VERTEX
8
1
10
5.745740
20
3.113262
42
-0.789462
0
VERTEX
8
1
10
5.747564
20
3.174023
42
0.000204
0
VERTEX
8
1
10
6.884748
20
2.986755
42
-0.725946
0
VERTEX
8
1
10
6.878053
20
2.927685
42
-0.006202
0
SEQEND
0
POLYLINE
8
1
66
1
70
1
0
VERTEX
8
1
10
6.449271
20
2.701230
42
-0.006161
0
VERTEX
8
1
10
5.525365
20
2.885915
42
-0.733216
0
VERTEX
8
1
10
5.534460
20
2.944836
42
0.008246
0
VERTEX
8
1
10
6.619648
20
2.735611
0
VERTEX
8
1
10
6.652494
20
2.732296
42
-0.998508
0
VERTEX
8
1
10
6.663270
20
2.670620
42
-0.034801
0
SEQEND
0
POLYLINE
8
1
66
1
70
1
0
VERTEX
8
1
10
8.381651
20
2.182766
42
-0.903343
0
VERTEX
8
1
10
8.376905
20
2.120785
0
VERTEX
8
1
10
6.454137
20
2.412868
42
-0.928300
0
VERTEX
8
1
10
6.459764
20
2.474972
0
SEQEND
0
POLYLINE
8
1
66
1
70
1
0
VERTEX
8
1
10
11.000772
20
2.571026
42
-0.951069
0
VERTEX
8
1
10
11.000620
20
2.508664
0
VERTEX
8
1
10
10.354700
20
2.543118
42
0.110592
0
VERTEX
8
1
10
9.815723
20
2.498322
42
-0.054577
0
VERTEX
8
1
10
9.567686
20
2.455105
42
-0.046134
0
VERTEX
8
1
10
8.066919
20
2.479473
0
VERTEX
8
1
10
8.026545
20
2.485958
42
0.031215
0
VERTEX
8
1
10
7.039481
20
2.601076
42
-0.347525
0
VERTEX
8
1
10
7.018331
20
2.633526
0
VERTEX
8
1
10
7.092447
20
2.915920
42
-0.309818
0
VERTEX
8
1
10
7.117387
20
2.941738
42
-0.027431
0
VERTEX
8
1
10
7.478960
20
2.935207
42
-0.008726
0
VERTEX
8
1
10
9.258791
20
2.689831
42
0.179469
0
VERTEX
8
1
10
9.605965
20
2.720565
42
0.036426
0
VERTEX
8
1
10
9.897131
20
2.859493
0
VERTEX
8
1
10
9.972673
20
2.898449
42
-0.081661
0
VERTEX
8
1
10
10.660234
20
3.138165
42
0.015481
0
VERTEX
8
1
10
10.867887
20
3.185590
42
-0.098120
0
VERTEX
8
1
10
10.927432
20
3.207362
42
-0.772989
0
VERTEX
8
1
10
10.932600
20
3.146470
42
-0.100818
0
VERTEX
8
1
10
10.869116
20
3.120892
42
0.001767
0
VERTEX
8
1
10
10.462621
20
3.029570
42
0.047621
0
VERTEX
8
1
10
10.110876
20
2.898754
0
VERTEX
8
1
10
9.803747
20
2.740795
42
-0.075440
0
VERTEX
8
1
10
9.472186
20
2.615879
42
-0.101790
0
VERTEX
8
1
10
9.248358
20
2.628109
0
VERTEX
8
1
10
9.166064
20
2.642140
42
0.005376
0
VERTEX
8
1
10
7.511069
20
2.869327
42
0.028147
0
VERTEX
8
1
10
7.147726
20
2.880444
0
VERTEX
8
1
10
7.089384
20
2.659496
0
VERTEX
8
1
10
7.223924
20
2.650051
42
-0.032869
0
VERTEX
8
1
10
8.071955
20
2.542416
0
VERTEX
8
1
10
8.139631
20
2.532787
42
0.041616
0
VERTEX
8
1
10
9.558358
20
2.516129
42
0.048269
0
VERTEX
8
1
10
9.844535
20
2.572118
42
-0.100533
0
VERTEX
8
1
10
10.362047
20
2.605221
0
SEQEND
0
POLYLINE
8
1
66
1
70
1
0
VERTEX
8
1
10
11.066343
20
3.914776
42
-0.993031
0
VERTEX
8
1
10
11.008215
20
3.891048
0
VERTEX
8
1
10
10.943129
20
4.142727
0
VERTEX
8
1
10
10.788561
20
6.255901
42
-0.920853
0
VERTEX
8
1
10
10.850103
20
6.265514
0
VERTEX
8
1
10
11.004503
20
4.155025
0
SEQEND
0
POLYLINE
8
1
66
1
70
1
0
VERTEX
8
1
10
11.094110
20
7.300274
42
-0.960026
0
VERTEX
8
1
10
11.032935
20
7.286678
0
VERTEX
8
1
10
10.747110
20
11.674999
42
-0.904079
0
VERTEX
8
1
10
10.808630
20
11.684048
0
SEQEND
0
POLYLINE
8
1
66
1
70
1
0
VERTEX
8
1
10
11.231756
20
14.595379
42
-0.129290
0
VERTEX
8
1
10
11.142673
20
14.493227
42
-0.323936
0
VERTEX
8
1
10
11.024497
20
14.512895
42
-0.141718
0
VERTEX
8
1
10
10.964801
20
14.599465
42
-0.980575
0
VERTEX
8
1
10
11.027758
20
14.606968
42
0.157823
0
VERTEX
8
1
10
11.084460
20
14.546509
42
0.294923
0
VERTEX
8
1
10
11.127109
20
14.561460
42
0.110899
0
VERTEX
8
1
10
11.179441
20
14.629116
42
-0.911974
0
SEQEND
0
POLYLINE
8
1
66
1
70
1
0
VERTEX
8
1
10
11.076166
20
14.361736
0
VERTEX
8
1
10
11.205942
20
12.985729
42
-0.941848
0
VERTEX
8
1
10
11.144281
20
12.976177
0
VERTEX
8
1
10
11.014624
20
14.351986
42
-0.923573
0
SEQEND
0
POLYLINE
8
1
66
1
70
1
0
VERTEX
8
1
10
11.988981
20
6.047924
0
VERTEX
8
1
10
11.486041
20
6.010159
42
0.004333
0
VERTEX
8
1
10
11.543041
20
4.677164
0
VERTEX
8
1
10
11.508295
20
4.663418
0
VERTEX
8
1
10
11.609449
20
3.933666
42
-0.014679
0
VERTEX
8
1
10
11.611898
20
3.884289
0
VERTEX
8
1
10
11.292688
20
3.751080
0
VERTEX
8
1
10
11.281435
20
4.077862
42
0.138068
0
VERTEX
8
1
10
11.301392
20
4.260880
42
0.161211
0
VERTEX
8
1
10
11.257998
20
4.319897
0
VERTEX
8
1
10
11.243204
20
4.341885
0
VERTEX
8
1
10
11.233892
20
4.445309
0
VERTEX
8
1
10
11.226003
20
4.548847
42
-0.005276
0
VERTEX
8
1
10
11.151108
20
6.322649
0
VERTEX
8
1
10
11.154146
20
6.324993
0
VERTEX
8
1
10
11.816412
20
6.374706
0
VERTEX
8
1
10
11.948133
20
6.572735
0
VERTEX
8
1
10
11.947878
20
6.574337
0
VERTEX
8
1
10
11.207743
20
7.132839
0
VERTEX
8
1
10
11.254354
20
7.172726
42
0.098180
0
VERTEX
8
1
10
11.327715
20
7.184780
42
0.025042
0
VERTEX
8
1
10
11.660566
20
7.373211
0
VERTEX
8
1
10
11.669470
20
7.197933
0
VERTEX
8
1
10
12.389776
20
6.654720
0
VERTEX
8
1
10
12.392675
20
6.651440
0
VERTEX
8
1
10
11.991819
20
6.048809
0
SEQEND
0
POLYLINE
8
1
66
1
70
1
0
VERTEX
8
1
10
11.252794
20
6.606487
0
VERTEX
8
1
10
11.215834
20
6.882793
42
-0.031349
0
VERTEX
8
1
10
11.440876
20
6.729314
42
-0.048693
0
VERTEX
8
1
10
11.498800
20
6.665279
0
VERTEX
8
1
10
11.503016
20
6.646114
0
VERTEX
8
1
10
11.480692
20
6.640759
42
0.236016
0
VERTEX
8
1
10
11.364981
20
6.582333
0
SEQEND
0
POLYLINE
8
1
66
1
70
1
0
VERTEX
8
1
10
12.717314
20
6.038235
42
-0.799421
0
VERTEX
8
1
10
12.749277
20
5.986340
42
0.002753
0
VERTEX
8
1
10
11.953985
20
5.645553
42
-0.725327
0
VERTEX
8
1
10
11.927050
20
5.698513
42
-0.009068
0
SEQEND
0
POLYLINE
8
1
66
1
70
1
0
VERTEX
8
1
10
15.338522
20
7.921566
42
-0.908487
0
VERTEX
8
1
10
15.349634
20
7.860349
42
0.045374
0
VERTEX
8
1
10
13.896709
20
7.555141
42
0.021793
0
VERTEX
8
1
10
12.594172
20
7.106506
42
-0.816851
0
VERTEX
8
1
10
12.575251
20
7.164776
42
-0.024362
0
VERTEX
8
1
10
14.100377
20
7.681484
42
-0.036978
0
SEQEND
0
POLYLINE
8
1
66
1
70
1
0
VERTEX
8
1
10
16.906706
20
8.992657
42
-0.906336
0
VERTEX
8
1
10
16.908281
20
8.930463
42
0.034460
0
VERTEX
8
1
10
16.032429
20
8.943613
42
0.048657
0
VERTEX
8
1
10
13.900408
20
8.644050
42
0.034348
0
VERTEX
8
1
10
11.620119
20
7.941900
42
-0.746194
0
VERTEX
8
1
10
11.596987
20
7.997172
42
-0.044832
0
VERTEX
8
1
10
14.480818
20
8.830239
42
-0.045520
0
VERTEX
8
1
10
16.441179
20
9.014826
42
-0.018479
0
SEQEND
0
POLYLINE
8
1
66
1
70
1
0
VERTEX
8
1
10
14.000768
20
9.743664
42
0.039022
0
VERTEX
8
1
10
12.136109
20
9.241776
42
-0.799838
0
VERTEX
8
1
10
12.117079
20
9.299709
42
-0.082826
0
VERTEX
8
1
10
15.974914
20
10.006587
42
-0.056640
0
VERTEX
8
1
10
18.577734
20
9.750895
42
-0.749652
0
VERTEX
8
1
10
18.565557
20
9.692137
42
0.099083
0
SEQEND
0
POLYLINE
8
1
66
1
70
1
0
VERTEX
8
1
10
19.211645
20
8.725842
42
-1.040503
0
VERTEX
8
1
10
19.206873
20
8.663311
0
VERTEX
8
1
10
19.156479
20
8.671098
42
-0.001290
0
VERTEX
8
1
10
18.274218
20
8.776093
42
-0.754176
0
VERTEX
8
1
10
18.278467
20
8.836071
42
-0.003912
0
SEQEND
0
POLYLINE
8
1
66
1
70
1
0
VERTEX
8
1
10
21.359425
20
9.419445
42
-0.074471
0
VERTEX
8
1
10
20.937103
20
9.176647
42
0.025791
0
VERTEX
8
1
10
20.232712
20
8.860104
0
VERTEX
8
1
10
20.310661
20
9.422253
0
VERTEX
8
1
10
20.309700
20
9.427761
42
-0.088581
0
VERTEX
8
1
10
19.639172
20
9.536787
42
-0.064494
0
VERTEX
8
1
10
18.888096
20
9.894919
42
-0.029073
0
VERTEX
8
1
10
18.238779
20
10.350735
0
VERTEX
8
1
10
18.210024
20
10.370785
42
0.154434
0
VERTEX
8
1
10
17.736460
20
10.594211
42
0.045605
0
VERTEX
8
1
10
17.303064
20
10.634609
0
VERTEX
8
1
10
16.943232
20
10.635494
0
VERTEX
8
1
10
17.170641
20
10.897213
42
0.061468
0
VERTEX
8
1
10
17.447771
20
11.306416
42
0.104282
0
VERTEX
8
1
10
17.559202
20
11.780543
42
0.030486
0
VERTEX
8
1
10
17.557985
20
12.030300
0
VERTEX
8
1
10
17.539030
20
12.414576
42
-0.127938
0
VERTEX
8
1
10
17.772253
20
13.600628
0
VERTEX
8
1
10
17.771009
20
13.611752
42
-0.032514
0
VERTEX
8
1
10
17.455946
20
13.664028
0
VERTEX
8
1
10
17.524469
20
13.767666
42
-0.054085
0
VERTEX
8
1
10
17.827745
20
14.148403
0
VERTEX
8
1
10
17.831591
20
14.482311
0
VERTEX
8
1
10
17.830950
20
14.483288
0
VERTEX
8
1
10
17.526396
20
14.609142
0
VERTEX
8
1
10
17.914938
20
14.947781
0
VERTEX
8
1
10
17.962881
20
15.443295
0
VERTEX
8
1
10
18.157946
20
15.172451
0
VERTEX
8
1
10
18.211756
20
14.532024
0
VERTEX
8
1
10
18.227499
20
14.455044
42
-0.184121
0
VERTEX
8
1
10
19.719143
20
14.677032
42
0.005911
0
VERTEX
8
1
10
19.379850
20
14.041622
0
VERTEX
8
1
10
19.433134
20
14.048992
42
-0.144741
0
VERTEX
8
1
10
20.465927
20
15.017330
0
VERTEX
8
1
10
20.426907
20
15.023830
42
-0.023620
0
VERTEX
8
1
10
20.595417
20
15.074444
0
VERTEX
8
1
10
20.603424
20
15.058437
42
-0.117068
0
VERTEX
8
1
10
20.662624
20
15.033680
42
-0.379749
0
VERTEX
8
1
10
20.659668
20
14.989269
42
0.179866
0
VERTEX
8
1
10
20.687317
20
14.966091
0
VERTEX
8
1
10
20.515305
20
14.885815
42
0.366308
0
VERTEX
8
1
10
19.334513
20
12.078502
0
VERTEX
8
1
10
19.301790
20
12.065166
42
-0.059523
0
VERTEX
8
1
10
18.770624
20
11.959057
42
-0.114818
0
VERTEX
8
1
10
18.576899
20
12.055659
42
-0.224061
0
VERTEX
8
1
10
18.250589
20
12.659283
0
VERTEX
8
1
10
18.251810
20
12.729122
42
-0.034327
0
VERTEX
8
1
10
18.320042
20
13.054502
42
-0.125647
0
VERTEX
8
1
10
18.545496
20
13.403332
42
0.059656
0
VERTEX
8
1
10
18.788183
20
13.296034
42
0.085721
0
VERTEX
8
1
10
18.881990
20
13.293194
0
VERTEX
8
1
10
18.898764
20
13.300228
0
VERTEX
8
1
10
18.910715
20
13.320629
42
-0.030765
0
VERTEX
8
1
10
18.983835
20
13.502270
42
-0.014502
0
VERTEX
8
1
10
19.532576
20
14.571011
42
0.195780
0
VERTEX
8
1
10
18.110332
20
14.208692
0
VERTEX
8
1
10
18.063210
20
14.172248
0
VERTEX
8
1
10
18.017260
20
14.134335
0
VERTEX
8
1
10
17.890390
20
14.013744
0
VERTEX
8
1
10
17.768858
20
13.874050
0
VERTEX
8
1
10
17.670969
20
13.736813
42
0.018228
0
VERTEX
8
1
10
17.988707
20
13.709332
42
0.147992
0
VERTEX
8
1
10
17.668486
20
12.447994
0
VERTEX
8
1
10
17.684416
20
12.124798
42
-0.034699
0
VERTEX
8
1
10
17.685698
20
11.664117
42
-0.118486
0
VERTEX
8
1
10
17.489553
20
11.101276
42
-0.041226
0
VERTEX
8
1
10
17.293623
20
10.828930
0
VERTEX
8
1
10
17.239668
20
10.747311
42
-0.068554
0
VERTEX
8
1
10
17.914913
20
10.670011
42
-0.106281
0
VERTEX
8
1
10
18.278358
20
10.470283
0
VERTEX
8
1
10
18.358999
20
10.407618
0
VERTEX
8
1
10
18.440413
20
10.345961
0
VERTEX
8
1
10
18.522589
20
10.285320
42
0.054821
0
VERTEX
8
1
10
19.408850
20
9.747555
0
VERTEX
8
1
10
19.550577
20
9.688595
0
VERTEX
8
1
10
19.696035
20
9.637234
42
0.081301
0
VERTEX
8
1
10
20.299782
20
9.539410
0
VERTEX
8
1
10
20.452335
20
9.549862
0
VERTEX
8
1
10
20.460270
20
9.523785
0
VERTEX
8
1
10
20.395153
20
9.066066
42
-0.003689
0
VERTEX
8
1
10
21.003366
20
9.326298
42
0.093524
0
VERTEX
8
1
10
21.489466
20
9.688204
42
0.061455
0
VERTEX
8
1
10
21.951672
20
10.301067
42
-0.014266
0
VERTEX
8
1
10
21.103329
20
10.286699
42
-0.057270
0
VERTEX
8
1
10
20.292500
20
10.407955
0
VERTEX
8
1
10
20.231281
20
10.418027
42
0.006264
0
VERTEX
8
1
10
20.408779
20
9.927135
0
VERTEX
8
1
10
20.332981
20
9.942796
42
-0.078746
0
VERTEX
8
1
10
19.639214
20
10.207188
42
-0.079180
0
VERTEX
8
1
10
19.308298
20
10.472164
42
-0.150491
0
VERTEX
8
1
10
19.105337
20
11.067837
42
-0.232774
0
VERTEX
8
1
10
19.210081
20
11.300793
42
-0.036623
0
VERTEX
8
1
10
19.563219
20
11.559872
0
VERTEX
8
1
10
19.694658
20
11.374935
42
0.240228
0
VERTEX
8
1
10
21.611149
20
10.427639
0
VERTEX
8
1
10
21.817764
20
10.438946
0
VERTEX
8
1
10
22.019272
20
10.467617
0
VERTEX
8
1
10
22.214931
20
10.512905
0
VERTEX
8
1
10
22.403996
20
10.574078
0
VERTEX
8
1
10
22.585709
20
10.650372
0
VERTEX
8
1
10
22.759331
20
10.741039
42
0.232767
0
VERTEX
8
1
10
23.920540
20
12.472866
0
VERTEX
8
1
10
23.938583
20
12.677624
42
0.127678
0
VERTEX
8
1
10
23.694595
20
13.834957
0
VERTEX
8
1
10
23.718334
20
13.862103
42
0.006401
0
VERTEX
8
1
10
24.467245
20
12.826710
42
0.051738
0
VERTEX
8
1
10
24.569468
20
12.705635
42
0.237634
0
VERTEX
8
1
10
24.701614
20
12.678066
42
0.039045
0
VERTEX
8
1
10
24.871010
20
12.749035
42
0.178524
0
VERTEX
8
1
10
25.028839
20
12.855709
42
0.174387
0
VERTEX
8
1
10
25.035172
20
13.039349
42
0.030293
0
VERTEX
8
1
10
24.707466
20
13.749523
0
VERTEX
8
1
10
24.704262
20
13.764339
0
VERTEX
8
1
10
24.829773
20
13.811108
42
0.032221
0
VERTEX
8
1
10
26.391626
20
13.639079
42
0.037679
0
VERTEX
8
1
10
27.717258
20
13.684726
0
VERTEX
8
1
10
27.888678
20
13.700747
42
-0.030770
0
VERTEX
8
1
10
28.594334
20
13.741242
0
VERTEX
8
1
10
28.683495
20
13.739376
0
VERTEX
8
1
10
28.683495
20
13.697292
0
VERTEX
8
1
10
28.933495
20
13.697018
0
VERTEX
8
1
10
28.933495
20
13.718227
42
-0.059375
0
VERTEX
8
1
10
29.349998
20
13.615002
0
VERTEX
8
1
10
29.349998
20
13.642620
0
VERTEX
8
1
10
29.683434
20
13.643139
0
VERTEX
8
1
10
29.683411
20
13.518139
0
VERTEX
8
1
10
29.475327
20
13.518139
0
VERTEX
8
1
10
29.474998
20
13.412106
0
VERTEX
8
1
10
29.601952
20
13.412106
42
-0.298082
0
VERTEX
8
1
10
29.669060
20
13.322369
42
0.003917
0
VERTEX
8
1
10
29.588783
20
12.109463
42
-0.406526
0
VERTEX
8
1
10
29.369308
20
11.937237
0
VERTEX
8
1
10
29.368965
20
11.851086
0
VERTEX
8
1
10
29.544128
20
11.850475
0
VERTEX
8
1
10
29.544601
20
11.725521
0
VERTEX
8
1
10
29.243965
20
11.725552
0
VERTEX
8
1
10
29.244293
20
12.062237
0
VERTEX
8
1
10
29.386230
20
12.062237
42
0.402726
0
VERTEX
8
1
10
29.465469
20
12.128597
42
-0.006652
0
VERTEX
8
1
10
29.540756
20
13.287105
0
VERTEX
8
1
10
29.350006
20
13.287106
0
VERTEX
8
1
10
29.349998
20
13.479137
42
0.046297
0
VERTEX
8
1
10
26.428505
20
13.439266
0
VERTEX
8
1
10
26.411911
20
13.421124
42
-0.047851
0
VERTEX
8
1
10
27.409660
20
12.986568
42
-0.009165
0
VERTEX
8
1
10
25.155161
20
13.256281
0
VERTEX
8
1
10
25.078323
20
13.263561
42
-0.009183
0
VERTEX
8
1
10
25.154091
20
13.074535
42
-0.112674
0
VERTEX
8
1
10
25.153946
20
12.860227
42
-0.209784
0
VERTEX
8
1
10
25.001869
20
12.686809
42
-0.018730
0
VERTEX
8
1
10
24.734381
20
12.570374
42
-0.279260
0
VERTEX
8
1
10
24.453316
20
12.650890
42
-0.016370
0
VERTEX
8
1
10
24.046829
20
13.191295
0
VERTEX
8
1
10
24.024330
20
13.218410
42
-0.397827
0
VERTEX
8
1
10
22.129375
20
10.377254
0
VERTEX
8
1
10
22.000233
20
10.165325
0
VERTEX
8
1
10
21.956997
20
10.098048
42
-0.065466
0
VERTEX
8
1
10
21.459366
20
9.503681
0
VERTEX
8
1
10
21.409967
20
9.460885
0
SEQEND
0
POLYLINE
8
1
66
1
70
1
0
VERTEX
8
1
10
19.170397
20
14.266888
0
VERTEX
8
1
10
19.205267
20
14.263622
42
-0.980786
0
VERTEX
8
1
10
19.210913
20
14.200892
0
VERTEX
8
1
10
19.141703
20
14.206800
42
-0.002776
0
VERTEX
8
1
10
18.767979
20
13.431164
42
0.171955
0
VERTEX
8
1
10
18.381271
20
13.808015
42
0.103997
0
VERTEX
8
1
10
18.003153
20
13.903973
0
VERTEX
8
1
10
18.055788
20
13.993969
0
VERTEX
8
1
10
18.127989
20
14.075085
0
VERTEX
8
1
10
18.216303
20
14.147701
42
-0.080771
0
VERTEX
8
1
10
18.703922
20
14.373718
42
-0.043797
0
VERTEX
8
1
10
19.282492
20
14.501919
0
SEQEND
0
POLYLINE
8
1
66
1
70
1
0
VERTEX
8
1
10
20.974106
20
9.890377
42
-0.022901
0
VERTEX
8
1
10
20.589645
20
9.885174
42
-0.020674
0
VERTEX
8
1
10
20.474861
20
10.184782
42
-0.085217
0
VERTEX
8
1
10
20.472351
20
10.229931
0
VERTEX
8
1
10
20.476429
20
10.232922
42
0.038030
0
VERTEX
8
1
10
21.015032
20
10.180406
42
0.018717
0
VERTEX
8
1
10
21.690849
20
10.175915
0
VERTEX
8
1
10
21.715755
20
10.136776
42
-0.104290
0
VERTEX
8
1
10
20.997688
20
9.447515
42
-0.083294
0
VERTEX
8
1
10
20.547924
20
9.273296
42
-0.118696
0
VERTEX
8
1
10
20.614101
20
9.559811
0
VERTEX
8
1
10
20.644588
20
9.571209
42
0.128850
0
VERTEX
8
1
10
21.043655
20
9.779757
42
0.086346
0
VERTEX
8
1
10
21.128662
20
9.901821
0
VERTEX
8
1
10
21.124268
20
9.910946
42
-0.037802
0
SEQEND
0
POLYLINE
8
1
66
1
70
1
0
VERTEX
8
1
10
29.178246
20
12.600185
42
-0.836094
0
VERTEX
8
1
10
29.172623
20
12.538951
0
VERTEX
8
1
10
29.094231
20
12.554283
42
0.068027
0
VERTEX
8
1
10
28.131838
20
12.580959
42
0.047496
0
VERTEX
8
1
10
27.434555
20
12.445187
42
0.050725
0
VERTEX
8
1
10
27.256561
20
12.372479
42
-0.058820
0
VERTEX
8
1
10
26.793913
20
12.208177
42
-0.064603
0
VERTEX
8
1
10
26.590378
20
12.199795
42
-0.048773
0
VERTEX
8
1
10
25.882217
20
12.161587
42
-0.024042
0
VERTEX
8
1
10
24.489450
20
12.281287
42
-0.804549
0
VERTEX
8
1
10
24.500404
20
12.341319
42
0.030486
0
VERTEX
8
1
10
26.103241
20
12.221000
42
0.040440
0
VERTEX
8
1
10
26.594994
20
12.264584
42
0.102161
0
VERTEX
8
1
10
26.806515
20
12.277270
42
0.068248
0
VERTEX
8
1
10
27.261848
20
12.446523
42
-0.051025
0
VERTEX
8
1
10
27.562065
20
12.543298
42
-0.075766
0
VERTEX
8
1
10
28.769794
20
12.656794
42
-0.032335
0
SEQEND
0
POLYLINE
8
1
66
1
70
1
0
VERTEX
8
1
10
23.945862
20
10.413601
42
-0.030672
0
VERTEX
8
1
10
24.510084
20
10.372921
42
0.020693
0
VERTEX
8
1
10
25.877991
20
10.282224
42
-0.011935
0
VERTEX
8
1
10
26.342710
20
10.256011
42
-0.712480
0
VERTEX
8
1
10
26.337547
20
10.196820
42
0.007846
0
VERTEX
8
1
10
25.578089
20
10.229370
42
-0.016835
0
VERTEX
8
1
10
24.235014
20
10.339174
0
VERTEX
8
1
10
24.154308
20
10.344897
42
0.008115
0
VERTEX
8
1
10
23.460077
20
10.357501
42
-0.009457
0
VERTEX
8
1
10
23.123795
20
10.371792
42
-0.895214
0
VERTEX
8
1
10
23.124542
20
10.433972
0
VERTEX
8
1
10
23.177193
20
10.430309
42
0.007960
0
SEQEND
0
POLYLINE
8
1
66
1
70
1
0
VERTEX
8
1
10
24.999596
20
7.600292
42
-0.791632
0
VERTEX
8
1
10
25.019539
20
7.542843
42
-0.078539
0
VERTEX
8
1
10
22.433817
20
7.483279
42
-0.015683
0
VERTEX
8
1
10
21.692955
20
7.598186
42
0.013982
0
VERTEX
8
1
10
21.278841
20
7.656373
42
0.015305
0
VERTEX
8
1
10
21.077532
20
7.664050
42
-0.791119
0
VERTEX
8
1
10
21.079571
20
7.724878
42
-0.047737
0
VERTEX
8
1
10
21.457771
20
7.697338
0
VERTEX
8
1
10
21.568941
20
7.681286
42
0.016461
0
VERTEX
8
1
10
22.716068
20
7.512503
42
0.068368
0
SEQEND
0
POLYLINE
8
1
66
1
70
1
0
VERTEX
8
1
10
25.738083
20
8.233395
42
-0.826199
0
VERTEX
8
1
10
25.741859
20
8.172147
42
0.000968
0
VERTEX
8
1
10
25.038231
20
8.227535
42
0.015819
0
VERTEX
8
1
10
23.932114
20
8.247129
0
VERTEX
8
1
10
23.698776
20
8.248989
42
-0.039882
0
VERTEX
8
1
10
21.622196
20
8.413509
42
-0.902890
0
VERTEX
8
1
10
21.626396
20
8.475614
42
0.042377
0
VERTEX
8
1
10
23.848497
20
8.312884
42
-0.003499
0
VERTEX
8
1
10
24.742008
20
8.303111
42
-0.014446
0
SEQEND
0
POLYLINE
8
1
66
1
70
1
0
VERTEX
8
1
10
27.197479
20
10.343090
42
0.042758
0
VERTEX
8
1
10
26.790298
20
10.336025
42
-0.133736
0
VERTEX
8
1
10
27.223824
20
10.469387
0
VERTEX
8
1
10
27.164986
20
10.494747
42
0.074813
0
VERTEX
8
1
10
26.504257
20
10.624386
42
-0.001468
0
VERTEX
8
1
10
25.788059
20
10.654422
42
-0.065958
0
VERTEX
8
1
10
25.211771
20
10.757299
0
VERTEX
8
1
10
25.153130
20
10.777401
0
VERTEX
8
1
10
25.189430
20
10.802853
42
-0.070082
0
VERTEX
8
1
10
25.816484
20
10.909419
42
-0.028380
0
VERTEX
8
1
10
26.416208
20
10.908311
42
0.026802
0
VERTEX
8
1
10
27.184395
20
10.921963
42
-0.026739
0
VERTEX
8
1
10
28.032774
20
10.995897
42
-0.045596
0
VERTEX
8
1
10
28.583258
20
10.952662
42
-0.087467
0
VERTEX
8
1
10
28.920662
20
10.820583
0
VERTEX
8
1
10
28.929298
20
10.804790
0
VERTEX
8
1
10
28.267128
20
10.732754
42
0.108012
0
VERTEX
8
1
10
28.069187
20
10.678980
42
0.090701
0
VERTEX
8
1
10
28.013329
20
10.625698
0
VERTEX
8
1
10
28.024574
20
10.617474
42
-0.119481
0
VERTEX
8
1
10
29.594017
20
10.053707
0
VERTEX
8
1
10
29.626717
20
10.021236
42
-0.078392
0
VERTEX
8
1
10
28.866632
20
10.031179
42
-0.025318
0
VERTEX
8
1
10
28.160896
20
10.173992
42
0.010658
0
VERTEX
8
1
10
27.576496
20
10.298162
42
0.022940
0
SEQEND
0
POLYLINE
8
1
66
1
70
1
0
VERTEX
8
1
10
30.558014
20
9.400143
42
-0.828865
0
VERTEX
8
1
10
30.558380
20
9.338740
42
0.034338
0
VERTEX
8
1
10
28.868320
20
9.498118
42
-0.788993
0
VERTEX
8
1
10
28.873505
20
9.558650
42
-0.037058
0
SEQEND
0
POLYLINE
8
1
66
1
70
1
0
VERTEX
8
1
10
31.006058
20
10.267605
42
-0.964211
0
VERTEX
8
1
10
31.002716
20
10.204922
42
0.049353
0
VERTEX
8
1
10
29.241682
20
10.457134
42
-0.692743
0
VERTEX
8
1
10
29.242706
20
10.515590
42
-0.051967
0
SEQEND
0
POLYLINE
8
1
66
1
70
1
0
VERTEX
8
1
10
31.353958
20
11.180080
42
-0.913763
0
VERTEX
8
1
10
31.344978
20
11.118450
0
VERTEX
8
1
10
31.109657
20
11.178677
42
0.043282
0
VERTEX
8
1
10
29.199709
20
11.514533
42
0.047304
0
VERTEX
8
1
10
28.084156
20
11.500986
42
0.042836
0
VERTEX
8
1
10
27.637024
20
11.400875
0
VERTEX
8
1
10
27.626678
20
11.394543
42
-0.226333
0
VERTEX
8
1
10
27.597824
20
11.370373
42
-0.067337
0
VERTEX
8
1
10
27.418694
20
11.328060
42
-0.023428
0
VERTEX
8
1
10
26.352835
20
11.239614
42
-0.023645
0
VERTEX
8
1
10
25.576576
20
11.272312
42
-0.010879
0
VERTEX
8
1
10
24.118921
20
11.405872
42
-0.794353
0
VERTEX
8
1
10
24.129166
20
11.465877
0
VERTEX
8
1
10
24.719627
20
11.406338
42
0.012604
0
VERTEX
8
1
10
26.018728
20
11.307496
42
0.029560
0
VERTEX
8
1
10
26.686728
20
11.319725
42
0.019704
0
VERTEX
8
1
10
27.491861
20
11.403348
0
VERTEX
8
1
10
27.525141
20
11.410895
0
VERTEX
8
1
10
27.558098
20
11.419750
42
-0.083557
0
VERTEX
8
1
10
27.567909
20
11.437695
42
-0.070607
0
VERTEX
8
1
10
27.767189
20
11.504275
42
-0.054767
0
VERTEX
8
1
10
28.435350
20
11.592378
42
-0.043798
0
VERTEX
8
1
10
29.603861
20
11.534188
42
-0.036190
0
SEQEND
0
POLYLINE
8
1
66
1
70
1
0
VERTEX
8
1
10
32.327278
20
9.400982
0
VERTEX
8
1
10
32.305557
20
9.400949
42
-0.321859
0
VERTEX
8
1
10
31.378922
20
10.262157
0
VERTEX
8
1
10
31.377768
20
10.312937
0
VERTEX
8
1
10
31.378563
20
10.363724
42
-0.339244
0
VERTEX
8
1
10
32.164146
20
11.362123
42
-0.049604
0
VERTEX
8
1
10
32.391823
20
11.400860
0
VERTEX
8
1
10
32.391823
20
11.275723
42
0.142823
0
VERTEX
8
1
10
31.867464
20
11.083648
42
0.213629
0
VERTEX
8
1
10
31.507378
20
10.424526
0
VERTEX
8
1
10
31.502655
20
10.328335
0
VERTEX
8
1
10
31.508560
20
10.255688
42
0.282482
0
VERTEX
8
1
10
32.207703
20
9.547039
0
VERTEX
8
1
10
32.313148
20
9.525951
0
VERTEX
8
1
10
32.447372
20
9.528927
0
VERTEX
8
1
10
32.447380
20
9.404171
0
SEQEND
0
POLYLINE
8
1
66
1
70
1
0
VERTEX
8
1
10
32.840065
20
8.805386
42
-0.979557
0
VERTEX
8
1
10
32.829704
20
8.743708
0
VERTEX
8
1
10
32.797729
20
8.751872
42
0.006563
0
VERTEX
8
1
10
31.910511
20
9.032001
42
-0.765828
0
VERTEX
8
1
10
31.930786
20
9.088846
42
-0.014557
0
VERTEX
8
1
10
32.653358
20
8.861958
0
VERTEX
8
1
10
32.746471
20
8.832875
0
SEQEND
0
POLYLINE
8
1
66
1
70
1
0
VERTEX
8
1
10
33.403854
20
10.199123
42
-0.011558
0
VERTEX
8
1
10
33.158394
20
9.391354
0
VERTEX
8
1
10
33.069885
20
9.409069
42
0.119058
0
VERTEX
8
1
10
32.708496
20
9.420544
0
VERTEX
8
1
10
32.697891
20
9.419933
0
VERTEX
8
1
10
32.697380
20
9.545055
42
-0.100529
0
VERTEX
8
1
10
33.031273
20
9.545767
0
VERTEX
8
1
10
33.070686
20
9.536388
0
VERTEX
8
1
10
33.083992
20
9.564176
42
0.004660
0
VERTEX
8
1
10
33.228516
20
10.046413
0
VERTEX
8
1
10
33.103622
20
10.027203
42
-0.138080
0
VERTEX
8
1
10
32.810844
20
9.702113
42
-0.138011
0
VERTEX
8
1
10
32.594650
20
9.649792
42
-0.196322
0
VERTEX
8
1
10
32.470737
20
9.652525
42
-0.104300
0
VERTEX
8
1
10
32.098351
20
9.864159
42
-0.174976
0
VERTEX
8
1
10
31.899149
20
10.267823
42
-0.176666
0
VERTEX
8
1
10
32.017414
20
10.865668
42
-0.191426
0
VERTEX
8
1
10
32.367390
20
11.128791
42
-0.209217
0
VERTEX
8
1
10
32.791660
20
11.059359
42
-0.141292
0
VERTEX
8
1
10
33.034920
20
10.795071
0
VERTEX
8
1
10
33.073067
20
10.713879
0
VERTEX
8
1
10
33.161446
20
10.721508
0
VERTEX
8
1
10
33.141739
20
11.203243
0
VERTEX
8
1
10
33.094498
20
11.203243
0
VERTEX
8
1
10
33.097332
20
11.198614
42
-0.676299
0
VERTEX
8
1
10
33.081802
20
11.174412
42
-0.122629
0
VERTEX
8
1
10
33.034172
20
11.181957
42
0.050243
0
VERTEX
8
1
10
32.641823
20
11.272411
0
VERTEX
8
1
10
32.641823
20
11.397778
42
-0.047983
0
VERTEX
8
1
10
32.980484
20
11.328701
0
VERTEX
8
1
10
33.261284
20
11.328243
0
VERTEX
8
1
10
33.262383
20
11.325603
0
VERTEX
8
1
10
33.291145
20
10.606655
0
VERTEX
8
1
10
32.990196
20
10.581982
0
VERTEX
8
1
10
32.964333
20
10.647259
42
0.153205
0
VERTEX
8
1
10
32.738083
20
10.948091
0
VERTEX
8
1
10
32.712933
20
10.963209
42
0.338523
0
VERTEX
8
1
10
32.203701
20
10.894838
0
VERTEX
8
1
10
32.180313
20
10.871326
0
VERTEX
8
1
10
32.158489
20
10.846354
0
VERTEX
8
1
10
32.138325
20
10.820025
42
0.241293
0
VERTEX
8
1
10
32.065067
20
10.124042
42
0.151149
0
VERTEX
8
1
10
32.271782
20
9.887086
42
0.079662
0
VERTEX
8
1
10
32.531410
20
9.763668
0
VERTEX
8
1
10
32.586884
20
9.775494
42
0.211062
0
VERTEX
8
1
10
32.817673
20
9.859310
42
0.106029
0
VERTEX
8
1
10
33.019356
20
10.140026
0
VERTEX
8
1
10
33.402344
20
10.199627
0
SEQEND
0
POLYLINE
8
1
66
1
70
1
0
VERTEX
8
1
10
34.840431
20
11.267376
42
-0.948647
0
VERTEX
8
1
10
34.837013
20
11.205031
42
-0.017134
0
VERTEX
8
1
10
34.171108
20
11.348587
42
-0.016599
0
VERTEX
8
1
10
32.111732
20
11.918292
42
-0.810176
0
VERTEX
8
1
10
32.133102
20
11.975568
42
0.008153
0
VERTEX
8
1
10
33.677177
20
11.533693
42
0.015701
0
SEQEND
0
POLYLINE
8
1
66
1
70
1
0
VERTEX
8
1
10
27.753426
20
8.944027
42
0.905083
0
VERTEX
8
1
10
27.769791
20
9.004057
42
0.011765
0
VERTEX
8
1
10
22.061977
20
9.490871
42
0.809283
0
VERTEX
8
1
10
22.056141
20
9.429944
42
-0.011798
0
SEQEND
0
POLYLINE
8
1
66
1
70
1
0
VERTEX
8
1
10
8.789048
20
38.200851
0
VERTEX
8
1
10
8.817468
20
38.202282
0
VERTEX
8
1
10
8.990982
20
38.221493
0
VERTEX
8
1
10
9.023399
20
38.575207
0
VERTEX
8
1
10
8.740509
20
38.696743
0
VERTEX
8
1
10
9.136526
20
38.963497
0
VERTEX
8
1
10
9.219160
20
39.396099
0
VERTEX
8
1
10
9.424467
20
39.106579
0
VERTEX
8
1
10
9.833900
20
39.111019
0
VERTEX
8
1
10
9.545773
20
38.752224
0
VERTEX
8
1
10
9.545191
20
38.750393
0
VERTEX
8
1
10
9.707815
20
38.370785
0
VERTEX
8
1
10
9.310841
20
38.465206
0
VERTEX
8
1
10
9.096812
20
38.231289
42
-0.024522
0
VERTEX
8
1
10
10.593560
20
38.282787
0
VERTEX
8
1
10
10.631422
20
38.680904
0
VERTEX
8
1
10
10.352255
20
38.795467
0
VERTEX
8
1
10
10.743641
20
39.048458
0
VERTEX
8
1
10
10.827353
20
39.465527
0
VERTEX
8
1
10
11.033422
20
39.187099
0
VERTEX
8
1
10
11.438656
20
39.192074
0
VERTEX
8
1
10
11.152245
20
38.849728
0
VERTEX
8
1
10
11.313854
20
38.487835
0
VERTEX
8
1
10
11.313364
20
38.487103
0
VERTEX
8
1
10
10.919027
20
38.575863
0
VERTEX
8
1
10
10.639233
20
38.281460
42
-0.021483
0
VERTEX
8
1
10
12.646650
20
38.155647
42
-0.006589
0
VERTEX
8
1
10
14.335003
20
37.965294
0
VERTEX
8
1
10
14.356350
20
37.954357
42
-0.034503
0
VERTEX
8
1
10
13.605097
20
37.920147
0
VERTEX
8
1
10
13.771961
20
37.735256
0
VERTEX
8
1
10
14.174974
20
37.749813
0
VERTEX
8
1
10
13.918438
20
37.426525
0
VERTEX
8
1
10
14.106260
20
37.102795
0
VERTEX
8
1
10
14.105671
20
37.102230
0
VERTEX
8
1
10
13.712484
20
37.172161
0
VERTEX
8
1
10
13.405352
20
36.835659
0
VERTEX
8
1
10
13.411615
20
37.262600
0
VERTEX
8
1
10
13.130033
20
37.358898
0
VERTEX
8
1
10
13.493397
20
37.600903
0
VERTEX
8
1
10
13.532936
20
37.919247
0
VERTEX
8
1
10
13.532307
20
37.922314
0
VERTEX
8
1
10
13.438585
20
37.925488
42
-0.009395
0
VERTEX
8
1
10
12.124209
20
38.026531
0
VERTEX
8
1
10
11.936501
20
38.040646
0
VERTEX
8
1
10
11.915400
20
38.040936
0
VERTEX
8
1
10
12.088243
20
37.839596
0
VERTEX
8
1
10
12.496563
20
37.852718
0
VERTEX
8
1
10
12.237192
20
37.511517
0
VERTEX
8
1
10
12.426964
20
37.168621
0
VERTEX
8
1
10
12.030996
20
37.244503
0
VERTEX
8
1
10
12.029274
20
37.243694
0
VERTEX
8
1
10
11.723215
20
36.894634
0
VERTEX
8
1
10
11.729475
20
37.340801
0
VERTEX
8
1
10
11.442440
20
37.444500
0
VERTEX
8
1
10
11.811541
20
37.699352
0
VERTEX
8
1
10
11.818056
20
37.754261
42
0.002936
0
VERTEX
8
1
10
10.664257
20
37.637714
0
VERTEX
8
1
10
10.554399
20
37.486797
0
VERTEX
8
1
10
10.745268
20
37.125942
0
VERTEX
8
1
10
10.744474
20
37.125439
0
VERTEX
8
1
10
10.345476
20
37.205715
0
VERTEX
8
1
10
10.039406
20
36.841381
0
VERTEX
8
1
10
10.045650
20
37.306774
0
VERTEX
8
1
10
9.754667
20
37.417065
0
VERTEX
8
1
10
9.944807
20
37.554440
42
0.005302
0
VERTEX
8
1
10
9.337564
20
37.474651
0
VERTEX
8
1
10
9.302612
20
37.465740
0
VERTEX
8
1
10
9.280922
20
36.139095
0
VERTEX
8
1
10
9.281195
20
36.124615
0
VERTEX
8
1
10
9.356215
20
36.178570
0
VERTEX
8
1
10
9.422256
20
36.613400
0
VERTEX
8
1
10
9.639174
20
36.331066
0
VERTEX
8
1
10
10.049669
20
36.348217
0
VERTEX
8
1
10
9.774643
20
35.980648
0
VERTEX
8
1
10
9.774740
20
35.978771
0
VERTEX
8
1
10
9.952023
20
35.606960
0
VERTEX
8
1
10
9.551491
20
35.688335
0
VERTEX
8
1
10
9.271423
20
35.361111
42
0.003580
0
VERTEX
8
1
10
9.270679
20
35.062222
42
-0.276347
0
VERTEX
8
1
10
8.952102
20
34.599300
0
VERTEX
8
1
10
9.013237
20
33.395061
0
VERTEX
8
1
10
9.015152
20
33.385296
42
0.034960
0
VERTEX
8
1
10
9.199774
20
33.396175
0
VERTEX
8
1
10
10.194860
20
33.529034
0
VERTEX
8
1
10
10.182199
20
33.517818
0
VERTEX
8
1
10
9.258389
20
33.139492
0
VERTEX
8
1
10
9.240465
20
33.097271
0
VERTEX
8
1
10
9.300240
20
33.025082
0
VERTEX
8
1
10
9.365501
20
32.959301
42
0.132443
0
VERTEX
8
1
10
10.010174
20
32.643272
42
0.077242
0
VERTEX
8
1
10
10.803299
20
32.596981
42
0.014702
0
VERTEX
8
1
10
11.145236
20
32.631477
42
-0.022598
0
VERTEX
8
1
10
11.895487
20
32.687706
42
-0.042722
0
VERTEX
8
1
10
12.319172
20
32.650845
0
VERTEX
8
1
10
12.237261
20
32.623226
42
-0.030790
0
VERTEX
8
1
10
11.071727
20
32.372360
42
-0.063888
0
VERTEX
8
1
10
10.037268
20
32.369625
42
0.017773
0
VERTEX
8
1
10
9.652572
20
32.391182
42
0.084040
0
VERTEX
8
1
10
9.069611
20
32.284435
0
VERTEX
8
1
10
9.152231
20
30.656841
0
VERTEX
8
1
10
8.835863
20
30.510525
0
VERTEX
8
1
10
8.637548
20
34.404263
0
VERTEX
8
1
10
8.496164
20
34.482876
0
VERTEX
8
1
10
8.543362
20
34.734509
0
VERTEX
8
1
10
8.401058
20
34.840832
0
VERTEX
8
1
10
8.697777
20
34.877972
0
VERTEX
8
1
10
8.723429
20
34.880344
42
0.183495
0
VERTEX
8
1
10
8.900220
20
34.963150
42
0.203211
0
VERTEX
8
1
10
8.947630
20
35.114849
0
VERTEX
8
1
10
8.947136
20
35.185795
42
-0.002953
0
VERTEX
8
1
10
8.979357
20
37.500309
0
VERTEX
8
1
10
8.892481
20
37.608730
0
VERTEX
8
1
10
8.726410
20
37.603329
0
VERTEX
8
1
10
8.497225
20
37.790295
0
VERTEX
8
1
10
8.491680
20
37.956829
0
VERTEX
8
1
10
8.182976
20
38.057598
0
VERTEX
8
1
10
8.165064
20
38.227459
0
SEQEND
0
POLYLINE
8
1
66
1
70
1
0
VERTEX
8
1
10
11.252444
20
15.817336
0
VERTEX
8
1
10
10.628149
20
15.844524
0
VERTEX
8
1
10
10.645189
20
15.674694
0
VERTEX
8
1
10
10.954325
20
15.573254
0
VERTEX
8
1
10
10.959867
20
15.406765
0
VERTEX
8
1
10
11.189318
20
15.219845
0
VERTEX
8
1
10
11.355211
20
15.225124
0
VERTEX
8
1
10
11.441492
20
15.117718
0
VERTEX
8
1
10
11.441978
20
15.115873
42
0.003532
0
VERTEX
8
1
10
11.409492
20
12.685880
42
-0.308007
0
VERTEX
8
1
10
11.258814
20
12.514187
42
-0.070669
0
VERTEX
8
1
10
11.159273
20
12.494335
0
VERTEX
8
1
10
10.863848
20
12.457226
0
VERTEX
8
1
10
11.005980
20
12.350903
0
VERTEX
8
1
10
10.958803
20
12.099331
0
VERTEX
8
1
10
11.100279
20
12.020733
0
VERTEX
8
1
10
11.297533
20
8.136974
0
VERTEX
8
1
10
11.298788
20
8.127148
0
VERTEX
8
1
10
11.613100
20
8.272243
0
VERTEX
8
1
10
11.614843
20
8.273983
0
VERTEX
8
1
10
11.532240
20
9.901165
42
-0.109853
0
VERTEX
8
1
10
12.299234
20
10.000774
42
-0.014651
0
VERTEX
8
1
10
12.678462
20
9.967783
42
0.072079
0
VERTEX
8
1
10
13.861055
20
10.043344
42
0.020817
0
VERTEX
8
1
10
14.712202
20
10.242947
0
VERTEX
8
1
10
14.771502
20
10.269222
42
0.067966
0
VERTEX
8
1
10
14.053431
20
10.289512
42
0.012474
0
VERTEX
8
1
10
13.445700
20
10.228832
0
VERTEX
8
1
10
13.350584
20
10.220135
0
VERTEX
8
1
10
13.255358
20
10.212719
42
-0.097070
0
VERTEX
8
1
10
12.295364
20
10.307130
42
-0.102294
0
VERTEX
8
1
10
11.820551
20
10.582897
0
VERTEX
8
1
10
11.755880
20
10.649395
0
VERTEX
8
1
10
11.696745
20
10.722332
0
VERTEX
8
1
10
11.727533
20
10.758678
0
VERTEX
8
1
10
12.651400
20
11.137020
0
VERTEX
8
1
10
12.651320
20
11.144726
0
VERTEX
8
1
10
11.660650
20
11.012478
42
-0.035109
0
VERTEX
8
1
10
11.476374
20
11.001827
0
VERTEX
8
1
10
11.414709
20
12.216610
42
0.296445
0
VERTEX
8
1
10
11.734438
20
12.716578
42
-0.008514
0
VERTEX
8
1
10
11.734213
20
12.977780
0
VERTEX
8
1
10
12.014162
20
13.304836
0
VERTEX
8
1
10
12.414930
20
13.223415
0
VERTEX
8
1
10
12.237158
20
13.595745
0
VERTEX
8
1
10
12.237604
20
13.597591
0
VERTEX
8
1
10
12.512072
20
13.964703
0
VERTEX
8
1
10
12.101786
20
13.947598
0
VERTEX
8
1
10
11.884764
20
14.230099
0
VERTEX
8
1
10
11.818766
20
13.795010
0
VERTEX
8
1
10
11.743699
20
13.741010
42
-0.001010
0
VERTEX
8
1
10
11.764253
20
15.025702
0
VERTEX
8
1
10
11.767827
20
15.086559
42
-0.005848
0
VERTEX
8
1
10
12.407086
20
15.170681
0
VERTEX
8
1
10
12.217085
20
15.034023
0
VERTEX
8
1
10
12.508287
20
14.922955
0
VERTEX
8
1
10
12.502069
20
14.457882
0
VERTEX
8
1
10
12.808306
20
14.822445
0
VERTEX
8
1
10
13.207628
20
14.741848
0
VERTEX
8
1
10
13.017122
20
15.103405
0
VERTEX
8
1
10
13.126024
20
15.253033
0
VERTEX
8
1
10
13.133146
20
15.254904
42
-0.002979
0
VERTEX
8
1
10
14.280683
20
15.370656
0
VERTEX
8
1
10
14.274176
20
15.315807
0
VERTEX
8
1
10
13.905298
20
15.060925
0
VERTEX
8
1
10
14.192118
20
14.957256
0
VERTEX
8
1
10
14.185850
20
14.510906
0
VERTEX
8
1
10
14.492292
20
14.860638
0
VERTEX
8
1
10
14.889456
20
14.785412
0
VERTEX
8
1
10
14.699869
20
15.128063
0
VERTEX
8
1
10
14.959341
20
15.469418
0
VERTEX
8
1
10
14.551878
20
15.455669
0
VERTEX
8
1
10
14.377726
20
15.657818
0
VERTEX
8
1
10
14.411745
20
15.656307
42
0.002853
0
VERTEX
8
1
10
15.725706
20
15.550961
0
VERTEX
8
1
10
15.913858
20
15.541531
0
VERTEX
8
1
10
15.995951
20
15.538754
0
VERTEX
8
1
10
15.956022
20
15.217236
0
VERTEX
8
1
10
15.592489
20
14.975964
0
VERTEX
8
1
10
15.874254
20
14.878735
0
VERTEX
8
1
10
15.868052
20
14.452221
0
VERTEX
8
1
10
16.175310
20
14.788860
0
VERTEX
8
1
10
16.568827
20
14.718639
0
VERTEX
8
1
10
16.381327
20
15.043331
0
VERTEX
8
1
10
16.637529
20
15.366329
0
VERTEX
8
1
10
16.234396
20
15.351757
0
VERTEX
8
1
10
16.067530
20
15.536861
42
0.034865
0
VERTEX
8
1
10
16.825655
20
15.571667
0
VERTEX
8
1
10
16.765797
20
15.585675
42
0.011188
0
VERTEX
8
1
10
14.330483
20
15.841287
42
0.013456
0
VERTEX
8
1
10
13.101942
20
15.898036
0
VERTEX
8
1
10
13.381807
20
16.192501
0
VERTEX
8
1
10
13.776472
20
16.103481
0
VERTEX
8
1
10
13.615232
20
16.464748
0
VERTEX
8
1
10
13.615164
20
16.466579
0
VERTEX
8
1
10
13.901190
20
16.808575
0
VERTEX
8
1
10
13.495890
20
16.803631
0
VERTEX
8
1
10
13.289770
20
17.082333
0
VERTEX
8
1
10
13.205904
20
16.664715
0
VERTEX
8
1
10
12.814978
20
16.411938
0
VERTEX
8
1
10
13.094168
20
16.297375
0
VERTEX
8
1
10
13.056165
20
15.898890
42
0.024654
0
VERTEX
8
1
10
11.559664
20
15.848018
0
VERTEX
8
1
10
11.773611
20
16.081692
0
VERTEX
8
1
10
12.170591
20
15.987270
0
VERTEX
8
1
10
12.007677
20
16.367275
0
VERTEX
8
1
10
12.296144
20
16.727505
0
VERTEX
8
1
10
11.887041
20
16.723186
0
VERTEX
8
1
10
11.681742
20
17.012691
0
VERTEX
8
1
10
11.599092
20
16.579601
0
VERTEX
8
1
10
11.203424
20
16.313137
0
VERTEX
8
1
10
11.486029
20
16.191586
0
VERTEX
8
1
10
11.453615
20
15.837917
0
VERTEX
8
1
10
11.271946
20
15.819744
0
SEQEND
0
ENDSEC
0
EOF
