0
SECTION
2
HEADER
9
$EXTMIN
10
0.427089
20
0.205540
9
$EXTMAX
10
24.427340
20
14.244969
0
ENDSEC
0
SECTION
2
TABLES
0
TABLE
2
LTYPE
70
1
0
LTYPE
2
0
70
0
3
Solid Line
72
65
73
0
40
0.0
0
ENDTAB
0
TABLE
2
LAYER
70
1
0
LAYER
2
1
70
0
62
7
6
0
0
ENDTAB
0
ENDSEC
0
SECTION
2
BLOCKS
0
ENDSEC
0
SECTION
2
ENTITIES
0
POLYLINE
8
1
66
1
70
1
0
VERTEX
8
1
10
14.677956
20
5.229149
0
VERTEX
8
1
10
14.664673
20
5.215870
42
0.165200
0
VERTEX
8
1
10
14.688774
20
5.230125
0
SEQEND
0
POLYLINE
8
1
66
1
70
1
0
VERTEX
8
1
10
15.626884
20
6.955658
42
0.950971
0
VERTEX
8
1
10
15.620544
20
6.940563
42
0.307426
0
SEQEND
0
POLYLINE
8
1
66
1
70
1
0
VERTEX
8
1
10
23.341568
20
12.396706
42
0.026144
0
VERTEX
8
1
10
23.697517
20
12.920826
0
VERTEX
8
1
10
23.726265
20
12.975662
0
VERTEX
8
1
10
23.744415
20
13.019695
0
VERTEX
8
1
10
23.749641
20
13.050114
0
VERTEX
8
1
10
23.739609
20
13.064102
0
VERTEX
8
1
10
23.711983
20
13.058857
0
VERTEX
8
1
10
23.672653
20
13.039066
42
0.087484
0
VERTEX
8
1
10
23.347099
20
12.747215
42
0.226522
0
VERTEX
8
1
10
23.373795
20
12.932770
42
0.186854
0
VERTEX
8
1
10
23.292297
20
13.011459
0
VERTEX
8
1
10
23.248840
20
13.028915
0
VERTEX
8
1
10
23.220734
20
13.031971
0
VERTEX
8
1
10
23.192574
20
13.017559
42
0.052677
0
VERTEX
8
1
10
22.955772
20
12.788651
42
-0.011498
0
VERTEX
8
1
10
22.759109
20
12.587864
0
VERTEX
8
1
10
22.736954
20
12.571815
0
VERTEX
8
1
10
22.725281
20
12.570751
0
VERTEX
8
1
10
22.725716
20
12.587189
42
0.054698
0
VERTEX
8
1
10
22.911951
20
13.537382
42
0.058421
0
VERTEX
8
1
10
22.896080
20
13.751686
0
VERTEX
8
1
10
22.873543
20
13.806019
0
VERTEX
8
1
10
22.839920
20
13.839298
42
0.213117
0
VERTEX
8
1
10
22.704420
20
13.840712
42
0.228944
0
VERTEX
8
1
10
22.654808
20
13.760288
42
0.042921
0
VERTEX
8
1
10
22.647263
20
13.572403
0
VERTEX
8
1
10
22.643730
20
13.556358
0
VERTEX
8
1
10
22.631851
20
13.559204
0
VERTEX
8
1
10
22.612076
20
13.579778
42
-0.009735
0
VERTEX
8
1
10
22.379002
20
13.926934
42
0.030776
0
VERTEX
8
1
10
22.299995
20
14.023762
0
VERTEX
8
1
10
22.275063
20
14.041973
0
VERTEX
8
1
10
22.256996
20
14.041988
0
VERTEX
8
1
10
22.247154
20
14.020538
0
VERTEX
8
1
10
22.246155
20
13.975893
42
0.000861
0
VERTEX
8
1
10
22.303349
20
13.353689
42
-0.052070
0
VERTEX
8
1
10
22.280119
20
12.839468
42
-0.092770
0
VERTEX
8
1
10
22.165344
20
12.547829
42
-0.069731
0
VERTEX
8
1
10
21.700792
20
11.963563
42
-0.050828
0
VERTEX
8
1
10
21.638489
20
11.923687
0
VERTEX
8
1
10
21.625603
20
11.927742
0
VERTEX
8
1
10
21.625359
20
11.948559
0
VERTEX
8
1
10
21.638893
20
11.987396
42
0.021051
0
VERTEX
8
1
10
21.937471
20
12.734290
42
0.040604
0
VERTEX
8
1
10
21.981766
20
12.945248
0
VERTEX
8
1
10
21.980591
20
12.998802
0
VERTEX
8
1
10
21.968193
20
13.038086
42
0.188931
0
VERTEX
8
1
10
21.786079
20
13.116943
42
0.223976
0
VERTEX
8
1
10
21.668533
20
13.045872
42
0.076015
0
VERTEX
8
1
10
21.581553
20
12.880432
42
-0.015665
0
VERTEX
8
1
10
21.341219
20
12.240515
42
-0.036341
0
VERTEX
8
1
10
21.218338
20
12.018322
0
VERTEX
8
1
10
21.172844
20
11.963223
0
VERTEX
8
1
10
21.127007
20
11.926270
0
VERTEX
8
1
10
21.081154
20
11.910580
0
VERTEX
8
1
10
21.035622
20
11.919273
0
VERTEX
8
1
10
20.990814
20
11.955235
42
-0.197983
0
VERTEX
8
1
10
20.877357
20
12.278938
42
-0.073482
0
VERTEX
8
1
10
20.951519
20
12.667117
42
0.108364
0
VERTEX
8
1
10
20.961060
20
12.781785
42
0.477239
0
VERTEX
8
1
10
20.872520
20
12.811992
42
0.210198
0
VERTEX
8
1
10
20.741371
20
12.681805
0
VERTEX
8
1
10
20.725677
20
12.644108
42
0.033918
0
VERTEX
8
1
10
20.598013
20
12.053566
0
VERTEX
8
1
10
20.591675
20
12.025198
0
VERTEX
8
1
10
20.584625
20
11.996998
0
VERTEX
8
1
10
20.577705
20
11.992607
0
VERTEX
8
1
10
20.566154
20
12.008198
42
-0.007816
0
VERTEX
8
1
10
20.421730
20
12.357515
42
0.036885
0
VERTEX
8
1
10
20.365112
20
12.459293
0
VERTEX
8
1
10
20.344505
20
12.478382
0
VERTEX
8
1
10
20.326736
20
12.478153
0
VERTEX
8
1
10
20.312500
20
12.455029
0
VERTEX
8
1
10
20.302475
20
12.405434
42
0.068731
0
VERTEX
8
1
10
20.333040
20
11.951847
42
0.003426
0
VERTEX
8
1
10
20.425476
20
11.501434
0
VERTEX
8
1
10
20.430557
20
11.463329
42
-0.262827
0
VERTEX
8
1
10
20.393677
20
11.364357
42
-0.152791
0
VERTEX
8
1
10
20.128914
20
11.216150
42
-0.237988
0
VERTEX
8
1
10
20.081978
20
11.236843
0
VERTEX
8
1
10
20.077345
20
11.258357
42
-0.004624
0
VERTEX
8
1
10
20.152946
20
12.652930
0
VERTEX
8
1
10
20.157824
20
12.713607
0
VERTEX
8
1
10
20.162893
20
12.774268
0
VERTEX
8
1
10
20.160233
20
12.858398
42
0.086990
0
VERTEX
8
1
10
19.920242
20
13.715019
0
VERTEX
8
1
10
19.872841
20
13.797600
0
VERTEX
8
1
10
19.823761
20
13.864197
0
VERTEX
8
1
10
19.773689
20
13.911648
0
VERTEX
8
1
10
19.723274
20
13.936783
0
VERTEX
8
1
10
19.673180
20
13.936447
42
0.130672
0
VERTEX
8
1
10
19.504538
20
13.813368
42
0.248950
0
VERTEX
8
1
10
19.502747
20
13.714432
42
-0.045989
0
VERTEX
8
1
10
19.543516
20
13.588979
42
-0.005542
0
VERTEX
8
1
10
19.720503
20
12.929817
42
-0.060856
0
VERTEX
8
1
10
19.769951
20
12.455677
0
VERTEX
8
1
10
19.762962
20
12.389072
42
-0.026300
0
VERTEX
8
1
10
19.497704
20
11.094975
0
VERTEX
8
1
10
19.483192
20
11.053711
0
VERTEX
8
1
10
19.472435
20
11.036961
0
VERTEX
8
1
10
19.457817
20
11.025906
42
-0.217716
0
VERTEX
8
1
10
19.166245
20
11.016156
42
-0.236213
0
VERTEX
8
1
10
19.121004
20
11.087556
42
-0.003486
0
VERTEX
8
1
10
18.698509
20
12.661342
42
-0.031668
0
VERTEX
8
1
10
18.670921
20
12.827099
42
0.461411
0
VERTEX
8
1
10
18.611954
20
12.849461
42
0.199747
0
VERTEX
8
1
10
18.470793
20
12.688929
42
0.132230
0
VERTEX
8
1
10
18.442680
20
12.473296
42
0.027201
0
VERTEX
8
1
10
18.615381
20
11.569574
42
-0.007973
0
VERTEX
8
1
10
18.731392
20
11.001671
0
VERTEX
8
1
10
18.734215
20
10.967979
0
VERTEX
8
1
10
18.728569
20
10.959850
0
VERTEX
8
1
10
18.714928
20
10.973152
42
-0.008587
0
VERTEX
8
1
10
18.492907
20
11.367861
42
0.051324
0
VERTEX
8
1
10
18.397316
20
11.489193
0
VERTEX
8
1
10
18.373352
20
11.499516
0
VERTEX
8
1
10
18.355530
20
11.487858
0
VERTEX
8
1
10
18.345016
20
11.450653
0
VERTEX
8
1
10
18.344032
20
11.394524
42
0.057616
0
VERTEX
8
1
10
18.419266
20
11.082943
42
-0.011447
0
VERTEX
8
1
10
18.603632
20
10.538772
42
-0.069016
0
VERTEX
8
1
10
18.617363
20
10.408577
0
VERTEX
8
1
10
18.604683
20
10.381752
42
-0.266029
0
VERTEX
8
1
10
18.466452
20
10.359557
42
-0.259570
0
VERTEX
8
1
10
18.189621
20
10.616028
0
VERTEX
8
1
10
18.180878
20
10.661495
0
VERTEX
8
1
10
18.177830
20
10.727157
42
-0.002482
0
VERTEX
8
1
10
18.202181
20
11.876816
42
0.014275
0
VERTEX
8
1
10
18.191109
20
12.498535
0
VERTEX
8
1
10
18.178619
20
12.649899
0
VERTEX
8
1
10
18.160309
20
12.771603
0
VERTEX
8
1
10
18.135361
20
12.857407
0
VERTEX
8
1
10
18.102928
20
12.901070
42
0.417207
0
VERTEX
8
1
10
17.928545
20
12.846801
42
0.108900
0
VERTEX
8
1
10
17.876114
20
12.710098
42
0.036088
0
VERTEX
8
1
10
17.829651
20
12.354006
42
0.022357
0
VERTEX
8
1
10
17.767717
20
10.918023
42
0.035959
0
VERTEX
8
1
10
17.809210
20
10.455759
42
0.070085
0
VERTEX
8
1
10
17.968266
20
9.999756
42
-0.563481
0
VERTEX
8
1
10
17.952095
20
9.986938
0
VERTEX
8
1
10
17.934013
20
9.988071
42
0.149121
0
VERTEX
8
1
10
17.761002
20
9.972889
0
VERTEX
8
1
10
17.735931
20
9.965881
42
-0.354461
0
VERTEX
8
1
10
17.631729
20
9.998066
0
VERTEX
8
1
10
17.614983
20
10.028652
42
-0.068122
0
VERTEX
8
1
10
17.560570
20
10.282097
42
0.014552
0
VERTEX
8
1
10
17.436609
20
11.134024
42
0.030036
0
VERTEX
8
1
10
17.378616
20
11.346436
0
VERTEX
8
1
10
17.352692
20
11.401100
0
VERTEX
8
1
10
17.325111
20
11.433205
0
VERTEX
8
1
10
17.295822
20
11.439465
0
VERTEX
8
1
10
17.264748
20
11.416588
0
VERTEX
8
1
10
17.243195
20
11.383224
42
0.090652
0
VERTEX
8
1
10
17.202347
20
11.156445
42
0.023042
0
VERTEX
8
1
10
17.210747
20
10.635738
42
0.119522
0
VERTEX
8
1
10
17.142307
20
10.748599
42
-0.090415
0
VERTEX
8
1
10
17.011621
20
10.950180
42
0.090757
0
VERTEX
8
1
10
16.951506
20
11.042049
42
0.360748
0
VERTEX
8
1
10
16.843910
20
11.034718
0
VERTEX
8
1
10
16.822342
20
11.012558
42
0.103546
0
VERTEX
8
1
10
16.722187
20
10.755887
42
-0.004346
0
VERTEX
8
1
10
16.686081
20
10.616661
0
VERTEX
8
1
10
16.684166
20
10.625663
42
-0.066786
0
VERTEX
8
1
10
16.696468
20
11.705843
42
-0.016969
0
VERTEX
8
1
10
16.730545
20
11.868668
0
VERTEX
8
1
10
16.716110
20
11.893272
0
VERTEX
8
1
10
16.693695
20
11.904297
0
VERTEX
8
1
10
16.664581
20
11.903023
42
0.120436
0
VERTEX
8
1
10
16.506882
20
11.800583
42
0.107763
0
VERTEX
8
1
10
16.277716
20
11.471030
42
0.089052
0
VERTEX
8
1
10
16.256538
20
11.340076
0
VERTEX
8
1
10
16.255638
20
11.270939
0
VERTEX
8
1
10
16.256844
20
11.190190
42
0.002011
0
VERTEX
8
1
10
16.307152
20
10.264271
0
VERTEX
8
1
10
16.301552
20
10.271178
42
-0.024921
0
VERTEX
8
1
10
16.020201
20
11.233735
0
VERTEX
8
1
10
16.015242
20
11.266623
0
VERTEX
8
1
10
16.011887
20
11.299713
42
0.207976
0
VERTEX
8
1
10
15.896266
20
11.102200
42
0.111481
0
VERTEX
8
1
10
15.906954
20
10.780064
42
0.053005
0
VERTEX
8
1
10
16.002174
20
10.484489
0
VERTEX
8
1
10
16.058617
20
10.360397
0
VERTEX
8
1
10
16.050850
20
10.334515
0
VERTEX
8
1
10
16.011345
20
10.372467
0
VERTEX
8
1
10
15.958382
20
10.446259
0
VERTEX
8
1
10
15.894164
20
10.548973
42
0.006668
0
VERTEX
8
1
10
15.481878
20
11.254781
0
VERTEX
8
1
10
15.396660
20
11.386063
0
VERTEX
8
1
10
15.315674
20
11.497944
0
VERTEX
8
1
10
15.241142
20
11.583515
0
VERTEX
8
1
10
15.175278
20
11.635876
0
VERTEX
8
1
10
15.120285
20
11.648121
0
VERTEX
8
1
10
15.078377
20
11.613342
0
VERTEX
8
1
10
15.058388
20
11.541729
0
VERTEX
8
1
10
15.055634
20
11.446922
0
VERTEX
8
1
10
15.066895
20
11.329643
42
0.053409
0
VERTEX
8
1
10
15.273743
20
10.595604
42
0.050686
0
VERTEX
8
1
10
15.789345
20
9.563377
0
VERTEX
8
1
10
15.906502
20
9.391666
0
VERTEX
8
1
10
16.028908
20
9.232529
0
VERTEX
8
1
10
16.043755
20
9.179535
42
0.051098
0
VERTEX
8
1
10
15.635170
20
9.085186
42
-0.012995
0
VERTEX
8
1
10
15.409852
20
9.198536
42
0.001475
0
VERTEX
8
1
10
14.888856
20
9.565986
42
0.012030
0
VERTEX
8
1
10
14.691530
20
9.702703
0
VERTEX
8
1
10
14.652855
20
9.730160
0
VERTEX
8
1
10
14.651924
20
9.743614
42
0.087587
0
VERTEX
8
1
10
14.893409
20
10.785635
42
-0.023400
0
VERTEX
8
1
10
15.000731
20
11.560473
0
VERTEX
8
1
10
15.032539
20
11.701111
42
-0.084506
0
VERTEX
8
1
10
15.303189
20
12.347139
42
0.042341
0
VERTEX
8
1
10
15.455902
20
12.682458
42
-0.021916
0
VERTEX
8
1
10
15.735205
20
13.380762
42
-0.075391
0
VERTEX
8
1
10
15.878645
20
13.566218
42
0.079519
0
VERTEX
8
1
10
16.005354
20
13.762392
42
0.173312
0
VERTEX
8
1
10
16.000175
20
13.837414
0
VERTEX
8
1
10
15.983902
20
13.853981
0
VERTEX
8
1
10
15.958878
20
13.865654
0
VERTEX
8
1
10
15.924332
20
13.871819
42
0.186576
0
VERTEX
8
1
10
15.453290
20
13.692548
42
0.057344
0
VERTEX
8
1
10
15.117831
20
13.343966
42
-0.066055
0
VERTEX
8
1
10
14.848180
20
13.094280
42
-0.154940
0
VERTEX
8
1
10
14.764573
20
13.076831
42
-0.297243
0
VERTEX
8
1
10
14.739777
20
13.112522
0
VERTEX
8
1
10
14.738274
20
13.138157
42
0.086685
0
VERTEX
8
1
10
14.732690
20
13.488373
42
0.047519
0
VERTEX
8
1
10
14.674194
20
13.725445
0
VERTEX
8
1
10
14.656982
20
13.760494
0
VERTEX
8
1
10
14.639023
20
13.783100
0
VERTEX
8
1
10
14.620605
20
13.791084
0
VERTEX
8
1
10
14.602013
20
13.782269
0
VERTEX
8
1
10
14.583549
20
13.754467
42
-0.012914
0
VERTEX
8
1
10
14.438096
20
13.399014
42
-0.132413
0
VERTEX
8
1
10
14.372686
20
13.325973
42
-0.291338
0
VERTEX
8
1
10
14.328888
20
13.336166
0
VERTEX
8
1
10
14.309569
20
13.356327
42
-0.002800
0
VERTEX
8
1
10
14.060007
20
13.704131
42
0.075045
0
VERTEX
8
1
10
13.978081
20
13.774410
0
VERTEX
8
1
10
13.959351
20
13.774551
0
VERTEX
8
1
10
13.946281
20
13.759075
0
VERTEX
8
1
10
13.939720
20
13.725838
42
0.032067
0
VERTEX
8
1
10
13.967049
20
13.345242
42
-0.105758
0
VERTEX
8
1
10
13.957682
20
13.268084
42
-0.422027
0
VERTEX
8
1
10
13.928841
20
13.264313
0
VERTEX
8
1
10
13.910706
20
13.276871
0
VERTEX
8
1
10
13.889755
20
13.304512
42
-0.017419
0
VERTEX
8
1
10
13.713491
20
13.677662
42
0.037822
0
VERTEX
8
1
10
13.649582
20
13.781803
0
VERTEX
8
1
10
13.624802
20
13.804398
0
VERTEX
8
1
10
13.601929
20
13.809738
0
VERTEX
8
1
10
13.581375
20
13.794781
0
VERTEX
8
1
10
13.563575
20
13.756481
42
-0.008943
0
VERTEX
8
1
10
13.480697
20
13.387196
42
-0.109305
0
VERTEX
8
1
10
13.453682
20
13.349312
0
VERTEX
8
1
10
13.442955
20
13.347870
42
-0.169552
0
VERTEX
8
1
10
13.383537
20
13.406807
42
0.052105
0
VERTEX
8
1
10
13.242672
20
13.585343
42
0.147676
0
VERTEX
8
1
10
13.209518
20
13.597610
0
VERTEX
8
1
10
13.199837
20
13.590790
0
VERTEX
8
1
10
13.192856
20
13.575672
0
VERTEX
8
1
10
13.188881
20
13.551357
0
VERTEX
8
1
10
13.188240
20
13.516949
42
-0.042431
0
VERTEX
8
1
10
13.192213
20
13.043171
42
-0.059688
0
VERTEX
8
1
10
13.168495
20
12.956436
0
VERTEX
8
1
10
13.153320
20
12.937508
0
VERTEX
8
1
10
13.134506
20
12.931431
0
VERTEX
8
1
10
13.111740
20
12.939938
0
VERTEX
8
1
10
13.084702
20
12.964760
0
VERTEX
8
1
10
13.052994
20
13.007374
42
0.017209
0
VERTEX
8
1
10
12.649704
20
13.587477
42
0.049734
0
VERTEX
8
1
10
12.554092
20
13.682545
0
VERTEX
8
1
10
12.529335
20
13.691147
0
VERTEX
8
1
10
12.513847
20
13.679279
0
VERTEX
8
1
10
12.508965
20
13.644260
0
VERTEX
8
1
10
12.515762
20
13.584057
42
-0.059599
0
VERTEX
8
1
10
12.550079
20
13.140697
42
0.035275
0
VERTEX
8
1
10
12.184013
20
13.324635
0
VERTEX
8
1
10
12.165543
20
13.327747
0
VERTEX
8
1
10
12.158440
20
13.323036
0
VERTEX
8
1
10
12.164749
20
13.309216
42
-0.075948
0
VERTEX
8
1
10
12.518392
20
12.815919
42
-0.118565
0
VERTEX
8
1
10
12.541087
20
12.682979
42
-0.338882
0
VERTEX
8
1
10
12.486526
20
12.640926
0
VERTEX
8
1
10
12.456062
20
12.649498
42
-0.096770
0
VERTEX
8
1
10
12.315712
20
12.783749
42
0.014258
0
VERTEX
8
1
10
12.149178
20
12.991371
0
VERTEX
8
1
10
12.123787
20
13.013519
0
VERTEX
8
1
10
12.102608
20
13.023457
0
VERTEX
8
1
10
12.086311
20
13.018703
0
VERTEX
8
1
10
12.075569
20
12.996796
0
VERTEX
8
1
10
12.070038
20
12.958817
42
0.023585
0
VERTEX
8
1
10
12.085460
20
12.543624
42
-0.052942
0
VERTEX
8
1
10
12.073807
20
12.373882
0
VERTEX
8
1
10
12.061752
20
12.347084
0
VERTEX
8
1
10
12.044106
20
12.335533
0
VERTEX
8
1
10
12.020035
20
12.341606
0
VERTEX
8
1
10
11.988701
20
12.367676
0
VERTEX
8
1
10
11.952782
20
12.417782
0
VERTEX
8
1
10
11.918060
20
12.493542
0
VERTEX
8
1
10
11.884941
20
12.591251
0
VERTEX
8
1
10
11.853813
20
12.707126
42
-0.056793
0
VERTEX
8
1
10
11.719320
20
13.922890
42
-0.038918
0
VERTEX
8
1
10
11.742424
20
14.098782
0
VERTEX
8
1
10
11.742714
20
14.134743
0
VERTEX
8
1
10
11.729599
20
14.157711
0
VERTEX
8
1
10
11.707901
20
14.170685
0
VERTEX
8
1
10
11.679039
20
14.174019
42
0.168743
0
VERTEX
8
1
10
11.493016
20
14.073822
42
0.208496
0
VERTEX
8
1
10
11.285652
20
13.587219
0
VERTEX
8
1
10
11.286232
20
13.483860
42
0.063534
0
VERTEX
8
1
10
11.535474
20
12.152762
42
0.051613
0
VERTEX
8
1
10
11.625114
20
11.966637
42
-0.158720
0
VERTEX
8
1
10
11.772789
20
11.658086
42
-0.159421
0
VERTEX
8
1
10
11.748184
20
11.581463
0
VERTEX
8
1
10
11.729225
20
11.568642
0
VERTEX
8
1
10
11.704285
20
11.563381
0
VERTEX
8
1
10
11.673119
20
11.566586
0
VERTEX
8
1
10
11.635513
20
11.579147
0
VERTEX
8
1
10
11.591118
20
11.603409
0
VERTEX
8
1
10
11.539841
20
11.645134
0
VERTEX
8
1
10
11.482933
20
11.703056
0
VERTEX
8
1
10
11.421768
20
11.775143
42
-0.083224
0
VERTEX
8
1
10
10.888559
20
12.768950
42
-0.055337
0
VERTEX
8
1
10
10.846848
20
13.004606
42
-0.023793
0
VERTEX
8
1
10
10.816409
20
14.109233
42
-0.031099
0
VERTEX
8
1
10
10.828568
20
14.210171
42
0.670433
0
VERTEX
8
1
10
10.818512
20
14.240124
0
VERTEX
8
1
10
10.797325
20
14.244633
42
0.365589
0
VERTEX
8
1
10
10.369179
20
13.917534
0
VERTEX
8
1
10
10.360008
20
13.830837
42
0.047984
0
VERTEX
8
1
10
10.407372
20
13.310711
42
0.045532
0
VERTEX
8
1
10
10.706264
20
12.169920
42
0.049808
0
VERTEX
8
1
10
10.827362
20
11.944088
42
-0.013984
0
VERTEX
8
1
10
11.234207
20
11.203152
42
-0.091125
0
VERTEX
8
1
10
11.090755
20
10.987659
42
-0.149351
0
VERTEX
8
1
10
11.006371
20
10.953133
0
VERTEX
8
1
10
10.977013
20
10.959389
0
VERTEX
8
1
10
10.947563
20
10.977592
42
0.010244
0
VERTEX
8
1
10
10.560234
20
11.394379
42
-0.086523
0
VERTEX
8
1
10
10.046650
20
12.181223
42
-0.051379
0
VERTEX
8
1
10
9.900276
20
12.610641
42
0.166790
0
VERTEX
8
1
10
9.664532
20
12.294044
42
0.162584
0
VERTEX
8
1
10
9.682785
20
12.033382
42
0.050047
0
VERTEX
8
1
10
9.865248
20
11.683756
42
0.024444
0
VERTEX
8
1
10
10.283989
20
11.075611
42
0.046233
0
VERTEX
8
1
10
9.791166
20
11.180427
42
0.075626
0
VERTEX
8
1
10
9.666512
20
11.168800
0
VERTEX
8
1
10
9.639595
20
11.150356
0
VERTEX
8
1
10
9.630051
20
11.122051
0
VERTEX
8
1
10
9.640823
20
11.082630
0
VERTEX
8
1
10
9.670708
20
11.035503
42
0.102727
0
VERTEX
8
1
10
9.969485
20
10.811055
42
0.051894
0
VERTEX
8
1
10
10.645469
20
10.530059
42
-0.123147
0
VERTEX
8
1
10
10.871994
20
10.372503
42
-0.077006
0
VERTEX
8
1
10
11.115936
20
10.042263
0
VERTEX
8
1
10
11.117439
20
10.030819
0
VERTEX
8
1
10
11.110237
20
10.031277
0
VERTEX
8
1
10
11.097496
20
10.034153
0
VERTEX
8
1
10
11.089241
20
10.011364
0
VERTEX
8
1
10
11.085196
20
9.965184
42
0.003135
0
VERTEX
8
1
10
11.097257
20
9.363009
42
-0.025719
0
VERTEX
8
1
10
11.084572
20
9.173386
0
VERTEX
8
1
10
11.071442
20
9.118839
0
VERTEX
8
1
10
11.052277
20
9.086018
0
VERTEX
8
1
10
11.026169
20
9.079033
0
VERTEX
8
1
10
10.993652
20
9.096363
42
-0.120084
0
VERTEX
8
1
10
10.690915
20
9.455753
42
-0.065188
0
VERTEX
8
1
10
10.564697
20
9.785458
0
VERTEX
8
1
10
10.564972
20
9.853886
42
-0.022372
0
VERTEX
8
1
10
10.668679
20
10.243199
42
0.074012
0
VERTEX
8
1
10
10.671387
20
10.306103
0
VERTEX
8
1
10
10.663239
20
10.322044
0
VERTEX
8
1
10
10.648338
20
10.331635
0
VERTEX
8
1
10
10.625854
20
10.334618
42
0.200474
0
VERTEX
8
1
10
10.449036
20
10.245197
0
VERTEX
8
1
10
10.418053
20
10.208736
42
0.208672
0
VERTEX
8
1
10
10.296852
20
9.593231
42
0.037040
0
VERTEX
8
1
10
10.448097
20
9.083286
42
-0.496947
0
VERTEX
8
1
10
9.938012
20
9.294650
42
-0.089018
0
VERTEX
8
1
10
9.899509
20
9.596690
42
-0.048555
0
VERTEX
8
1
10
9.951569
20
10.143467
0
VERTEX
8
1
10
9.950653
20
10.165905
42
0.280088
0
VERTEX
8
1
10
9.850571
20
10.174747
0
VERTEX
8
1
10
9.820572
20
10.161015
42
0.202439
0
VERTEX
8
1
10
9.569138
20
9.792469
0
VERTEX
8
1
10
9.544983
20
9.792439
0
VERTEX
8
1
10
9.503265
20
9.825832
42
-0.035108
0
VERTEX
8
1
10
9.299889
20
10.069912
42
0.020668
0
VERTEX
8
1
10
8.863754
20
10.615883
0
VERTEX
8
1
10
8.786469
20
10.694893
0
VERTEX
8
1
10
8.718857
20
10.750599
0
VERTEX
8
1
10
8.663643
20
10.777332
0
VERTEX
8
1
10
8.623550
20
10.769417
0
VERTEX
8
1
10
8.602013
20
10.720623
42
0.104383
0
VERTEX
8
1
10
8.680067
20
10.296212
42
0.080410
0
VERTEX
8
1
10
9.155334
20
9.433655
42
-0.064044
0
VERTEX
8
1
10
9.391351
20
9.098886
42
-0.002645
0
VERTEX
8
1
10
9.686071
20
8.583106
42
0.024641
0
VERTEX
8
1
10
9.930741
20
8.219372
0
VERTEX
8
1
10
10.019859
20
8.113605
0
VERTEX
8
1
10
10.110748
20
8.024601
0
VERTEX
8
1
10
10.203102
20
7.956108
0
VERTEX
8
1
10
10.296585
20
7.911880
0
VERTEX
8
1
10
10.390885
20
7.895669
42
0.014509
0
VERTEX
8
1
10
11.504999
20
7.903810
0
VERTEX
8
1
10
11.577394
20
7.909483
42
0.042329
0
VERTEX
8
1
10
11.895402
20
7.960473
42
0.112251
0
VERTEX
8
1
10
12.016594
20
8.030960
0
VERTEX
8
1
10
12.060181
20
8.057941
42
-0.095781
0
VERTEX
8
1
10
12.690521
20
8.226902
42
0.043825
0
VERTEX
8
1
10
12.845176
20
8.219872
42
0.023243
0
VERTEX
8
1
10
13.927210
20
8.279632
42
0.020867
0
VERTEX
8
1
10
14.050514
20
8.301453
0
VERTEX
8
1
10
14.078033
20
8.303074
42
-0.119278
0
VERTEX
8
1
10
14.331215
20
8.216579
42
-0.028251
0
VERTEX
8
1
10
14.486717
20
8.115940
0
VERTEX
8
1
10
14.493454
20
8.103962
42
0.175075
0
VERTEX
8
1
10
14.484329
20
7.941866
42
-0.053842
0
VERTEX
8
1
10
14.459014
20
7.889804
42
0.017219
0
VERTEX
8
1
10
14.218165
20
7.544219
42
0.070617
0
VERTEX
8
1
10
14.196678
20
7.479435
42
0.023164
0
VERTEX
8
1
10
14.293519
20
7.268112
42
-0.020314
0
VERTEX
8
1
10
13.794205
20
6.832462
42
0.045902
0
VERTEX
8
1
10
13.413447
20
6.453221
0
VERTEX
8
1
10
13.400645
20
6.432187
42
-0.107611
0
VERTEX
8
1
10
13.303611
20
6.282342
42
-0.000340
0
VERTEX
8
1
10
13.124314
20
6.078270
42
0.075064
0
VERTEX
8
1
10
13.031189
20
5.912628
0
VERTEX
8
1
10
12.998070
20
5.883275
42
-0.015653
0
VERTEX
8
1
10
11.983658
20
5.901833
42
0.086622
0
VERTEX
8
1
10
11.218636
20
5.892368
42
0.049103
0
VERTEX
8
1
10
10.216168
20
5.898175
42
0.059594
0
VERTEX
8
1
10
9.743721
20
5.780415
0
VERTEX
8
1
10
9.640213
20
5.731319
0
VERTEX
8
1
10
9.545280
20
5.674042
42
0.149933
0
VERTEX
8
1
10
8.040558
20
4.962410
0
VERTEX
8
1
10
8.032005
20
4.962524
42
0.120478
0
VERTEX
8
1
10
7.892265
20
5.068081
0
VERTEX
8
1
10
7.882736
20
5.070107
42
-0.069155
0
VERTEX
8
1
10
7.641960
20
5.119278
42
0.069279
0
VERTEX
8
1
10
7.503326
20
5.136059
42
-0.071026
0
VERTEX
8
1
10
7.369095
20
5.177700
42
0.144808
0
VERTEX
8
1
10
7.109276
20
5.183064
42
-0.043890
0
VERTEX
8
1
10
6.844612
20
5.134781
42
-0.078760
0
VERTEX
8
1
10
6.571587
20
5.175842
42
0.035651
0
VERTEX
8
1
10
6.388283
20
5.184227
42
-0.124405
0
VERTEX
8
1
10
6.230420
20
5.240757
42
0.113754
0
VERTEX
8
1
10
6.071487
20
5.286819
42
-0.038218
0
VERTEX
8
1
10
5.865929
20
5.334543
42
0.148892
0
VERTEX
8
1
10
5.713633
20
5.316313
42
-0.025422
0
VERTEX
8
1
10
5.447839
20
5.226051
0
VERTEX
8
1
10
5.436577
20
5.222569
42
-0.425797
0
VERTEX
8
1
10
5.183418
20
5.022022
42
0.321486
0
VERTEX
8
1
10
5.142487
20
4.995911
42
-0.098728
0
VERTEX
8
1
10
4.894804
20
4.685668
42
0.004116
0
VERTEX
8
1
10
4.666180
20
4.468604
42
-0.182537
0
VERTEX
8
1
10
4.416023
20
4.382488
0
VERTEX
8
1
10
4.343056
20
4.381668
42
0.217445
0
VERTEX
8
1
10
3.993736
20
4.212940
42
0.103082
0
VERTEX
8
1
10
3.580494
20
4.050709
0
VERTEX
8
1
10
3.558635
20
4.033425
42
0.164758
0
VERTEX
8
1
10
3.430237
20
3.825722
42
-0.051823
0
VERTEX
8
1
10
3.386673
20
3.781677
42
-0.153309
0
VERTEX
8
1
10
3.290252
20
3.782367
42
0.051534
0
VERTEX
8
1
10
3.187027
20
3.775345
0
VERTEX
8
1
10
3.184151
20
3.777874
42
0.015513
0
VERTEX
8
1
10
3.180115
20
3.839672
42
-0.030410
0
VERTEX
8
1
10
3.382065
20
4.105850
42
0.198178
0
VERTEX
8
1
10
3.481133
20
4.280136
42
-0.019607
0
VERTEX
8
1
10
3.580833
20
4.638794
0
VERTEX
8
1
10
3.588234
20
4.643456
42
0.163035
0
VERTEX
8
1
10
3.851853
20
4.841487
42
0.116606
0
VERTEX
8
1
10
3.901131
20
4.993721
42
0.049256
0
VERTEX
8
1
10
3.917526
20
5.313950
0
VERTEX
8
1
10
3.912773
20
5.342968
0
VERTEX
8
1
10
3.905785
20
5.367455
42
0.481694
0
VERTEX
8
1
10
3.808472
20
5.412666
0
VERTEX
8
1
10
3.779037
20
5.398712
42
0.164829
0
VERTEX
8
1
10
3.431039
20
4.926022
42
0.155685
0
VERTEX
8
1
10
3.440392
20
4.693954
0
VERTEX
8
1
10
3.469894
20
4.640930
0
VERTEX
8
1
10
3.479179
20
4.612274
0
VERTEX
8
1
10
3.484779
20
4.613361
42
0.057327
0
VERTEX
8
1
10
3.438103
20
4.454146
42
-0.124701
0
VERTEX
8
1
10
3.325661
20
4.251324
42
-0.029181
0
VERTEX
8
1
10
3.160071
20
4.051230
0
VERTEX
8
1
10
3.148331
20
4.039805
42
-0.056617
0
VERTEX
8
1
10
3.097091
20
4.566353
42
0.004540
0
VERTEX
8
1
10
3.067841
20
4.891396
42
-0.033074
0
VERTEX
8
1
10
3.079124
20
5.153297
42
-0.034322
0
VERTEX
8
1
10
3.423294
20
5.497116
42
-0.070171
0
VERTEX
8
1
10
3.618484
20
5.598446
42
0.122423
0
VERTEX
8
1
10
3.990662
20
5.870895
42
0.057701
0
VERTEX
8
1
10
4.341797
20
6.316357
42
-0.013103
0
VERTEX
8
1
10
4.494614
20
6.630272
42
0.039078
0
VERTEX
8
1
10
4.588181
20
6.926121
0
VERTEX
8
1
10
4.598351
20
6.950237
42
0.147887
0
VERTEX
8
1
10
4.736423
20
7.261695
42
0.135885
0
VERTEX
8
1
10
4.674828
20
7.798355
0
VERTEX
8
1
10
4.656350
20
7.830555
42
0.483492
0
VERTEX
8
1
10
4.541246
20
7.851139
42
0.103284
0
VERTEX
8
1
10
4.473511
20
7.773457
42
0.053846
0
VERTEX
8
1
10
4.272196
20
7.330391
42
0.244418
0
VERTEX
8
1
10
4.373044
20
6.950765
42
0.035789
0
VERTEX
8
1
10
4.433098
20
6.888496
0
VERTEX
8
1
10
4.430782
20
6.869190
42
-0.084223
0
VERTEX
8
1
10
4.397764
20
6.722879
42
-0.048013
0
VERTEX
8
1
10
4.317564
20
6.556430
42
-0.064926
0
VERTEX
8
1
10
4.200374
20
6.350715
42
-0.497468
0
VERTEX
8
1
10
4.136421
20
6.357563
42
-0.076223
0
VERTEX
8
1
10
4.088614
20
6.434447
42
0.028939
0
VERTEX
8
1
10
3.946861
20
6.646790
0
VERTEX
8
1
10
3.969299
20
6.685890
42
0.118525
0
VERTEX
8
1
10
4.075077
20
6.987854
42
0.130998
0
VERTEX
8
1
10
4.013224
20
7.480885
0
VERTEX
8
1
10
3.998803
20
7.507475
0
VERTEX
8
1
10
3.982269
20
7.532806
42
0.406450
0
VERTEX
8
1
10
3.883438
20
7.548073
0
VERTEX
8
1
10
3.862740
20
7.531773
42
0.084390
0
VERTEX
8
1
10
3.726662
20
7.313552
42
0.024375
0
VERTEX
8
1
10
3.611654
20
7.039736
42
0.264846
0
VERTEX
8
1
10
3.718405
20
6.628968
42
0.059286
0
VERTEX
8
1
10
3.819809
20
6.537949
0
VERTEX
8
1
10
3.845795
20
6.565788
0
VERTEX
8
1
10
3.848854
20
6.568005
42
-0.091572
0
VERTEX
8
1
10
3.966179
20
6.366730
42
0.030820
0
VERTEX
8
1
10
4.042428
20
6.241024
42
-0.430097
0
VERTEX
8
1
10
3.985046
20
6.063503
42
0.079195
0
VERTEX
8
1
10
3.704987
20
5.839149
42
-0.089391
0
VERTEX
8
1
10
3.447647
20
5.709106
42
0.102773
0
VERTEX
8
1
10
3.099358
20
5.477245
0
VERTEX
8
1
10
3.098473
20
5.480819
42
-0.036183
0
VERTEX
8
1
10
3.161263
20
6.361588
42
0.053861
0
VERTEX
8
1
10
3.215492
20
6.719261
42
0.147971
0
VERTEX
8
1
10
3.401733
20
6.855735
42
0.145185
0
VERTEX
8
1
10
3.431198
20
6.972996
0
VERTEX
8
1
10
3.433922
20
6.999908
42
0.014839
0
VERTEX
8
1
10
3.497055
20
7.358505
42
0.229643
0
VERTEX
8
1
10
3.451431
20
7.502159
42
-0.216946
0
VERTEX
8
1
10
3.371102
20
7.766439
42
-0.075026
0
VERTEX
8
1
10
3.415161
20
7.985546
42
-0.056805
0
VERTEX
8
1
10
3.496490
20
8.108823
42
-0.011810
0
VERTEX
8
1
10
3.733948
20
8.433365
0
VERTEX
8
1
10
3.761620
20
8.447304
42
0.143481
0
VERTEX
8
1
10
4.114894
20
8.520958
42
0.135013
0
VERTEX
8
1
10
4.532477
20
8.890996
42
0.143589
0
VERTEX
8
1
10
4.552377
20
8.973938
42
0.337473
0
VERTEX
8
1
10
4.486303
20
9.025396
42
0.089502
0
VERTEX
8
1
10
4.382393
20
9.028805
42
0.042784
0
VERTEX
8
1
10
3.912827
20
8.927128
42
0.307802
0
VERTEX
8
1
10
3.624031
20
8.513927
42
-0.075280
0
VERTEX
8
1
10
3.551120
20
8.419969
42
-0.514269
0
VERTEX
8
1
10
3.529808
20
8.431572
42
-0.066165
0
VERTEX
8
1
10
3.516350
20
8.621960
42
-0.151113
0
VERTEX
8
1
10
3.674952
20
8.924481
42
-0.006383
0
VERTEX
8
1
10
3.714417
20
8.969479
42
0.166459
0
VERTEX
8
1
10
4.062532
20
9.153310
42
0.141074
0
VERTEX
8
1
10
4.337597
20
9.639109
42
0.229258
0
VERTEX
8
1
10
4.316125
20
9.735115
42
0.227798
0
VERTEX
8
1
10
4.259346
20
9.752609
0
VERTEX
8
1
10
4.231552
20
9.749222
42
0.074625
0
VERTEX
8
1
10
3.984650
20
9.637466
42
0.021241
0
VERTEX
8
1
10
3.740975
20
9.482594
42
0.269886
0
VERTEX
8
1
10
3.589874
20
9.084785
0
VERTEX
8
1
10
3.587471
20
9.072350
42
0.165083
0
VERTEX
8
1
10
3.452438
20
8.877182
42
0.045515
0
VERTEX
8
1
10
3.354172
20
8.509644
42
-0.063303
0
VERTEX
8
1
10
3.408134
20
8.303547
42
-0.188801
0
VERTEX
8
1
10
3.329491
20
8.135406
42
0.223546
0
VERTEX
8
1
10
3.303261
20
7.487427
42
-0.088446
0
VERTEX
8
1
10
3.322503
20
7.173554
42
-0.026572
0
VERTEX
8
1
10
3.290359
20
7.033550
42
-0.345126
0
VERTEX
8
1
10
3.258781
20
6.970715
0
VERTEX
8
1
10
3.224869
20
6.957001
42
0.013478
0
VERTEX
8
1
10
3.173584
20
7.428298
42
-0.030538
0
VERTEX
8
1
10
3.143973
20
8.087654
42
0.004971
0
VERTEX
8
1
10
3.188881
20
8.739414
42
-0.043183
0
VERTEX
8
1
10
3.267415
20
9.135476
42
0.020008
0
VERTEX
8
1
10
3.341537
20
9.535400
0
VERTEX
8
1
10
3.344467
20
9.539055
42
0.189345
0
VERTEX
8
1
10
3.421045
20
9.587694
42
0.045424
0
VERTEX
8
1
10
3.534294
20
9.724064
0
VERTEX
8
1
10
3.546104
20
9.732670
42
0.160963
0
VERTEX
8
1
10
3.847183
20
9.927596
42
0.135771
0
VERTEX
8
1
10
3.909866
20
10.103748
42
0.050162
0
VERTEX
8
1
10
3.925507
20
10.422062
0
VERTEX
8
1
10
3.920601
20
10.450768
42
0.578639
0
VERTEX
8
1
10
3.799960
20
10.512208
42
0.170503
0
VERTEX
8
1
10
3.438376
20
10.030533
42
0.165226
0
VERTEX
8
1
10
3.454918
20
9.784378
42
-0.089863
0
VERTEX
8
1
10
3.372658
20
9.686749
42
-0.129871
0
VERTEX
8
1
10
3.399402
20
9.756909
0
VERTEX
8
1
10
3.399696
20
9.757023
42
-0.027733
0
VERTEX
8
1
10
3.455490
20
10.359970
0
VERTEX
8
1
10
3.464417
20
10.400627
42
0.101303
0
VERTEX
8
1
10
3.497200
20
10.621239
42
0.027564
0
VERTEX
8
1
10
3.474815
20
10.960930
0
VERTEX
8
1
10
3.463997
20
10.962280
42
0.073709
0
VERTEX
8
1
10
3.539505
20
11.120861
42
0.038505
0
VERTEX
8
1
10
3.570122
20
11.425735
42
0.115259
0
VERTEX
8
1
10
3.567558
20
11.636528
42
0.172062
0
VERTEX
8
1
10
3.586800
20
11.734962
42
0.045873
0
VERTEX
8
1
10
3.546379
20
12.007671
0
VERTEX
8
1
10
3.548782
20
12.024792
42
0.171324
0
VERTEX
8
1
10
3.627752
20
12.371699
42
0.135896
0
VERTEX
8
1
10
3.543358
20
12.547508
42
0.048454
0
VERTEX
8
1
10
3.327248
20
12.791519
42
0.128172
0
VERTEX
8
1
10
3.249666
20
12.832730
42
0.343538
0
VERTEX
8
1
10
3.180573
20
12.787300
0
VERTEX
8
1
10
3.170532
20
12.758854
42
0.173344
0
VERTEX
8
1
10
3.270704
20
12.165971
42
0.117792
0
VERTEX
8
1
10
3.423538
20
12.020321
42
-0.073483
0
VERTEX
8
1
10
3.516388
20
11.737801
42
0.051307
0
VERTEX
8
1
10
3.267811
20
12.022882
42
0.154732
0
VERTEX
8
1
10
3.183609
20
12.056627
42
0.264685
0
VERTEX
8
1
10
3.131805
20
12.018993
42
0.111967
0
VERTEX
8
1
10
3.103683
20
11.847588
42
0.130801
0
VERTEX
8
1
10
3.217346
20
11.392654
42
0.175357
0
VERTEX
8
1
10
3.414394
20
11.229350
0
VERTEX
8
1
10
3.441559
20
11.220711
0
VERTEX
8
1
10
3.435568
20
11.200437
42
0.015502
0
VERTEX
8
1
10
3.355438
20
10.975845
0
VERTEX
8
1
10
3.274414
20
10.985977
0
VERTEX
8
1
10
3.274184
20
10.985108
42
0.001688
0
VERTEX
8
1
10
3.235807
20
10.657168
0
VERTEX
8
1
10
3.231071
20
10.644009
42
-0.266387
0
VERTEX
8
1
10
3.175591
20
10.722164
42
-0.031814
0
VERTEX
8
1
10
3.145717
20
10.960646
42
-0.160812
0
VERTEX
8
1
10
3.151497
20
11.024994
0
VERTEX
8
1
10
3.163872
20
11.103897
0
VERTEX
8
1
10
3.160591
20
11.183411
42
0.130565
0
VERTEX
8
1
10
3.001424
20
11.527820
42
0.105461
0
VERTEX
8
1
10
2.630548
20
11.846687
42
0.261832
0
VERTEX
8
1
10
2.517770
20
11.845343
42
0.195009
0
VERTEX
8
1
10
2.489525
20
11.796906
0
VERTEX
8
1
10
2.484505
20
11.767567
42
0.073873
0
VERTEX
8
1
10
2.521675
20
11.485340
42
0.020752
0
VERTEX
8
1
10
2.583880
20
11.258123
42
0.214113
0
VERTEX
8
1
10
2.868140
20
10.985785
42
0.060255
0
VERTEX
8
1
10
3.050331
20
10.935974
0
VERTEX
8
1
10
3.069794
20
10.929192
42
0.045039
0
VERTEX
8
1
10
3.126404
20
10.669018
42
0.178915
0
VERTEX
8
1
10
3.186070
20
10.551190
42
-0.084820
0
VERTEX
8
1
10
3.217613
20
10.494259
42
0.018200
0
VERTEX
8
1
10
3.169716
20
9.943745
42
-0.023387
0
VERTEX
8
1
10
3.100868
20
9.583694
42
-0.139235
0
VERTEX
8
1
10
2.946251
20
9.726513
0
VERTEX
8
1
10
2.940285
20
9.743050
42
-0.016873
0
VERTEX
8
1
10
2.892166
20
9.971119
0
VERTEX
8
1
10
2.885742
20
9.992016
42
-0.017392
0
VERTEX
8
1
10
2.796669
20
10.223106
42
0.087818
0
VERTEX
8
1
10
2.715896
20
10.344266
42
0.002772
0
VERTEX
8
1
10
2.596764
20
10.525055
42
0.054766
0
VERTEX
8
1
10
2.486591
20
10.626269
42
-0.179564
0
VERTEX
8
1
10
2.353033
20
10.872171
42
0.034156
0
VERTEX
8
1
10
2.267644
20
11.200057
42
0.137997
0
VERTEX
8
1
10
2.126199
20
11.474926
42
0.090100
0
VERTEX
8
1
10
1.968148
20
11.624797
42
-0.001531
0
VERTEX
8
1
10
1.840537
20
11.669800
0
VERTEX
8
1
10
1.837364
20
11.677696
42
0.168469
0
VERTEX
8
1
10
1.867073
20
11.945732
42
0.062297
0
VERTEX
8
1
10
1.768856
20
12.256889
42
0.112975
0
VERTEX
8
1
10
1.718613
20
12.306313
42
0.298866
0
VERTEX
8
1
10
1.636851
20
12.288101
42
0.094356
0
VERTEX
8
1
10
1.569679
20
12.213959
0
VERTEX
8
1
10
1.561852
20
12.215508
42
0.127439
0
VERTEX
8
1
10
1.093748
20
12.559154
42
0.145140
0
VERTEX
8
1
10
1.006805
20
12.554119
42
0.278455
0
VERTEX
8
1
10
0.967064
20
12.471653
0
VERTEX
8
1
10
0.968002
20
12.438625
42
0.060102
0
VERTEX
8
1
10
1.048767
20
12.143311
42
0.071086
0
VERTEX
8
1
10
1.157042
20
11.905880
42
0.146009
0
VERTEX
8
1
10
1.377228
20
11.743259
0
VERTEX
8
1
10
1.366982
20
11.677872
42
0.152751
0
VERTEX
8
1
10
1.398092
20
11.397722
42
0.096738
0
VERTEX
8
1
10
1.450287
20
11.336735
42
-0.118733
0
VERTEX
8
1
10
1.486313
20
11.208549
0
VERTEX
8
1
10
1.483528
20
11.206333
42
-0.251328
0
VERTEX
8
1
10
1.408577
20
11.251721
42
-0.035046
0
VERTEX
8
1
10
1.274452
20
11.434605
42
0.175664
0
VERTEX
8
1
10
1.153407
20
11.675224
42
0.119989
0
VERTEX
8
1
10
0.834841
20
11.885675
42
0.259952
0
VERTEX
8
1
10
0.763016
20
11.866543
42
0.183919
0
VERTEX
8
1
10
0.754395
20
11.793507
42
0.070721
0
VERTEX
8
1
10
0.873047
20
11.478325
42
0.215738
0
VERTEX
8
1
10
1.147818
20
11.330864
42
0.021474
0
VERTEX
8
1
10
1.226761
20
11.323467
42
0.092879
0
VERTEX
8
1
10
1.420792
20
11.070706
42
0.237841
0
VERTEX
8
1
10
1.557632
20
11.050552
42
-0.083984
0
VERTEX
8
1
10
1.643781
20
11.028369
42
0.281639
0
VERTEX
8
1
10
1.704979
20
11.050716
42
-0.156428
0
VERTEX
8
1
10
1.940079
20
11.174751
42
-0.079774
0
VERTEX
8
1
10
2.094315
20
11.207237
0
VERTEX
8
1
10
2.103119
20
11.204716
0
VERTEX
8
1
10
2.109764
20
11.200359
42
-0.090486
0
VERTEX
8
1
10
2.159501
20
10.972354
42
0.130492
0
VERTEX
8
1
10
2.236576
20
10.770852
42
0.051459
0
VERTEX
8
1
10
2.431087
20
10.495929
42
-0.053664
0
VERTEX
8
1
10
2.583374
20
10.256699
42
0.042104
0
VERTEX
8
1
10
2.670135
20
9.982887
42
0.106607
0
VERTEX
8
1
10
2.714821
20
9.871380
42
-0.003476
0
VERTEX
8
1
10
2.833878
20
9.669586
42
0.060548
0
VERTEX
8
1
10
2.936424
20
9.481663
42
0.069897
0
VERTEX
8
1
10
3.059135
20
9.393673
0
VERTEX
8
1
10
3.061371
20
9.388336
42
-0.046996
0
VERTEX
8
1
10
2.963416
20
8.945990
42
0.033844
0
VERTEX
8
1
10
2.861244
20
8.500023
42
0.055903
0
VERTEX
8
1
10
2.869217
20
8.016781
42
-0.013160
0
VERTEX
8
1
10
2.876144
20
7.825859
0
VERTEX
8
1
10
2.872543
20
7.820034
42
-0.100241
0
VERTEX
8
1
10
2.652276
20
8.035519
42
-0.023054
0
VERTEX
8
1
10
2.466301
20
8.312988
42
0.016594
0
VERTEX
8
1
10
2.307236
20
8.625843
42
0.020706
0
VERTEX
8
1
10
2.021120
20
8.998093
0
VERTEX
8
1
10
1.991520
20
9.029306
42
-0.147805
0
VERTEX
8
1
10
1.870346
20
9.206257
42
-0.110982
0
VERTEX
8
1
10
1.887841
20
9.403300
42
0.008769
0
VERTEX
8
1
10
1.929680
20
9.589588
42
0.084780
0
VERTEX
8
1
10
1.885832
20
9.774770
42
-0.044135
0
VERTEX
8
1
10
1.879066
20
9.812820
42
0.175008
0
VERTEX
8
1
10
2.052857
20
10.150422
42
0.141551
0
VERTEX
8
1
10
1.994782
20
10.702877
42
0.211009
0
VERTEX
8
1
10
1.922092
20
10.772913
42
0.228186
0
VERTEX
8
1
10
1.864693
20
10.757908
0
VERTEX
8
1
10
1.843918
20
10.740448
42
0.079488
0
VERTEX
8
1
10
1.707069
20
10.516022
42
0.026114
0
VERTEX
8
1
10
1.595475
20
10.247006
42
0.265755
0
VERTEX
8
1
10
1.709181
20
9.835608
42
0.029859
0
VERTEX
8
1
10
1.777100
20
9.769192
42
-0.032789
0
VERTEX
8
1
10
1.799850
20
9.554150
42
-0.064591
0
VERTEX
8
1
10
1.781769
20
9.481590
42
0.032127
0
VERTEX
8
1
10
1.780769
20
9.361246
42
-0.325651
0
VERTEX
8
1
10
1.764679
20
9.348568
42
-0.157897
0
VERTEX
8
1
10
1.667099
20
9.466187
42
0.067327
0
VERTEX
8
1
10
1.641937
20
9.611366
42
0.083843
0
VERTEX
8
1
10
1.483696
20
9.818871
42
0.057952
0
VERTEX
8
1
10
1.387756
20
9.869839
0
VERTEX
8
1
10
1.379036
20
9.876640
42
0.132392
0
VERTEX
8
1
10
1.243393
20
10.094769
42
0.018240
0
VERTEX
8
1
10
1.270790
20
10.088421
0
VERTEX
8
1
10
1.282303
20
10.124245
42
0.170330
0
VERTEX
8
1
10
1.344699
20
10.458402
0
VERTEX
8
1
10
1.339243
20
10.494571
42
0.156476
0
VERTEX
8
1
10
1.018761
20
11.050186
42
0.207307
0
VERTEX
8
1
10
0.933025
20
11.073584
42
0.230614
0
VERTEX
8
1
10
0.889465
20
11.033916
0
VERTEX
8
1
10
0.878639
20
11.008503
42
0.075357
0
VERTEX
8
1
10
0.853462
20
10.741779
42
0.044559
0
VERTEX
8
1
10
0.872761
20
10.440378
42
0.110111
0
VERTEX
8
1
10
0.953270
20
10.275394
42
0.101346
0
VERTEX
8
1
10
0.510301
20
10.356481
42
0.174174
0
VERTEX
8
1
10
0.437057
20
10.320843
42
0.288528
0
VERTEX
8
1
10
0.441704
20
10.236294
42
0.075605
0
VERTEX
8
1
10
0.616661
20
10.031025
42
0.022580
0
VERTEX
8
1
10
0.837826
20
9.836156
42
0.256333
0
VERTEX
8
1
10
1.304329
20
9.790272
0
VERTEX
8
1
10
1.315300
20
9.792690
42
0.068376
0
VERTEX
8
1
10
1.390282
20
9.752380
42
-0.148790
0
VERTEX
8
1
10
1.483471
20
9.629235
42
-0.090184
0
VERTEX
8
1
10
1.566141
20
9.407282
42
0.016224
0
VERTEX
8
1
10
1.624527
20
9.192711
42
0.089556
0
VERTEX
8
1
10
1.687950
20
9.093338
42
0.044881
0
VERTEX
8
1
10
1.845449
20
8.884539
42
0.074023
0
VERTEX
8
1
10
1.908791
20
8.843155
42
-0.079019
0
VERTEX
8
1
10
2.069298
20
8.671187
42
-0.137404
0
VERTEX
8
1
10
2.170096
20
8.474853
42
0.163603
0
VERTEX
8
1
10
2.265190
20
8.348537
42
-0.098498
0
VERTEX
8
1
10
2.393593
20
8.154636
42
0.081373
0
VERTEX
8
1
10
2.164978
20
8.193645
42
-0.262413
0
VERTEX
8
1
10
1.983719
20
8.247635
42
-0.018277
0
VERTEX
8
1
10
1.755588
20
8.501521
42
0.108034
0
VERTEX
8
1
10
1.684273
20
8.551432
42
0.128604
0
VERTEX
8
1
10
1.653267
20
8.550350
0
VERTEX
8
1
10
1.652466
20
8.547455
42
0.096653
0
VERTEX
8
1
10
1.781197
20
8.350788
42
0.032565
0
VERTEX
8
1
10
1.964970
20
8.147312
42
0.155536
0
VERTEX
8
1
10
2.074135
20
8.104439
42
-0.041904
0
VERTEX
8
1
10
2.317856
20
8.065327
42
-0.045814
0
VERTEX
8
1
10
2.476341
20
7.961777
42
0.044866
0
VERTEX
8
1
10
2.673025
20
7.869508
42
-0.163153
0
VERTEX
8
1
10
2.789665
20
7.751659
42
0.012265
0
VERTEX
8
1
10
2.885979
20
7.583626
0
VERTEX
8
1
10
2.891006
20
7.481808
0
VERTEX
8
1
10
2.878372
20
7.489868
0
VERTEX
8
1
10
2.829590
20
7.534081
42
0.143277
0
VERTEX
8
1
10
2.228401
20
7.772594
42
0.153164
0
VERTEX
8
1
10
2.130493
20
7.757421
42
0.369673
0
VERTEX
8
1
10
2.109377
20
7.671304
42
0.093001
0
VERTEX
8
1
10
2.157837
20
7.581665
42
0.048008
0
VERTEX
8
1
10
2.494772
20
7.221690
42
0.235028
0
VERTEX
8
1
10
2.911876
20
7.149876
42
-6.599393
0
VERTEX
8
1
10
2.914211
20
7.128759
42
-0.068946
0
VERTEX
8
1
10
2.917245
20
6.834438
42
-0.009868
0
VERTEX
8
1
10
2.829865
20
6.179626
42
-0.027921
0
VERTEX
8
1
10
2.785156
20
5.788784
42
0.029150
0
VERTEX
8
1
10
2.768417
20
5.514587
42
-0.092755
0
VERTEX
8
1
10
2.756966
20
5.170731
42
0.030100
0
VERTEX
8
1
10
2.744484
20
4.945254
0
VERTEX
8
1
10
2.732323
20
4.947514
42
-0.025681
0
VERTEX
8
1
10
2.473724
20
5.070133
42
-0.059480
0
VERTEX
8
1
10
2.113413
20
5.407296
42
-0.307604
0
VERTEX
8
1
10
2.079567
20
5.476486
42
0.030997
0
VERTEX
8
1
10
2.047211
20
5.735397
0
VERTEX
8
1
10
2.053696
20
5.747025
42
0.161131
0
VERTEX
8
1
10
2.349492
20
5.942499
42
0.133308
0
VERTEX
8
1
10
2.410271
20
6.115562
42
0.050113
0
VERTEX
8
1
10
2.425980
20
6.434063
0
VERTEX
8
1
10
2.421089
20
6.462795
42
0.579531
0
VERTEX
8
1
10
2.300150
20
6.524370
42
0.173426
0
VERTEX
8
1
10
1.936191
20
6.033713
42
0.175314
0
VERTEX
8
1
10
1.961983
20
5.784065
42
-0.047926
0
VERTEX
8
1
10
1.989659
20
5.546996
42
-0.520102
0
VERTEX
8
1
10
1.967484
20
5.538155
42
-0.103901
0
VERTEX
8
1
10
1.852079
20
5.555356
42
-0.247270
0
VERTEX
8
1
10
1.824022
20
5.603948
42
-0.080564
0
VERTEX
8
1
10
1.781326
20
5.804384
42
-0.026040
0
VERTEX
8
1
10
1.748358
20
6.056319
0
VERTEX
8
1
10
1.749634
20
6.061584
42
0.012116
0
VERTEX
8
1
10
1.767464
20
6.057411
0
VERTEX
8
1
10
1.778717
20
6.092190
0
VERTEX
8
1
10
1.807533
20
6.142178
0
VERTEX
8
1
10
1.833389
20
6.216988
0
VERTEX
8
1
10
1.843292
20
6.295227
42
0.133999
0
VERTEX
8
1
10
1.738979
20
6.658432
42
0.101299
0
VERTEX
8
1
10
1.437318
20
7.015970
42
0.129801
0
VERTEX
8
1
10
1.346979
20
7.048330
42
0.324225
0
VERTEX
8
1
10
1.280327
20
6.992264
0
VERTEX
8
1
10
1.271355
20
6.963642
42
0.070173
0
VERTEX
8
1
10
1.265617
20
6.679398
42
0.036039
0
VERTEX
8
1
10
1.294769
20
6.441734
42
0.209848
0
VERTEX
8
1
10
1.566334
20
6.132299
42
0.023245
0
VERTEX
8
1
10
1.633392
20
6.100704
0
VERTEX
8
1
10
1.648689
20
6.089165
42
-0.094641
0
VERTEX
8
1
10
1.692065
20
5.815362
42
0.065776
0
VERTEX
8
1
10
1.728928
20
5.611393
42
0.055993
0
VERTEX
8
1
10
1.734512
20
5.560982
0
VERTEX
8
1
10
1.738953
20
5.555333
42
0.011339
0
VERTEX
8
1
10
1.935616
20
5.397350
42
-0.088081
0
VERTEX
8
1
10
2.178741
20
5.191566
42
0.049799
0
VERTEX
8
1
10
2.306549
20
5.019855
42
-0.018215
0
VERTEX
8
1
10
2.485565
20
4.862801
42
0.126236
0
VERTEX
8
1
10
2.653182
20
4.798368
42
-0.096326
0
VERTEX
8
1
10
2.741142
20
4.764084
42
0.063170
0
VERTEX
8
1
10
2.780495
20
4.404606
42
-0.080337
0
VERTEX
8
1
10
2.781883
20
4.187096
42
0.040918
0
VERTEX
8
1
10
2.749784
20
3.434141
42
0.008935
0
VERTEX
8
1
10
2.783371
20
2.646276
0
VERTEX
8
1
10
2.774851
20
2.644653
42
0.004388
0
VERTEX
8
1
10
2.534948
20
2.568349
42
0.187074
0
VERTEX
8
1
10
2.470594
20
2.498810
42
0.151946
0
VERTEX
8
1
10
2.473442
20
2.468319
0
VERTEX
8
1
10
2.468742
20
2.468193
0
VERTEX
8
1
10
2.386635
20
2.485710
42
0.099109
0
VERTEX
8
1
10
2.187272
20
2.502024
42
0.220227
0
VERTEX
8
1
10
2.142075
20
2.463074
0
VERTEX
8
1
10
2.143936
20
2.453091
42
0.038288
0
VERTEX
8
1
10
2.308197
20
2.368694
42
-0.043800
0
VERTEX
8
1
10
2.596827
20
2.291716
42
0.006903
0
VERTEX
8
1
10
2.895768
20
2.205984
42
0.025632
0
VERTEX
8
1
10
3.066078
20
2.177464
42
-0.143867
0
VERTEX
8
1
10
3.160927
20
2.115498
42
0.194289
0
VERTEX
8
1
10
3.273200
20
2.095756
42
-0.019799
0
VERTEX
8
1
10
3.552338
20
2.094456
42
-0.044547
0
VERTEX
8
1
10
3.761757
20
2.050766
0
VERTEX
8
1
10
3.756317
20
2.042999
42
0.175662
0
VERTEX
8
1
10
3.632007
20
1.910277
0
VERTEX
8
1
10
3.629488
20
1.900027
0
VERTEX
8
1
10
3.627739
20
1.889618
0
VERTEX
8
1
10
3.636803
20
1.883934
42
-0.058472
0
VERTEX
8
1
10
3.774086
20
1.833710
42
0.122635
0
VERTEX
8
1
10
3.974775
20
1.830867
42
-0.150295
0
VERTEX
8
1
10
4.170393
20
1.790907
42
0.109473
0
VERTEX
8
1
10
4.279495
20
1.773529
42
0.016536
0
VERTEX
8
1
10
4.681931
20
1.777637
42
-0.218146
0
VERTEX
8
1
10
4.446129
20
1.685101
42
0.007343
0
VERTEX
8
1
10
3.825764
20
1.691198
42
0.173082
0
VERTEX
8
1
10
3.727704
20
1.645174
42
-0.036050
0
VERTEX
8
1
10
3.656967
20
1.608147
42
0.425179
0
VERTEX
8
1
10
3.656403
20
1.563290
42
0.222084
0
VERTEX
8
1
10
3.705811
20
1.523943
0
VERTEX
8
1
10
3.733793
20
1.513392
42
0.089018
0
VERTEX
8
1
10
4.001541
20
1.486752
42
-0.065872
0
VERTEX
8
1
10
4.128967
20
1.458988
42
0.219740
0
VERTEX
8
1
10
4.242653
20
1.480572
42
-0.314243
0
VERTEX
8
1
10
4.363051
20
1.462719
42
0.143086
0
VERTEX
8
1
10
4.458160
20
1.460400
42
-0.097130
0
VERTEX
8
1
10
4.574677
20
1.433414
42
0.091466
0
VERTEX
8
1
10
4.667747
20
1.431681
42
-0.041543
0
VERTEX
8
1
10
4.867378
20
1.423615
42
0.143678
0
VERTEX
8
1
10
5.104699
20
1.406131
42
-0.126197
0
VERTEX
8
1
10
5.201136
20
1.391913
42
0.367643
0
VERTEX
8
1
10
5.282617
20
1.376990
0
VERTEX
8
1
10
5.299417
20
1.384046
42
-0.290824
0
VERTEX
8
1
10
5.332766
20
1.393501
42
0.045157
0
VERTEX
8
1
10
5.593417
20
1.339700
42
-0.044723
0
VERTEX
8
1
10
6.041637
20
1.316772
42
0.029086
0
VERTEX
8
1
10
6.319496
20
1.313558
42
-0.005114
0
VERTEX
8
1
10
6.841019
20
1.310364
42
0.023144
0
VERTEX
8
1
10
6.991867
20
1.281517
42
-0.052245
0
VERTEX
8
1
10
7.120987
20
1.283688
42
0.010450
0
VERTEX
8
1
10
7.180161
20
1.253052
42
0.043358
0
VERTEX
8
1
10
7.358160
20
1.251109
42
-0.103839
0
VERTEX
8
1
10
7.432864
20
1.229973
42
0.042450
0
VERTEX
8
1
10
7.546227
20
1.220367
42
-0.012158
0
VERTEX
8
1
10
7.703049
20
1.172222
42
0.018599
0
VERTEX
8
1
10
7.967155
20
1.137699
42
-0.028198
0
VERTEX
8
1
10
8.316814
20
1.127684
42
-0.084218
0
VERTEX
8
1
10
8.505791
20
1.066940
0
VERTEX
8
1
10
8.522560
20
1.054741
42
-0.585378
0
VERTEX
8
1
10
8.521835
20
0.958317
42
-0.238326
0
VERTEX
8
1
10
8.393090
20
0.935742
42
0.247328
0
VERTEX
8
1
10
8.309796
20
0.909221
0
VERTEX
8
1
10
8.304268
20
0.906752
42
-0.092893
0
VERTEX
8
1
10
8.149614
20
0.905403
42
0.084456
0
VERTEX
8
1
10
7.952902
20
0.880378
42
0.078525
0
VERTEX
8
1
10
7.669662
20
0.817296
0
VERTEX
8
1
10
7.653210
20
0.812720
42
0.183946
0
VERTEX
8
1
10
7.473315
20
0.720913
42
0.457389
0
VERTEX
8
1
10
7.489693
20
0.692657
42
0.099417
0
VERTEX
8
1
10
7.746178
20
0.607563
42
0.040427
0
VERTEX
8
1
10
7.983872
20
0.577610
42
0.081099
0
VERTEX
8
1
10
8.482032
20
0.551399
42
-0.026533
0
VERTEX
8
1
10
8.728920
20
0.550236
42
0.012662
0
VERTEX
8
1
10
8.929451
20
0.519974
0
VERTEX
8
1
10
8.979540
20
0.520723
42
-0.012582
0
VERTEX
8
1
10
9.486866
20
0.526929
0
VERTEX
8
1
10
9.665443
20
0.526476
0
VERTEX
8
1
10
9.844021
20
0.525567
42
-0.010085
0
VERTEX
8
1
10
10.033574
20
0.494749
42
-0.085092
0
VERTEX
8
1
10
10.144832
20
0.494076
42
0.159797
0
VERTEX
8
1
10
10.283221
20
0.469837
42
-0.120803
0
VERTEX
8
1
10
10.395998
20
0.453926
42
0.054563
0
VERTEX
8
1
10
10.531013
20
0.428599
42
-0.026663
0
VERTEX
8
1
10
11.149472
20
0.331394
42
0.030929
0
VERTEX
8
1
10
11.275314
20
0.317602
42
0.025576
0
VERTEX
8
1
10
11.586336
20
0.264765
0
VERTEX
8
1
10
11.622201
20
0.263453
42
-0.064098
0
VERTEX
8
1
10
11.855492
20
0.235073
42
0.084594
0
VERTEX
8
1
10
12.243851
20
0.260342
42
-0.068920
0
VERTEX
8
1
10
12.519855
20
0.260046
42
0.072358
0
VERTEX
8
1
10
12.735746
20
0.280783
42
-0.008351
0
VERTEX
8
1
10
12.970592
20
0.298159
42
-0.072800
0
VERTEX
8
1
10
13.199104
20
0.323757
0
VERTEX
8
1
10
13.229126
20
0.325321
42
-0.023429
0
VERTEX
8
1
10
13.666115
20
0.354009
42
-0.052474
0
VERTEX
8
1
10
14.015680
20
0.349669
42
0.121918
0
VERTEX
8
1
10
14.239290
20
0.324201
42
-0.025054
0
VERTEX
8
1
10
14.348091
20
0.323067
42
0.031633
0
VERTEX
8
1
10
14.436836
20
0.291126
42
0.112610
0
VERTEX
8
1
10
14.531418
20
0.319823
42
-0.096235
0
VERTEX
8
1
10
14.650854
20
0.322782
42
-0.032064
0
VERTEX
8
1
10
15.293174
20
0.297459
42
-0.065663
0
VERTEX
8
1
10
15.395256
20
0.267063
42
0.094950
0
VERTEX
8
1
10
15.500655
20
0.265194
42
-0.050622
0
VERTEX
8
1
10
15.668623
20
0.239523
42
0.037128
0
VERTEX
8
1
10
15.790741
20
0.233166
42
0.034631
0
VERTEX
8
1
10
16.081362
20
0.206432
42
0.079388
0
VERTEX
8
1
10
16.209961
20
0.235703
42
0.070042
0
VERTEX
8
1
10
16.422306
20
0.314315
42
0.276772
0
VERTEX
8
1
10
16.447334
20
0.376740
42
-0.010872
0
VERTEX
8
1
10
16.269341
20
0.412636
42
0.003585
0
VERTEX
8
1
10
16.124161
20
0.410408
42
-0.139227
0
VERTEX
8
1
10
15.911507
20
0.496117
42
-0.130023
0
VERTEX
8
1
10
16.212521
20
0.561231
42
0.108647
0
VERTEX
8
1
10
16.336899
20
0.594486
42
-0.102454
0
VERTEX
8
1
10
16.496056
20
0.611764
42
0.125921
0
VERTEX
8
1
10
16.710104
20
0.664969
42
-0.080752
0
VERTEX
8
1
10
16.905626
20
0.710050
42
-0.010215
0
VERTEX
8
1
10
17.116346
20
0.754448
42
0.008331
0
VERTEX
8
1
10
17.277023
20
0.765106
42
-0.084233
0
VERTEX
8
1
10
17.490345
20
0.788067
42
0.027080
0
VERTEX
8
1
10
17.733124
20
0.794090
42
-0.060742
0
VERTEX
8
1
10
17.961052
20
0.819695
42
-0.155664
0
VERTEX
8
1
10
18.124702
20
0.791504
42
0.067242
0
VERTEX
8
1
10
18.499037
20
0.784505
42
-0.033819
0
VERTEX
8
1
10
18.689484
20
0.783325
42
0.083649
0
VERTEX
8
1
10
18.901707
20
0.759624
42
-0.024916
0
VERTEX
8
1
10
19.159971
20
0.752807
42
0.075887
0
VERTEX
8
1
10
19.370796
20
0.733276
42
-0.047934
0
VERTEX
8
1
10
19.518970
20
0.761301
42
0.073491
0
VERTEX
8
1
10
19.657442
20
0.763747
42
-0.129510
0
VERTEX
8
1
10
19.796862
20
0.789404
42
0.004818
0
VERTEX
8
1
10
20.132698
20
0.788628
42
0.071849
0
VERTEX
8
1
10
20.312439
20
0.824642
42
0.048546
0
VERTEX
8
1
10
20.510599
20
0.875846
42
0.145658
0
VERTEX
8
1
10
20.543549
20
0.908207
0
VERTEX
8
1
10
20.543533
20
0.923866
42
0.165966
0
VERTEX
8
1
10
20.485268
20
0.979046
42
0.073913
0
VERTEX
8
1
10
20.228296
20
1.025396
42
-0.098703
0
VERTEX
8
1
10
20.012732
20
1.042523
42
-0.026041
0
VERTEX
8
1
10
19.837944
20
1.090591
42
0.011196
0
VERTEX
8
1
10
19.694397
20
1.107922
42
-0.040597
0
VERTEX
8
1
10
19.515289
20
1.172302
42
0.109090
0
VERTEX
8
1
10
19.345226
20
1.195806
42
-0.048652
0
VERTEX
8
1
10
19.119392
20
1.223087
42
-0.011640
0
VERTEX
8
1
10
18.954033
20
1.229088
42
-0.027775
0
VERTEX
8
1
10
18.655762
20
1.317760
42
0.007763
0
VERTEX
8
1
10
18.486847
20
1.357252
42
-0.605164
0
VERTEX
8
1
10
18.480724
20
1.467641
42
-0.179278
0
VERTEX
8
1
10
18.538576
20
1.486028
42
0.072082
0
VERTEX
8
1
10
18.699203
20
1.527321
42
-0.054737
0
VERTEX
8
1
10
18.939501
20
1.576456
42
0.115919
0
VERTEX
8
1
10
19.114059
20
1.599770
42
-0.040015
0
VERTEX
8
1
10
19.328800
20
1.600212
42
0.087575
0
VERTEX
8
1
10
19.435745
20
1.626412
42
-0.059629
0
VERTEX
8
1
10
19.500391
20
1.627231
42
0.101421
0
VERTEX
8
1
10
19.611019
20
1.657251
42
-0.259463
0
VERTEX
8
1
10
19.759987
20
1.636192
42
0.332356
0
VERTEX
8
1
10
19.855633
20
1.656847
0
VERTEX
8
1
10
19.861242
20
1.659529
42
-0.100666
0
VERTEX
8
1
10
20.024225
20
1.655837
42
0.197514
0
VERTEX
8
1
10
20.129011
20
1.684825
42
-0.169287
0
VERTEX
8
1
10
20.193214
20
1.694035
42
0.037109
0
VERTEX
8
1
10
20.375305
20
1.692784
42
-0.136370
0
VERTEX
8
1
10
20.549658
20
1.719427
42
0.168212
0
VERTEX
8
1
10
20.683527
20
1.767530
42
-0.144276
0
VERTEX
8
1
10
20.758781
20
1.791373
42
0.173235
0
VERTEX
8
1
10
20.820503
20
1.828961
42
-0.179127
0
VERTEX
8
1
10
20.885109
20
1.839031
42
0.125475
0
VERTEX
8
1
10
21.064047
20
1.861621
42
-0.019136
0
VERTEX
8
1
10
21.107246
20
1.870377
0
VERTEX
8
1
10
21.114418
20
1.877079
0
VERTEX
8
1
10
21.100021
20
1.893398
42
0.109670
0
VERTEX
8
1
10
20.959099
20
1.927681
42
-0.027805
0
VERTEX
8
1
10
20.707439
20
1.958706
42
-0.117255
0
VERTEX
8
1
10
20.640358
20
1.996376
42
-0.364848
0
VERTEX
8
1
10
20.654182
20
2.077229
42
-0.136680
0
VERTEX
8
1
10
20.830719
20
2.152925
42
-0.071393
0
VERTEX
8
1
10
21.199852
20
2.185654
42
0.095233
0
VERTEX
8
1
10
21.372335
20
2.208533
42
0.061990
0
VERTEX
8
1
10
21.491447
20
2.219780
42
0.004552
0
VERTEX
8
1
10
21.575325
20
2.275822
42
-0.036365
0
VERTEX
8
1
10
21.681297
20
2.300137
42
0.073226
0
VERTEX
8
1
10
21.763603
20
2.354431
42
-0.048370
0
VERTEX
8
1
10
21.999657
20
2.452248
0
VERTEX
8
1
10
22.002419
20
2.456539
0
VERTEX
8
1
10
21.959625
20
2.484627
42
0.186726
0
VERTEX
8
1
10
21.783657
20
2.536129
42
-0.107261
0
VERTEX
8
1
10
21.638962
20
2.563354
42
-0.170683
0
VERTEX
8
1
10
21.542913
20
2.582616
42
0.132612
0
VERTEX
8
1
10
21.449389
20
2.591641
42
-0.219617
0
VERTEX
8
1
10
21.379919
20
2.617891
42
0.070567
0
VERTEX
8
1
10
21.362679
20
2.623508
0
VERTEX
8
1
10
21.291969
20
2.620293
42
-0.016471
0
VERTEX
8
1
10
21.194595
20
2.651567
42
0.028297
0
VERTEX
8
1
10
21.112335
20
2.650520
42
0.016578
0
VERTEX
8
1
10
21.053215
20
2.681305
42
-0.117570
0
VERTEX
8
1
10
20.888691
20
2.702425
42
0.093575
0
VERTEX
8
1
10
20.753942
20
2.705442
42
-0.170937
0
VERTEX
8
1
10
20.686354
20
2.735021
0
VERTEX
8
1
10
20.680559
20
2.737333
42
0.065169
0
VERTEX
8
1
10
20.503222
20
2.738590
42
-0.089030
0
VERTEX
8
1
10
20.253204
20
2.787193
0
VERTEX
8
1
10
20.237411
20
2.796350
42
-0.653305
0
VERTEX
8
1
10
20.234756
20
2.858898
0
VERTEX
8
1
10
20.269913
20
2.879078
42
-0.066815
0
VERTEX
8
1
10
20.536598
20
2.968391
42
0.149773
0
VERTEX
8
1
10
20.610355
20
3.021646
42
-0.085446
0
VERTEX
8
1
10
20.628906
20
3.030216
42
-0.014824
0
VERTEX
8
1
10
20.439959
20
3.056598
42
-0.042336
0
VERTEX
8
1
10
20.173573
20
3.084693
42
0.001685
0
VERTEX
8
1
10
19.776386
20
3.089415
42
-0.025514
0
VERTEX
8
1
10
19.709068
20
3.106915
42
0.159629
0
VERTEX
8
1
10
19.890703
20
3.902559
0
VERTEX
8
1
10
19.883081
20
3.996478
42
0.111200
0
VERTEX
8
1
10
19.621992
20
4.915078
42
0.088176
0
VERTEX
8
1
10
19.449295
20
5.109028
0
VERTEX
8
1
10
19.402397
20
5.149609
42
-0.023032
0
VERTEX
8
1
10
18.673981
20
5.910683
0
VERTEX
8
1
10
18.658783
20
5.952792
42
0.000411
0
VERTEX
8
1
10
18.673733
20
6.427267
42
0.068098
0
VERTEX
8
1
10
18.644028
20
6.593929
42
-0.030587
0
VERTEX
8
1
10
18.484947
20
6.904114
0
VERTEX
8
1
10
18.484678
20
6.913091
0
VERTEX
8
1
10
18.486076
20
6.921963
0
VERTEX
8
1
10
18.493500
20
6.922398
0
VERTEX
8
1
10
18.506149
20
6.916214
42
0.129289
0
VERTEX
8
1
10
18.688778
20
6.831776
42
0.439343
0
VERTEX
8
1
10
18.707436
20
6.854031
42
0.115746
0
VERTEX
8
1
10
18.639580
20
6.955436
42
-0.002145
0
VERTEX
8
1
10
18.305779
20
7.317171
42
-0.053979
0
VERTEX
8
1
10
18.204308
20
7.463440
42
-0.330504
0
VERTEX
8
1
10
18.212074
20
7.517666
0
VERTEX
8
1
10
18.228584
20
7.533535
42
0.373157
0
VERTEX
8
1
10
18.231377
20
7.583965
42
0.077464
0
VERTEX
8
1
10
18.165051
20
7.668779
42
-0.000952
0
VERTEX
8
1
10
17.754082
20
8.110100
42
-0.193777
0
VERTEX
8
1
10
17.617996
20
8.096127
42
-0.011541
0
VERTEX
8
1
10
17.551552
20
8.165199
42
0.137824
0
VERTEX
8
1
10
17.461853
20
8.207375
42
-0.082098
0
VERTEX
8
1
10
17.425262
20
8.259045
42
-0.075398
0
VERTEX
8
1
10
17.348358
20
8.356803
42
-0.495758
0
VERTEX
8
1
10
17.406769
20
8.438229
42
0.040509
0
VERTEX
8
1
10
17.519485
20
8.454346
42
-0.163771
0
VERTEX
8
1
10
17.651552
20
8.494164
42
-0.010622
0
VERTEX
8
1
10
17.755386
20
8.493744
0
VERTEX
8
1
10
17.734795
20
8.488480
0
VERTEX
8
1
10
17.734413
20
8.486824
42
-0.024742
0
VERTEX
8
1
10
17.770874
20
8.406342
0
VERTEX
8
1
10
17.776230
20
8.402077
42
0.046548
0
VERTEX
8
1
10
18.458115
20
8.553989
0
VERTEX
8
1
10
18.661514
20
8.623219
0
VERTEX
8
1
10
18.872566
20
8.702591
42
0.036331
0
VERTEX
8
1
10
20.837395
20
9.666466
42
0.026010
0
VERTEX
8
1
10
21.368046
20
10.065982
42
0.007487
0
VERTEX
8
1
10
23.213619
20
11.635567
42
0.008865
0
VERTEX
8
1
10
23.541798
20
11.954641
42
-0.045257
0
VERTEX
8
1
10
23.788727
20
12.149380
42
0.045960
0
VERTEX
8
1
10
24.147436
20
12.512448
42
-0.014783
0
VERTEX
8
1
10
24.352448
20
12.729916
0
VERTEX
8
1
10
24.365509
20
12.738235
42
0.101525
0
VERTEX
8
1
10
24.426432
20
13.002588
42
0.104556
0
VERTEX
8
1
10
24.405609
20
13.066677
0
VERTEX
8
1
10
24.383171
20
13.085548
0
VERTEX
8
1
10
24.350853
20
13.094364
0
VERTEX
8
1
10
24.307373
20
13.091221
0
VERTEX
8
1
10
24.237076
20
13.068306
0
VERTEX
8
1
10
24.168503
20
13.035286
42
0.046754
0
VERTEX
8
1
10
23.762932
20
12.756561
42
0.020403
0
SEQEND
0
POLYLINE
8
1
66
1
70
1
0
VERTEX
8
1
10
1.721878
20
11.211193
42
0.001506
0
VERTEX
8
1
10
1.599427
20
11.154441
42
-0.482877
0
VERTEX
8
1
10
1.573494
20
11.180321
42
0.023603
0
VERTEX
8
1
10
1.558258
20
11.309406
42
0.067866
0
VERTEX
8
1
10
1.804703
20
11.609280
0
VERTEX
8
1
10
1.849594
20
11.584312
42
-0.157539
0
VERTEX
8
1
10
2.015518
20
11.439560
42
-0.229033
0
VERTEX
8
1
10
2.053232
20
11.312337
42
-0.345932
0
VERTEX
8
1
10
2.025841
20
11.300728
0
VERTEX
8
1
10
2.011414
20
11.301510
42
0.050188
0
SEQEND
0
POLYLINE
8
1
66
1
70
1
0
VERTEX
8
1
10
2.857040
20
2.424854
42
-0.091774
0
VERTEX
8
1
10
2.998764
20
2.419735
42
-0.086071
0
SEQEND
0
POLYLINE
8
1
66
1
70
1
0
VERTEX
8
1
10
3.259430
20
2.959538
42
-0.035660
0
VERTEX
8
1
10
3.197891
20
2.942701
42
-0.006152
0
VERTEX
8
1
10
3.174321
20
3.458591
42
-0.009136
0
VERTEX
8
1
10
3.186539
20
3.669956
42
-0.011588
0
VERTEX
8
1
10
3.441221
20
3.722784
42
0.010480
0
VERTEX
8
1
10
3.495377
20
3.740265
42
0.117865
0
VERTEX
8
1
10
3.790878
20
3.716888
0
VERTEX
8
1
10
3.800125
20
3.713978
42
-0.141877
0
VERTEX
8
1
10
3.590622
20
3.253597
42
-0.118951
0
VERTEX
8
1
10
3.280843
20
2.968120
0
VERTEX
8
1
10
3.270215
20
2.963634
0
SEQEND
0
POLYLINE
8
1
66
1
70
1
0
VERTEX
8
1
10
21.612946
20
11.699993
0
VERTEX
8
1
10
21.620583
20
11.698315
42
0.482062
0
VERTEX
8
1
10
21.665314
20
11.700264
42
0.076570
0
VERTEX
8
1
10
21.906326
20
11.845188
0
VERTEX
8
1
10
21.924179
20
11.861828
42
0.058065
0
VERTEX
8
1
10
22.147377
20
12.074696
42
-0.030046
0
VERTEX
8
1
10
22.219940
20
12.189083
42
0.043060
0
VERTEX
8
1
10
22.308968
20
12.423328
42
0.099427
0
VERTEX
8
1
10
22.341377
20
12.511078
42
-0.062429
0
VERTEX
8
1
10
22.380478
20
12.578297
0
VERTEX
8
1
10
22.385139
20
12.588963
42
-0.118833
0
VERTEX
8
1
10
22.419456
20
12.693737
42
0.147328
0
VERTEX
8
1
10
22.456150
20
12.925981
42
-0.137259
0
VERTEX
8
1
10
22.466698
20
12.975533
42
0.099484
0
VERTEX
8
1
10
22.464386
20
13.146244
42
-0.376778
0
VERTEX
8
1
10
22.468658
20
13.204708
0
VERTEX
8
1
10
22.470385
20
13.221678
42
-0.086621
0
VERTEX
8
1
10
22.480200
20
13.332224
42
-0.146139
0
VERTEX
8
1
10
22.522203
20
13.373130
0
VERTEX
8
1
10
22.526730
20
13.372596
42
-0.204670
0
VERTEX
8
1
10
22.552071
20
13.326427
42
-0.116358
0
VERTEX
8
1
10
22.587858
20
13.200284
0
VERTEX
8
1
10
22.591265
20
13.186751
42
-0.079955
0
VERTEX
8
1
10
22.601158
20
13.118092
0
VERTEX
8
1
10
22.610695
20
13.120770
0
VERTEX
8
1
10
22.621826
20
13.133217
42
0.058859
0
VERTEX
8
1
10
22.683296
20
13.276337
42
-0.220361
0
VERTEX
8
1
10
22.699402
20
13.330498
42
-0.125768
0
VERTEX
8
1
10
22.767136
20
13.461132
0
VERTEX
8
1
10
22.777725
20
13.461441
0
VERTEX
8
1
10
22.783989
20
13.449257
42
-0.065015
0
VERTEX
8
1
10
22.780960
20
13.270672
0
VERTEX
8
1
10
22.774727
20
13.251987
42
0.183843
0
VERTEX
8
1
10
22.750214
20
13.145512
0
VERTEX
8
1
10
22.749069
20
13.133016
0
VERTEX
8
1
10
22.731146
20
13.087557
42
-0.029252
0
VERTEX
8
1
10
22.645351
20
12.889747
42
0.107008
0
VERTEX
8
1
10
22.629684
20
12.805008
42
0.067987
0
VERTEX
8
1
10
22.592369
20
12.712971
42
0.070315
0
VERTEX
8
1
10
22.542610
20
12.578857
42
0.023737
0
VERTEX
8
1
10
22.488605
20
12.480166
42
-0.105991
0
VERTEX
8
1
10
22.404861
20
12.301354
42
0.161142
0
VERTEX
8
1
10
22.399292
20
12.254932
42
-0.117969
0
VERTEX
8
1
10
22.353699
20
12.199120
42
0.072049
0
VERTEX
8
1
10
22.319725
20
12.122669
0
VERTEX
8
1
10
22.314255
20
12.113644
42
0.167411
0
VERTEX
8
1
10
22.255241
20
11.999886
0
VERTEX
8
1
10
22.248985
20
11.984669
42
0.006748
0
VERTEX
8
1
10
22.141806
20
11.829618
42
-0.107247
0
VERTEX
8
1
10
22.007919
20
11.722935
42
-0.020509
0
VERTEX
8
1
10
21.897926
20
11.651649
42
-0.042098
0
VERTEX
8
1
10
21.763512
20
11.556122
42
-0.005006
0
VERTEX
8
1
10
21.637154
20
11.457661
42
0.117406
0
VERTEX
8
1
10
21.543449
20
11.382381
42
-0.071313
0
VERTEX
8
1
10
21.400146
20
11.275188
42
-0.076188
0
VERTEX
8
1
10
21.346649
20
11.221111
0
VERTEX
8
1
10
21.340523
20
11.225327
0
VERTEX
8
1
10
21.338203
20
11.234959
42
-0.370830
0
VERTEX
8
1
10
21.340294
20
11.272892
0
VERTEX
8
1
10
21.358482
20
11.300793
0
VERTEX
8
1
10
21.362640
20
11.307541
42
0.002195
0
VERTEX
8
1
10
21.516171
20
11.667144
0
VERTEX
8
1
10
21.562309
20
11.713257
42
0.084598
0
SEQEND
0
POLYLINE
8
1
66
1
70
1
0
VERTEX
8
1
10
20.926010
20
11.842880
42
-0.009924
0
VERTEX
8
1
10
21.007347
20
11.821804
42
0.081820
0
VERTEX
8
1
10
21.099312
20
11.853115
42
0.254730
0
VERTEX
8
1
10
21.157784
20
11.872223
42
-0.091209
0
VERTEX
8
1
10
21.235504
20
11.902625
42
-0.660951
0
VERTEX
8
1
10
21.240547
20
11.879406
42
-0.016491
0
VERTEX
8
1
10
21.170929
20
11.819481
0
VERTEX
8
1
10
21.163155
20
11.807709
0
VERTEX
8
1
10
21.163185
20
11.797222
0
VERTEX
8
1
10
21.172470
20
11.797134
0
VERTEX
8
1
10
21.180222
20
11.800045
42
-0.095439
0
VERTEX
8
1
10
21.244156
20
11.845528
0
VERTEX
8
1
10
21.250969
20
11.851788
42
-0.146832
0
VERTEX
8
1
10
21.317596
20
11.909588
0
VERTEX
8
1
10
21.323662
20
11.915874
42
-0.094413
0
VERTEX
8
1
10
21.382935
20
11.986614
0
VERTEX
8
1
10
21.387566
20
11.995190
42
-0.180305
0
VERTEX
8
1
10
21.433243
20
12.074402
42
-0.099065
0
VERTEX
8
1
10
21.361641
20
11.831436
42
-0.163247
0
VERTEX
8
1
10
21.282766
20
11.698244
42
-0.006998
0
VERTEX
8
1
10
21.124666
20
11.542027
42
-0.388617
0
VERTEX
8
1
10
20.991821
20
11.559208
42
0.086573
0
VERTEX
8
1
10
20.952499
20
11.654652
42
0.036592
0
VERTEX
8
1
10
20.909187
20
11.746601
42
-0.226545
0
VERTEX
8
1
10
20.914940
20
11.830441
0
VERTEX
8
1
10
20.916519
20
11.840595
0
SEQEND
0
POLYLINE
8
1
66
1
70
1
0
VERTEX
8
1
10
20.669556
20
11.022831
42
0.066866
0
VERTEX
8
1
10
20.762066
20
11.233019
42
-0.012760
0
VERTEX
8
1
10
20.762671
20
11.383710
0
VERTEX
8
1
10
20.760201
20
11.412563
0
VERTEX
8
1
10
20.753881
20
11.427844
42
0.025865
0
VERTEX
8
1
10
20.709780
20
11.576780
0
VERTEX
8
1
10
20.701004
20
11.610962
42
-0.251699
0
VERTEX
8
1
10
20.678093
20
11.670750
0
VERTEX
8
1
10
20.676033
20
11.676948
42
-0.397392
0
VERTEX
8
1
10
20.678261
20
11.732960
0
VERTEX
8
1
10
20.679749
20
11.739017
42
-0.178871
0
VERTEX
8
1
10
20.737556
20
11.883759
0
VERTEX
8
1
10
20.740570
20
11.879925
42
0.105209
0
VERTEX
8
1
10
20.728037
20
11.715304
42
0.034033
0
VERTEX
8
1
10
20.748528
20
11.672657
42
0.096337
0
VERTEX
8
1
10
20.801628
20
11.521553
42
-0.005829
0
VERTEX
8
1
10
20.851234
20
11.391262
0
VERTEX
8
1
10
20.854645
20
11.372734
42
-0.007239
0
VERTEX
8
1
10
20.853859
20
11.217270
42
-0.073714
0
VERTEX
8
1
10
20.803383
20
11.069477
0
VERTEX
8
1
10
20.793892
20
11.058521
42
0.002499
0
VERTEX
8
1
10
20.740307
20
10.986596
0
VERTEX
8
1
10
20.732437
20
10.976913
42
0.194844
0
VERTEX
8
1
10
20.661003
20
10.936783
0
VERTEX
8
1
10
20.654602
20
10.934628
0
VERTEX
8
1
10
20.638466
20
10.934090
0
VERTEX
8
1
10
20.632530
20
10.940327
0
VERTEX
8
1
10
20.633850
20
10.950962
42
0.020281
0
SEQEND
0
POLYLINE
8
1
66
1
70
1
0
VERTEX
8
1
10
19.925278
20
10.679356
42
-0.020076
0
VERTEX
8
1
10
19.970207
20
10.887230
42
-0.018306
0
VERTEX
8
1
10
19.972298
20
10.976002
42
0.066587
0
VERTEX
8
1
10
19.984055
20
11.014496
0
VERTEX
8
1
10
19.991280
20
11.021507
42
-0.086500
0
VERTEX
8
1
10
20.091232
20
11.030922
42
-0.149726
0
VERTEX
8
1
10
20.151436
20
11.042282
0
VERTEX
8
1
10
20.157120
20
11.044891
0
VERTEX
8
1
10
20.160889
20
11.044647
0
VERTEX
8
1
10
20.149330
20
11.023697
42
0.037115
0
VERTEX
8
1
10
20.088226
20
10.940548
0
VERTEX
8
1
10
20.087036
20
10.916763
0
VERTEX
8
1
10
20.105164
20
10.901886
0
VERTEX
8
1
10
20.114960
20
10.902245
42
0.161620
0
VERTEX
8
1
10
20.236198
20
11.026440
42
-0.049538
0
VERTEX
8
1
10
20.296135
20
11.086517
42
-0.287495
0
VERTEX
8
1
10
20.334557
20
11.082481
42
-0.278741
0
VERTEX
8
1
10
20.319702
20
11.015381
42
0.025412
0
VERTEX
8
1
10
20.259140
20
10.921703
0
VERTEX
8
1
10
20.255836
20
10.907707
0
VERTEX
8
1
10
20.263382
20
10.903297
0
VERTEX
8
1
10
20.278954
20
10.912853
42
0.055171
0
VERTEX
8
1
10
20.399117
20
11.057640
42
0.049835
0
VERTEX
8
1
10
20.446419
20
11.182949
42
-0.115373
0
VERTEX
8
1
10
20.500298
20
11.259880
0
VERTEX
8
1
10
20.511848
20
11.262196
42
-0.127399
0
VERTEX
8
1
10
20.510223
20
11.127064
42
0.310612
0
VERTEX
8
1
10
20.502644
20
11.096977
42
-0.098520
0
VERTEX
8
1
10
20.481514
20
11.017448
42
-0.046548
0
VERTEX
8
1
10
20.391800
20
10.833145
42
-0.062364
0
VERTEX
8
1
10
20.321236
20
10.714046
42
0.469883
0
VERTEX
8
1
10
20.297508
20
10.691811
42
-0.257993
0
VERTEX
8
1
10
20.268143
20
10.673252
42
-0.135483
0
VERTEX
8
1
10
20.210655
20
10.626019
42
-0.094040
0
VERTEX
8
1
10
20.142021
20
10.569065
42
-0.162677
0
VERTEX
8
1
10
20.029198
20
10.506615
42
-0.005666
0
VERTEX
8
1
10
19.964539
20
10.485840
42
-0.220361
0
VERTEX
8
1
10
19.893555
20
10.525761
42
-0.181753
0
VERTEX
8
1
10
19.900673
20
10.570969
42
-0.232178
0
VERTEX
8
1
10
19.916595
20
10.618207
42
0.181625
0
SEQEND
0
POLYLINE
8
1
66
1
70
1
0
VERTEX
8
1
10
19.191307
20
10.863323
0
VERTEX
8
1
10
19.193985
20
10.865349
0
VERTEX
8
1
10
19.195740
20
10.873878
42
0.034838
0
VERTEX
8
1
10
19.310432
20
10.902172
42
0.370554
0
VERTEX
8
1
10
19.542439
20
11.058134
42
-0.086539
0
VERTEX
8
1
10
19.584717
20
11.134258
42
0.021485
0
VERTEX
8
1
10
19.628822
20
11.226948
42
-0.197224
0
VERTEX
8
1
10
19.665909
20
11.309074
42
0.147970
0
VERTEX
8
1
10
19.682907
20
11.359528
42
-0.054476
0
VERTEX
8
1
10
19.722862
20
11.532082
42
-0.146794
0
VERTEX
8
1
10
19.733391
20
11.614353
42
-0.053427
0
VERTEX
8
1
10
19.758163
20
11.739090
0
VERTEX
8
1
10
19.761230
20
11.763485
42
-0.242199
0
VERTEX
8
1
10
19.793007
20
11.824989
42
0.164532
0
VERTEX
8
1
10
19.794662
20
11.873562
42
-0.206078
0
VERTEX
8
1
10
19.813965
20
11.933693
42
0.120993
0
VERTEX
8
1
10
19.830566
20
12.068764
42
-0.131993
0
VERTEX
8
1
10
19.878441
20
12.218037
0
VERTEX
8
1
10
19.891541
20
12.229137
0
VERTEX
8
1
10
19.900368
20
12.223923
42
-0.066359
0
VERTEX
8
1
10
19.888046
20
12.156433
42
-0.214936
0
VERTEX
8
1
10
19.877762
20
12.094925
0
VERTEX
8
1
10
19.876427
20
12.088455
42
-0.189200
0
VERTEX
8
1
10
19.873186
20
12.044884
0
VERTEX
8
1
10
19.866974
20
12.037403
42
-0.074286
0
VERTEX
8
1
10
19.844955
20
11.951977
42
-0.017608
0
VERTEX
8
1
10
19.838509
20
11.866180
42
0.144111
0
VERTEX
8
1
10
19.827316
20
11.809135
42
0.186053
0
VERTEX
8
1
10
19.818390
20
11.761219
42
0.002709
0
VERTEX
8
1
10
19.804474
20
11.595573
0
VERTEX
8
1
10
19.799530
20
11.575466
42
0.136555
0
VERTEX
8
1
10
19.784569
20
11.459339
42
-0.091137
0
VERTEX
8
1
10
19.771095
20
11.384499
42
-0.071645
0
VERTEX
8
1
10
19.765572
20
11.298809
0
VERTEX
8
1
10
19.759613
20
11.281254
42
-0.227509
0
VERTEX
8
1
10
19.744415
20
11.220921
42
0.020953
0
VERTEX
8
1
10
19.717949
20
11.129154
0
VERTEX
8
1
10
19.708931
20
11.114468
42
0.178232
0
VERTEX
8
1
10
19.658867
20
11.022564
42
0.008020
0
VERTEX
8
1
10
19.617817
20
10.959632
42
-0.255717
0
VERTEX
8
1
10
19.598427
20
10.919609
42
0.144406
0
VERTEX
8
1
10
19.513657
20
10.814777
42
-0.173301
0
VERTEX
8
1
10
19.477554
20
10.787704
42
0.307674
0
VERTEX
8
1
10
19.455437
20
10.734749
42
-0.229114
0
VERTEX
8
1
10
19.416420
20
10.677723
42
0.125640
0
VERTEX
8
1
10
19.355209
20
10.577106
42
-0.189871
0
VERTEX
8
1
10
19.331636
20
10.557034
42
0.166807
0
VERTEX
8
1
10
19.286621
20
10.502018
42
-0.377890
0
VERTEX
8
1
10
19.248100
20
10.530869
42
0.123597
0
VERTEX
8
1
10
19.195175
20
10.618214
42
-0.132420
0
VERTEX
8
1
10
19.150940
20
10.725578
42
-0.012439
0
VERTEX
8
1
10
19.126579
20
10.798882
0
VERTEX
8
1
10
19.128494
20
10.812481
0
VERTEX
8
1
10
19.134956
20
10.829525
0
SEQEND
0
POLYLINE
8
1
66
1
70
1
0
VERTEX
8
1
10
18.177727
20
10.401459
42
-0.009906
0
VERTEX
8
1
10
18.334244
20
10.273018
0
VERTEX
8
1
10
18.356224
20
10.265185
42
0.091578
0
VERTEX
8
1
10
18.480837
20
10.235439
0
VERTEX
8
1
10
18.500023
20
10.231659
42
-0.014055
0
VERTEX
8
1
10
18.573967
20
10.243980
42
0.185493
0
VERTEX
8
1
10
18.612923
20
10.292870
42
0.074144
0
VERTEX
8
1
10
18.655861
20
10.365340
42
-0.658023
0
VERTEX
8
1
10
18.688835
20
10.356838
42
-0.100036
0
VERTEX
8
1
10
18.698914
20
10.258339
42
-0.009466
0
VERTEX
8
1
10
18.699097
20
10.166458
0
VERTEX
8
1
10
18.702271
20
10.155098
42
0.271774
0
VERTEX
8
1
10
18.726255
20
10.403112
42
-0.158447
0
VERTEX
8
1
10
18.723770
20
10.449493
0
VERTEX
8
1
10
18.722618
20
10.454967
42
-0.291974
0
VERTEX
8
1
10
18.710617
20
10.508183
42
0.124136
0
VERTEX
8
1
10
18.703085
20
10.547909
42
-0.108003
0
VERTEX
8
1
10
18.700134
20
10.634708
0
VERTEX
8
1
10
18.704651
20
10.638573
42
-0.063041
0
VERTEX
8
1
10
18.776878
20
10.481216
42
-0.177001
0
VERTEX
8
1
10
18.800842
20
10.416527
42
-0.015161
0
VERTEX
8
1
10
18.839317
20
10.279644
42
-0.017418
0
VERTEX
8
1
10
18.839279
20
10.117294
42
0.055698
0
VERTEX
8
1
10
18.825836
20
10.033188
42
-0.029459
0
VERTEX
8
1
10
18.806824
20
9.964952
42
0.375329
0
VERTEX
8
1
10
18.793327
20
9.934784
0
VERTEX
8
1
10
18.781006
20
9.911972
42
-0.379601
0
VERTEX
8
1
10
18.649918
20
9.860344
42
-0.129977
0
VERTEX
8
1
10
18.508560
20
9.932926
42
-0.019712
0
VERTEX
8
1
10
18.358517
20
10.057542
0
VERTEX
8
1
10
18.348307
20
10.072059
42
0.056303
0
VERTEX
8
1
10
18.278763
20
10.186954
0
VERTEX
8
1
10
18.277023
20
10.198505
0
VERTEX
8
1
10
18.284798
20
10.204723
0
VERTEX
8
1
10
18.284683
20
10.208195
0
VERTEX
8
1
10
18.253654
20
10.259869
42
-0.118756
0
VERTEX
8
1
10
18.139137
20
10.383152
42
-0.347182
0
VERTEX
8
1
10
18.109436
20
10.462944
0
VERTEX
8
1
10
18.112198
20
10.474819
42
-0.330498
0
VERTEX
8
1
10
18.135244
20
10.450799
42
0.102085
0
SEQEND
0
POLYLINE
8
1
66
1
70
1
0
VERTEX
8
1
10
17.742409
20
9.706753
0
VERTEX
8
1
10
17.745636
20
9.701481
42
0.401465
0
VERTEX
8
1
10
17.776398
20
9.672813
0
VERTEX
8
1
10
17.779053
20
9.670486
42
0.267810
0
VERTEX
8
1
10
17.827339
20
9.619137
42
0.248792
0
VERTEX
8
1
10
17.848045
20
9.633472
42
-0.167270
0
VERTEX
8
1
10
17.828796
20
9.724010
0
VERTEX
8
1
10
17.834732
20
9.731388
0
VERTEX
8
1
10
17.843597
20
9.731640
42
-0.143401
0
VERTEX
8
1
10
17.915298
20
9.644543
42
-0.039699
0
VERTEX
8
1
10
17.966263
20
9.566029
0
VERTEX
8
1
10
17.984201
20
9.546559
42
-0.000028
0
VERTEX
8
1
10
18.066616
20
9.468681
42
0.184627
0
VERTEX
8
1
10
18.140436
20
9.438695
42
0.273645
0
VERTEX
8
1
10
18.157837
20
9.457272
42
0.056437
0
VERTEX
8
1
10
18.095818
20
9.610165
42
0.049536
0
VERTEX
8
1
10
18.007818
20
9.786916
42
-0.266531
0
VERTEX
8
1
10
18.020622
20
9.876698
0
VERTEX
8
1
10
18.036041
20
9.883209
42
-0.216648
0
VERTEX
8
1
10
18.110847
20
9.814091
42
0.056216
0
VERTEX
8
1
10
18.186531
20
9.736721
42
0.097819
0
VERTEX
8
1
10
18.240044
20
9.683849
42
-0.329105
0
VERTEX
8
1
10
18.274742
20
9.657330
42
0.085386
0
VERTEX
8
1
10
18.326591
20
9.615562
42
0.141916
0
VERTEX
8
1
10
18.438461
20
9.539227
42
-0.019292
0
VERTEX
8
1
10
18.584709
20
9.483917
42
-0.553139
0
VERTEX
8
1
10
18.584984
20
9.369099
42
0.088639
0
VERTEX
8
1
10
18.532730
20
9.312298
42
-0.063722
0
VERTEX
8
1
10
18.419579
20
9.214901
0
VERTEX
8
1
10
18.409073
20
9.211851
0
VERTEX
8
1
10
18.398155
20
9.211147
42
0.132190
0
VERTEX
8
1
10
18.374245
20
9.178078
0
VERTEX
8
1
10
18.369019
20
9.174229
42
0.187795
0
VERTEX
8
1
10
18.310143
20
9.143917
42
-0.166779
0
VERTEX
8
1
10
18.229431
20
9.132710
42
0.208820
0
VERTEX
8
1
10
18.183151
20
9.109341
0
VERTEX
8
1
10
18.177689
20
9.107864
42
0.158467
0
VERTEX
8
1
10
18.109039
20
9.099686
0
VERTEX
8
1
10
18.101387
20
9.099316
42
0.182592
0
VERTEX
8
1
10
18.053772
20
9.108124
42
-0.379729
0
VERTEX
8
1
10
17.920856
20
9.237833
42
0.093724
0
VERTEX
8
1
10
17.901764
20
9.292751
42
0.094347
0
VERTEX
8
1
10
17.873207
20
9.397564
42
0.030838
0
VERTEX
8
1
10
17.806183
20
9.546261
42
0.001918
0
VERTEX
8
1
10
17.779633
20
9.627907
0
VERTEX
8
1
10
17.756706
20
9.650833
0
VERTEX
8
1
10
17.756081
20
9.650162
0
VERTEX
8
1
10
17.753807
20
9.641205
0
VERTEX
8
1
10
17.742088
20
9.645802
42
-0.216762
0
VERTEX
8
1
10
17.711876
20
9.744564
42
-0.081801
0
SEQEND
0
POLYLINE
8
1
66
1
70
1
0
VERTEX
8
1
10
16.874054
20
10.355830
42
-0.025849
0
VERTEX
8
1
10
16.870352
20
10.609899
42
-0.252220
0
VERTEX
8
1
10
16.904243
20
10.654572
42
-0.324522
0
VERTEX
8
1
10
16.947777
20
10.621422
42
0.026577
0
VERTEX
8
1
10
17.063034
20
10.385597
0
VERTEX
8
1
10
17.062103
20
10.401134
42
-0.026413
0
VERTEX
8
1
10
17.093735
20
10.581081
0
VERTEX
8
1
10
17.098877
20
10.587776
42
-0.216358
0
VERTEX
8
1
10
17.124512
20
10.549020
42
-0.125928
0
VERTEX
8
1
10
17.143257
20
10.393528
42
0.083803
0
VERTEX
8
1
10
17.162575
20
10.277634
42
-0.066731
0
VERTEX
8
1
10
17.166027
20
9.945562
42
-0.049939
0
VERTEX
8
1
10
17.150291
20
9.895115
0
VERTEX
8
1
10
17.155640
20
9.905331
42
-0.060513
0
VERTEX
8
1
10
17.189919
20
9.988605
0
VERTEX
8
1
10
17.197495
20
9.996124
0
VERTEX
8
1
10
17.209198
20
9.981552
0
VERTEX
8
1
10
17.218010
20
9.955128
42
-0.075080
0
VERTEX
8
1
10
17.212326
20
9.532379
42
-0.282260
0
VERTEX
8
1
10
17.118294
20
9.466106
42
-0.337595
0
VERTEX
8
1
10
17.022446
20
9.499886
42
-0.059764
0
VERTEX
8
1
10
16.896095
20
9.734779
42
-0.018290
0
VERTEX
8
1
10
16.855736
20
9.971792
42
0.086584
0
VERTEX
8
1
10
16.820633
20
10.054581
0
VERTEX
8
1
10
16.874054
20
10.099209
0
SEQEND
0
POLYLINE
8
1
66
1
70
1
0
VERTEX
8
1
10
17.094673
20
9.439705
42
-0.103194
0
VERTEX
8
1
10
17.054733
20
9.454201
42
-0.042207
0
VERTEX
8
1
10
17.088150
20
9.450665
42
0.049047
0
SEQEND
0
POLYLINE
8
1
66
1
70
1
0
VERTEX
8
1
10
16.229134
20
10.241634
42
-0.111422
0
VERTEX
8
1
10
16.269781
20
10.182165
42
0.001105
0
VERTEX
8
1
10
16.331284
20
10.072529
42
-0.030499
0
VERTEX
8
1
10
16.405266
20
9.971344
42
-0.242608
0
VERTEX
8
1
10
16.433258
20
9.932098
42
0.017149
0
VERTEX
8
1
10
16.528854
20
9.794003
42
0.106955
0
VERTEX
8
1
10
16.584641
20
9.716167
0
VERTEX
8
1
10
16.599533
20
9.710552
0
VERTEX
8
1
10
16.609566
20
9.715134
0
VERTEX
8
1
10
16.612007
20
9.728626
42
0.131754
0
VERTEX
8
1
10
16.542519
20
9.879627
42
-0.064491
0
VERTEX
8
1
10
16.437347
20
10.088310
42
0.124371
0
VERTEX
8
1
10
16.424278
20
10.159930
42
-0.001049
0
VERTEX
8
1
10
16.426277
20
10.268974
42
0.122142
0
VERTEX
8
1
10
16.436829
20
10.397087
0
VERTEX
8
1
10
16.436073
20
10.417496
42
-0.309503
0
VERTEX
8
1
10
16.471748
20
10.498966
0
VERTEX
8
1
10
16.488312
20
10.501251
0
VERTEX
8
1
10
16.506439
20
10.495342
42
-0.203028
0
VERTEX
8
1
10
16.554825
20
10.405319
0
VERTEX
8
1
10
16.565826
20
10.405319
0
VERTEX
8
1
10
16.566246
20
10.400787
42
0.120235
0
VERTEX
8
1
10
16.614372
20
10.181567
42
-0.006893
0
VERTEX
8
1
10
16.700745
20
9.911556
42
0.189978
0
VERTEX
8
1
10
16.717316
20
9.857174
42
0.175667
0
VERTEX
8
1
10
16.730064
20
9.800430
42
0.103591
0
VERTEX
8
1
10
16.752024
20
9.708793
42
0.105307
0
VERTEX
8
1
10
16.778442
20
9.642231
42
0.177880
0
VERTEX
8
1
10
16.931808
20
9.391809
42
0.043587
0
VERTEX
8
1
10
17.065300
20
9.295452
42
-0.044717
0
VERTEX
8
1
10
17.146797
20
9.274667
42
0.001099
0
VERTEX
8
1
10
17.241333
20
9.289013
42
0.119042
0
VERTEX
8
1
10
17.309715
20
9.342007
0
VERTEX
8
1
10
17.320351
20
9.350456
0
VERTEX
8
1
10
17.330421
20
9.353951
0
VERTEX
8
1
10
17.333527
20
9.340099
0
VERTEX
8
1
10
17.332199
20
9.327225
42
-0.286932
0
VERTEX
8
1
10
17.249557
20
9.271378
42
-0.012049
0
VERTEX
8
1
10
17.126915
20
9.250679
42
0.032225
0
VERTEX
8
1
10
17.028130
20
9.251137
0
VERTEX
8
1
10
17.015976
20
9.245548
42
0.248308
0
VERTEX
8
1
10
17.069847
20
9.201675
42
0.096276
0
VERTEX
8
1
10
17.177574
20
9.176964
42
0.188861
0
VERTEX
8
1
10
17.242577
20
9.168522
0
VERTEX
8
1
10
17.242752
20
9.165195
0
VERTEX
8
1
10
17.237297
20
9.160675
42
0.005513
0
VERTEX
8
1
10
17.175217
20
9.143856
42
0.008421
0
VERTEX
8
1
10
17.036369
20
9.144073
0
VERTEX
8
1
10
17.017334
20
9.146996
42
0.353101
0
VERTEX
8
1
10
16.988541
20
9.157093
42
-0.171226
0
VERTEX
8
1
10
16.931541
20
9.166111
42
-0.129154
0
VERTEX
8
1
10
16.741695
20
9.288154
42
-0.077256
0
VERTEX
8
1
10
16.648727
20
9.411850
42
-0.031500
0
VERTEX
8
1
10
16.526850
20
9.582725
0
VERTEX
8
1
10
16.505234
20
9.621677
42
-0.032891
0
VERTEX
8
1
10
16.365013
20
9.870922
42
-0.039484
0
VERTEX
8
1
10
16.258827
20
10.063953
0
VERTEX
8
1
10
16.242188
20
10.091892
0
VERTEX
8
1
10
16.226288
20
10.114567
42
-0.019810
0
VERTEX
8
1
10
16.196068
20
10.220093
0
VERTEX
8
1
10
16.188759
20
10.234142
42
-0.224179
0
VERTEX
8
1
10
16.167969
20
10.307228
42
0.033089
0
SEQEND
0
POLYLINE
8
1
66
1
70
1
0
VERTEX
8
1
10
15.958290
20
9.971447
42
0.032718
0
VERTEX
8
1
10
15.913345
20
10.035809
42
0.115162
0
VERTEX
8
1
10
15.869484
20
10.113297
42
-0.047801
0
VERTEX
8
1
10
15.784180
20
10.255473
42
0.042020
0
VERTEX
8
1
10
15.721614
20
10.331283
42
-0.083333
0
VERTEX
8
1
10
15.687141
20
10.401634
0
VERTEX
8
1
10
15.678177
20
10.420376
42
-0.060894
0
VERTEX
8
1
10
15.607384
20
10.554527
0
VERTEX
8
1
10
15.582385
20
10.595936
42
-0.001218
0
VERTEX
8
1
10
15.488564
20
10.767809
42
-0.096744
0
VERTEX
8
1
10
15.455322
20
10.889668
0
VERTEX
8
1
10
15.461670
20
10.922714
0
VERTEX
8
1
10
15.465400
20
10.922762
42
-0.092313
0
VERTEX
8
1
10
15.510069
20
10.884254
42
-0.105253
0
VERTEX
8
1
10
15.634636
20
10.687817
42
0.027321
0
VERTEX
8
1
10
15.685898
20
10.610825
0
VERTEX
8
1
10
15.688744
20
10.601768
42
0.327118
0
VERTEX
8
1
10
15.726189
20
10.533779
42
-0.245724
0
VERTEX
8
1
10
15.757469
20
10.473606
42
0.097377
0
VERTEX
8
1
10
15.803070
20
10.407402
42
-0.011755
0
VERTEX
8
1
10
15.878494
20
10.290230
0
VERTEX
8
1
10
15.894524
20
10.272404
42
-0.136467
0
VERTEX
8
1
10
15.961418
20
10.175827
42
-0.095667
0
VERTEX
8
1
10
16.017731
20
10.082001
0
VERTEX
8
1
10
16.028763
20
10.063839
42
-0.038451
0
VERTEX
8
1
10
16.187973
20
9.819038
0
VERTEX
8
1
10
16.210627
20
9.790249
42
-0.055564
0
VERTEX
8
1
10
16.345528
20
9.527653
42
-0.105182
0
VERTEX
8
1
10
16.404678
20
9.444336
0
VERTEX
8
1
10
16.423018
20
9.420280
42
0.003425
0
VERTEX
8
1
10
16.534782
20
9.239586
0
VERTEX
8
1
10
16.556936
20
9.222289
42
0.062010
0
VERTEX
8
1
10
16.675613
20
9.146681
42
0.065477
0
VERTEX
8
1
10
16.792109
20
9.094397
42
0.021254
0
VERTEX
8
1
10
16.878014
20
9.062614
42
-0.084464
0
VERTEX
8
1
10
16.977394
20
9.043720
0
VERTEX
8
1
10
17.003557
20
9.040104
42
0.120682
0
VERTEX
8
1
10
17.261864
20
9.040180
0
VERTEX
8
1
10
17.283653
20
9.049019
0
VERTEX
8
1
10
17.302162
20
9.060432
42
0.183025
0
VERTEX
8
1
10
17.429001
20
9.304482
42
-0.021365
0
VERTEX
8
1
10
17.427498
20
9.494102
42
0.306038
0
VERTEX
8
1
10
17.426155
20
9.555054
0
VERTEX
8
1
10
17.424805
20
9.564571
0
VERTEX
8
1
10
17.424667
20
9.575378
42
0.222296
0
VERTEX
8
1
10
17.407310
20
9.658092
42
-0.130968
0
VERTEX
8
1
10
17.406454
20
9.739826
42
0.209104
0
VERTEX
8
1
10
17.390656
20
9.778019
42
-0.272303
0
VERTEX
8
1
10
17.398949
20
9.803249
42
0.140694
0
VERTEX
8
1
10
17.390574
20
9.987679
0
VERTEX
8
1
10
17.389614
20
10.003679
0
VERTEX
8
1
10
17.391083
20
10.019642
42
-0.068041
0
VERTEX
8
1
10
17.376808
20
10.131546
42
-0.033782
0
VERTEX
8
1
10
17.365059
20
10.268520
42
0.053079
0
VERTEX
8
1
10
17.332870
20
10.399918
42
-0.038565
0
VERTEX
8
1
10
17.332298
20
10.499428
0
VERTEX
8
1
10
17.343307
20
10.488434
42
0.325110
0
VERTEX
8
1
10
17.355766
20
10.494175
42
-0.296547
0
VERTEX
8
1
10
17.366203
20
10.455723
0
VERTEX
8
1
10
17.378014
20
10.416672
42
0.003372
0
VERTEX
8
1
10
17.439913
20
10.258368
0
VERTEX
8
1
10
17.449249
20
10.245422
42
0.022129
0
VERTEX
8
1
10
17.473101
20
10.154492
42
0.099625
0
VERTEX
8
1
10
17.525736
20
9.955929
42
-0.097795
0
VERTEX
8
1
10
17.531448
20
9.888973
42
0.047843
0
VERTEX
8
1
10
17.563915
20
9.776978
0
VERTEX
8
1
10
17.568207
20
9.771027
42
0.125419
0
VERTEX
8
1
10
17.579781
20
9.699276
42
-0.008915
0
VERTEX
8
1
10
17.606049
20
9.523033
42
-0.179643
0
VERTEX
8
1
10
17.615318
20
9.467491
42
-0.113250
0
VERTEX
8
1
10
17.626549
20
9.355644
42
-0.165499
0
VERTEX
8
1
10
17.639687
20
9.231091
42
-0.028437
0
VERTEX
8
1
10
17.635757
20
9.099491
42
0.085096
0
VERTEX
8
1
10
17.624962
20
9.051613
42
-0.130037
0
VERTEX
8
1
10
17.585960
20
9.010162
42
0.011408
0
VERTEX
8
1
10
17.556032
20
8.954505
42
-0.206164
0
VERTEX
8
1
10
17.523682
20
8.942249
42
-0.056792
0
VERTEX
8
1
10
17.514687
20
8.911278
0
VERTEX
8
1
10
17.498461
20
8.903283
42
0.013401
0
VERTEX
8
1
10
17.425276
20
8.872252
0
VERTEX
8
1
10
17.412813
20
8.869556
42
0.081577
0
VERTEX
8
1
10
17.291265
20
8.866796
0
VERTEX
8
1
10
17.267944
20
8.860355
42
0.039970
0
VERTEX
8
1
10
17.177994
20
8.859474
42
-0.330479
0
VERTEX
8
1
10
17.132065
20
8.858532
42
0.130538
0
VERTEX
8
1
10
17.072334
20
8.852558
0
VERTEX
8
1
10
17.063812
20
8.852341
42
0.183206
0
VERTEX
8
1
10
17.004501
20
8.861347
42
-0.100256
0
VERTEX
8
1
10
16.732086
20
8.958485
42
-0.067028
0
VERTEX
8
1
10
16.618439
20
9.006416
0
VERTEX
8
1
10
16.580986
20
9.023438
42
-0.193348
0
VERTEX
8
1
10
16.493988
20
9.106037
42
-0.166624
0
VERTEX
8
1
10
16.446083
20
9.148535
42
-0.020401
0
VERTEX
8
1
10
16.405342
20
9.205505
0
VERTEX
8
1
10
16.382526
20
9.227530
42
-0.059721
0
VERTEX
8
1
10
16.156067
20
9.565384
0
VERTEX
8
1
10
16.128658
20
9.612699
42
-0.016361
0
VERTEX
8
1
10
15.992980
20
9.911675
0
VERTEX
8
1
10
15.976522
20
9.942076
0
SEQEND
0
POLYLINE
8
1
66
1
70
1
0
VERTEX
8
1
10
16.582664
20
5.109280
42
-0.036080
0
VERTEX
8
1
10
16.618019
20
4.957878
0
VERTEX
8
1
10
16.617508
20
4.933502
0
VERTEX
8
1
10
16.612473
20
4.913067
42
-0.150850
0
VERTEX
8
1
10
16.572563
20
4.954895
42
0.013044
0
VERTEX
8
1
10
16.465195
20
5.041992
42
-0.006847
0
VERTEX
8
1
10
16.432388
20
5.105694
0
VERTEX
8
1
10
16.426414
20
5.105698
42
0.051498
0
VERTEX
8
1
10
16.422752
20
4.908749
42
0.085307
0
VERTEX
8
1
10
16.426090
20
4.792979
42
0.110248
0
VERTEX
8
1
10
16.438072
20
4.778240
0
VERTEX
8
1
10
16.439018
20
4.769382
42
0.163984
0
VERTEX
8
1
10
16.464027
20
4.647881
42
-0.034580
0
VERTEX
8
1
10
16.486031
20
4.565249
42
-0.251771
0
VERTEX
8
1
10
16.501427
20
4.535069
0
VERTEX
8
1
10
16.499557
20
4.488831
42
0.053882
0
VERTEX
8
1
10
16.521164
20
4.426315
42
-0.243294
0
VERTEX
8
1
10
16.511017
20
4.388840
0
VERTEX
8
1
10
16.493111
20
4.398556
42
-0.156575
0
VERTEX
8
1
10
16.418373
20
4.556351
42
-0.110382
0
VERTEX
8
1
10
16.387413
20
4.568413
42
0.242283
0
VERTEX
8
1
10
16.355003
20
4.631172
0
VERTEX
8
1
10
16.347855
20
4.627705
42
0.144229
0
VERTEX
8
1
10
16.371357
20
4.357378
0
VERTEX
8
1
10
16.384554
20
4.306751
42
0.021435
0
VERTEX
8
1
10
16.445360
20
4.096536
42
-0.042599
0
VERTEX
8
1
10
16.463158
20
4.005322
0
VERTEX
8
1
10
16.458290
20
4.000298
42
-0.126611
0
VERTEX
8
1
10
16.398003
20
4.131210
42
-0.019616
0
VERTEX
8
1
10
16.370560
20
4.139187
42
0.176241
0
VERTEX
8
1
10
16.332085
20
4.211205
42
-0.108242
0
VERTEX
8
1
10
16.295740
20
4.307464
42
0.206902
0
VERTEX
8
1
10
16.267273
20
4.335831
0
VERTEX
8
1
10
16.248253
20
4.409218
42
0.151906
0
VERTEX
8
1
10
16.227119
20
4.502258
42
-0.123289
0
VERTEX
8
1
10
16.208588
20
4.600967
42
0.100823
0
VERTEX
8
1
10
16.189848
20
4.730370
42
-0.001046
0
VERTEX
8
1
10
16.188826
20
4.952933
0
VERTEX
8
1
10
16.191689
20
4.973557
0
VERTEX
8
1
10
16.201340
20
4.980370
42
-0.084221
0
VERTEX
8
1
10
16.250072
20
4.918819
42
0.435298
0
VERTEX
8
1
10
16.284821
20
4.919876
42
0.204640
0
VERTEX
8
1
10
16.311172
20
5.012633
42
-0.045683
0
VERTEX
8
1
10
16.318794
20
5.378128
42
0.014143
0
VERTEX
8
1
10
16.325340
20
5.563030
42
-0.055926
0
VERTEX
8
1
10
16.350121
20
5.442024
42
0.082056
0
VERTEX
8
1
10
16.417511
20
5.247375
0
VERTEX
8
1
10
16.431717
20
5.229931
0
VERTEX
8
1
10
16.446518
20
5.222233
0
VERTEX
8
1
10
16.461548
20
5.227566
42
0.196536
0
VERTEX
8
1
10
16.482567
20
5.323353
42
-0.103784
0
VERTEX
8
1
10
16.498314
20
5.475994
42
-0.631340
0
VERTEX
8
1
10
16.540779
20
5.471565
42
-0.015952
0
VERTEX
8
1
10
16.560413
20
5.403562
42
0.162808
0
VERTEX
8
1
10
16.607178
20
5.356640
0
VERTEX
8
1
10
16.615774
20
5.348078
42
-0.003946
0
VERTEX
8
1
10
16.619678
20
5.846932
42
-0.044943
0
VERTEX
8
1
10
16.636589
20
5.890957
0
VERTEX
8
1
10
16.636147
20
5.899181
42
-0.116508
0
VERTEX
8
1
10
16.683495
20
5.782791
42
0.084144
0
VERTEX
8
1
10
16.722292
20
5.664170
0
VERTEX
8
1
10
16.733368
20
5.647255
42
0.038824
0
VERTEX
8
1
10
16.770576
20
5.561874
0
VERTEX
8
1
10
16.790573
20
5.539627
0
VERTEX
8
1
10
16.807411
20
5.531742
0
VERTEX
8
1
10
16.818481
20
5.539600
42
0.081049
0
VERTEX
8
1
10
16.831856
20
5.649078
0
VERTEX
8
1
10
16.834213
20
5.676094
42
0.265390
0
VERTEX
8
1
10
16.851311
20
5.736752
42
-0.178424
0
VERTEX
8
1
10
16.882790
20
5.877369
42
-0.182056
0
VERTEX
8
1
10
16.907303
20
5.826195
42
0.042877
0
VERTEX
8
1
10
16.940765
20
5.665340
42
-0.056362
0
VERTEX
8
1
10
17.007790
20
5.538979
0
VERTEX
8
1
10
17.023083
20
5.514689
42
-0.106733
0
VERTEX
8
1
10
17.060478
20
5.408099
42
0.144677
0
VERTEX
8
1
10
17.095205
20
5.358105
42
-0.117560
0
VERTEX
8
1
10
17.100319
20
5.341050
42
-0.217588
0
VERTEX
8
1
10
16.980469
20
5.363335
42
0.054068
0
VERTEX
8
1
10
16.802057
20
5.456806
42
0.395395
0
VERTEX
8
1
10
16.777916
20
5.440510
42
0.147723
0
VERTEX
8
1
10
16.798271
20
5.268375
42
-0.120230
0
VERTEX
8
1
10
16.805374
20
5.172318
0
VERTEX
8
1
10
16.799202
20
5.165112
0
VERTEX
8
1
10
16.790291
20
5.162865
42
-0.121527
0
VERTEX
8
1
10
16.694817
20
5.217045
42
0.153471
0
VERTEX
8
1
10
16.593147
20
5.235195
42
0.282240
0
VERTEX
8
1
10
16.574066
20
5.175659
42
0.034079
0
SEQEND
0
POLYLINE
8
1
66
1
70
1
0
VERTEX
8
1
10
16.615097
20
2.954639
42
-0.114827
0
VERTEX
8
1
10
16.653229
20
2.780560
42
-0.118858
0
VERTEX
8
1
10
16.651655
20
2.666010
42
-0.536678
0
VERTEX
8
1
10
16.603127
20
2.659302
42
0.121483
0
VERTEX
8
1
10
16.489296
20
2.701756
42
-0.041767
0
VERTEX
8
1
10
16.398178
20
2.744232
0
VERTEX
8
1
10
16.385735
20
2.747158
0
VERTEX
8
1
10
16.375534
20
2.731712
42
0.156968
0
VERTEX
8
1
10
16.401993
20
2.612072
42
-0.036341
0
VERTEX
8
1
10
16.480831
20
2.451942
42
-0.648302
0
VERTEX
8
1
10
16.436539
20
2.425442
0
VERTEX
8
1
10
16.424194
20
2.432205
42
0.088526
0
VERTEX
8
1
10
16.277899
20
2.512075
42
0.010079
0
VERTEX
8
1
10
16.190865
20
2.546783
42
0.491997
0
VERTEX
8
1
10
16.179413
20
2.529900
42
0.191521
0
VERTEX
8
1
10
16.249138
20
2.354191
0
VERTEX
8
1
10
16.251450
20
2.348461
42
0.287886
0
VERTEX
8
1
10
16.277756
20
2.276035
42
-0.217190
0
VERTEX
8
1
10
16.306053
20
2.216469
42
-0.507336
0
VERTEX
8
1
10
16.247444
20
2.198383
42
-0.041982
0
VERTEX
8
1
10
15.884178
20
2.428089
42
-0.018763
0
VERTEX
8
1
10
15.775604
20
2.558777
0
VERTEX
8
1
10
15.762192
20
2.569489
0
VERTEX
8
1
10
15.752655
20
2.566139
42
0.070816
0
VERTEX
8
1
10
15.750888
20
2.449663
42
-0.053476
0
VERTEX
8
1
10
15.745239
20
2.404610
0
VERTEX
8
1
10
15.732254
20
2.405075
0
VERTEX
8
1
10
15.717621
20
2.413231
0
VERTEX
8
1
10
15.702812
20
2.425030
42
-0.046656
0
VERTEX
8
1
10
15.555962
20
2.606102
42
0.184185
0
VERTEX
8
1
10
15.502686
20
2.631351
42
0.004935
0
VERTEX
8
1
10
15.469599
20
2.689719
42
-0.033906
0
VERTEX
8
1
10
15.360435
20
2.819412
0
VERTEX
8
1
10
15.354538
20
2.823105
42
-0.078927
0
VERTEX
8
1
10
15.328690
20
2.740700
42
0.070943
0
VERTEX
8
1
10
15.326364
20
2.606861
42
-0.065837
0
VERTEX
8
1
10
15.317940
20
2.558109
42
-0.024871
0
VERTEX
8
1
10
15.136627
20
2.807983
42
0.023126
0
VERTEX
8
1
10
15.001701
20
3.061241
42
0.039294
0
VERTEX
8
1
10
14.970932
20
3.143711
42
0.594461
0
VERTEX
8
1
10
14.921692
20
3.132187
42
0.002321
0
VERTEX
8
1
10
14.872617
20
2.979888
0
VERTEX
8
1
10
14.871374
20
2.970774
0
VERTEX
8
1
10
14.870544
20
2.961613
42
-0.124507
0
VERTEX
8
1
10
14.804512
20
3.100376
42
-0.029645
0
VERTEX
8
1
10
14.720689
20
3.407496
42
0.107289
0
VERTEX
8
1
10
14.698013
20
3.439490
42
-0.092316
0
VERTEX
8
1
10
14.694748
20
3.452499
0
VERTEX
8
1
10
14.697342
20
3.502438
42
0.072584
0
VERTEX
8
1
10
14.671318
20
3.545902
0
VERTEX
8
1
10
14.669685
20
3.553043
0
VERTEX
8
1
10
14.672211
20
3.602886
42
0.277186
0
VERTEX
8
1
10
14.631783
20
3.649574
0
VERTEX
8
1
10
14.624741
20
3.646652
42
-0.006387
0
VERTEX
8
1
10
14.615578
20
3.561539
42
-0.294154
0
VERTEX
8
1
10
14.579971
20
3.531097
42
-0.096564
0
VERTEX
8
1
10
14.545829
20
3.758117
42
-0.014323
0
VERTEX
8
1
10
14.548477
20
3.945412
42
0.086875
0
VERTEX
8
1
10
14.570129
20
4.176868
42
-0.010382
0
VERTEX
8
1
10
14.572121
20
4.260361
0
VERTEX
8
1
10
14.620087
20
4.428173
42
0.028285
0
VERTEX
8
1
10
14.621628
20
4.452988
0
VERTEX
8
1
10
14.623520
20
4.429871
42
-0.217842
0
VERTEX
8
1
10
14.600754
20
4.336506
42
0.286600
0
VERTEX
8
1
10
14.616844
20
4.246670
42
-0.128828
0
VERTEX
8
1
10
14.620621
20
4.153511
42
0.122643
0
VERTEX
8
1
10
14.642349
20
4.048210
42
-0.143620
0
VERTEX
8
1
10
14.639927
20
3.951554
42
0.271553
0
VERTEX
8
1
10
14.665939
20
3.902542
42
0.201067
0
VERTEX
8
1
10
14.720922
20
3.942487
42
-0.265277
0
VERTEX
8
1
10
14.784073
20
3.955654
0
VERTEX
8
1
10
14.795609
20
3.944866
0
VERTEX
8
1
10
14.799004
20
3.928196
42
-0.070129
0
VERTEX
8
1
10
14.769867
20
3.829578
0
VERTEX
8
1
10
14.768074
20
3.818710
42
0.034697
0
VERTEX
8
1
10
14.776855
20
3.690243
42
-0.113349
0
VERTEX
8
1
10
14.798630
20
3.560455
0
VERTEX
8
1
10
14.799828
20
3.539841
42
0.084749
0
VERTEX
8
1
10
14.859874
20
3.369132
42
0.234888
0
VERTEX
8
1
10
14.891991
20
3.356960
42
-0.291161
0
VERTEX
8
1
10
14.974312
20
3.452923
42
-0.298304
0
VERTEX
8
1
10
15.032646
20
3.413197
42
-0.011113
0
VERTEX
8
1
10
15.089294
20
3.252197
42
0.038217
0
VERTEX
8
1
10
15.125870
20
3.090893
42
0.055166
0
VERTEX
8
1
10
15.206673
20
2.979111
42
0.368971
0
VERTEX
8
1
10
15.248218
20
3.049067
42
-0.069674
0
VERTEX
8
1
10
15.250205
20
3.140878
42
-0.170600
0
VERTEX
8
1
10
15.266418
20
3.156673
42
-0.059725
0
VERTEX
8
1
10
15.284819
20
3.233136
42
-0.587747
0
VERTEX
8
1
10
15.361778
20
3.225025
42
-0.100643
0
VERTEX
8
1
10
15.397881
20
3.121761
0
VERTEX
8
1
10
15.413344
20
3.074738
42
0.012956
0
VERTEX
8
1
10
15.505124
20
2.870120
42
0.116966
0
VERTEX
8
1
10
15.597357
20
2.772457
42
0.483646
0
VERTEX
8
1
10
15.656166
20
2.813942
42
-0.231143
0
VERTEX
8
1
10
15.702942
20
2.875130
0
VERTEX
8
1
10
15.707832
20
2.873116
42
0.028523
0
VERTEX
8
1
10
15.860911
20
2.629916
42
0.000583
0
VERTEX
8
1
10
15.995316
20
2.490545
0
VERTEX
8
1
10
16.000900
20
2.493004
42
-0.063062
0
VERTEX
8
1
10
15.998940
20
2.676300
42
-0.061801
0
VERTEX
8
1
10
16.044373
20
2.759396
0
VERTEX
8
1
10
16.050835
20
2.773964
0
VERTEX
8
1
10
16.055016
20
2.789433
0
VERTEX
8
1
10
16.069168
20
2.794548
42
-0.139189
0
VERTEX
8
1
10
16.157379
20
2.705284
42
0.085307
0
VERTEX
8
1
10
16.222290
20
2.635796
0
VERTEX
8
1
10
16.246391
20
2.628590
42
0.072215
0
VERTEX
8
1
10
16.252167
20
2.795007
42
-0.081606
0
VERTEX
8
1
10
16.251595
20
2.908417
0
VERTEX
8
1
10
16.266098
20
2.923771
42
-0.200574
0
VERTEX
8
1
10
16.350555
20
2.875504
42
0.185201
0
VERTEX
8
1
10
16.438843
20
2.835873
42
-0.139003
0
VERTEX
8
1
10
16.474068
20
2.814499
0
VERTEX
8
1
10
16.479324
20
2.826267
42
0.113539
0
VERTEX
8
1
10
16.432060
20
2.968891
42
-0.097519
0
VERTEX
8
1
10
16.392326
20
3.105244
42
0.172212
0
VERTEX
8
1
10
16.357834
20
3.157260
42
-0.559677
0
VERTEX
8
1
10
16.389080
20
3.236790
42
-0.070680
0
VERTEX
8
1
10
16.441917
20
3.257401
42
0.276534
0
VERTEX
8
1
10
16.455116
20
3.312263
0
VERTEX
8
1
10
16.452095
20
3.342457
42
0.117499
0
VERTEX
8
1
10
16.411970
20
3.512206
42
-0.077490
0
VERTEX
8
1
10
16.376076
20
3.668087
0
VERTEX
8
1
10
16.378761
20
3.694298
0
VERTEX
8
1
10
16.396927
20
3.698925
42
-0.095439
0
VERTEX
8
1
10
16.490662
20
3.611984
0
VERTEX
8
1
10
16.511620
20
3.592010
0
VERTEX
8
1
10
16.530144
20
3.581909
0
VERTEX
8
1
10
16.545540
20
3.586250
42
0.311484
0
VERTEX
8
1
10
16.544132
20
3.656713
0
VERTEX
8
1
10
16.536316
20
3.667927
42
-0.088298
0
VERTEX
8
1
10
16.529488
20
3.748672
42
0.024867
0
VERTEX
8
1
10
16.503349
20
3.824913
42
-0.126007
0
VERTEX
8
1
10
16.505836
20
3.873260
0
VERTEX
8
1
10
16.514748
20
3.873226
0
VERTEX
8
1
10
16.534262
20
3.853025
42
-0.125763
0
VERTEX
8
1
10
16.627739
20
3.678677
0
VERTEX
8
1
10
16.640022
20
3.651573
0
VERTEX
8
1
10
16.654434
20
3.625538
42
0.090932
0
VERTEX
8
1
10
16.698212
20
3.512489
42
-0.166291
0
VERTEX
8
1
10
16.697914
20
3.441299
0
VERTEX
8
1
10
16.688362
20
3.429535
42
-0.175416
0
VERTEX
8
1
10
16.621048
20
3.442890
0
VERTEX
8
1
10
16.600883
20
3.448193
0
VERTEX
8
1
10
16.580948
20
3.449028
42
0.011629
0
VERTEX
8
1
10
16.701584
20
3.188571
0
VERTEX
8
1
10
16.716553
20
3.150955
0
VERTEX
8
1
10
16.718895
20
3.132107
42
-0.091830
0
VERTEX
8
1
10
16.569145
20
3.220535
0
VERTEX
8
1
10
16.561005
20
3.223625
0
VERTEX
8
1
10
16.553886
20
3.211357
42
0.143074
0
VERTEX
8
1
10
16.596031
20
3.000599
0
SEQEND
0
POLYLINE
8
1
66
1
70
1
0
VERTEX
8
1
10
14.621834
20
5.201321
42
-0.185979
0
VERTEX
8
1
10
14.666298
20
5.228416
42
0.073770
0
VERTEX
8
1
10
14.757190
20
5.336013
42
-0.188206
0
VERTEX
8
1
10
14.796211
20
5.352367
42
0.059779
0
VERTEX
8
1
10
15.024261
20
5.475018
42
0.046588
0
VERTEX
8
1
10
15.128868
20
5.525658
42
-0.090539
0
VERTEX
8
1
10
15.102851
20
5.396066
42
-0.216013
0
VERTEX
8
1
10
15.014000
20
5.330490
42
0.070615
0
VERTEX
8
1
10
14.716484
20
5.070344
42
-0.098444
0
VERTEX
8
1
10
14.645042
20
5.026005
0
VERTEX
8
1
10
14.638885
20
5.000130
0
VERTEX
8
1
10
14.635719
20
4.997971
0
VERTEX
8
1
10
14.609848
20
4.991795
42
-0.233450
0
VERTEX
8
1
10
14.528358
20
4.903245
42
-0.081091
0
VERTEX
8
1
10
14.484779
20
4.888233
0
VERTEX
8
1
10
14.471886
20
4.892715
42
-0.346024
0
VERTEX
8
1
10
14.465630
20
4.959820
42
0.050467
0
VERTEX
8
1
10
14.492935
20
5.035862
42
0.105558
0
VERTEX
8
1
10
14.520424
20
5.081902
0
VERTEX
8
1
10
14.546242
20
5.088146
42
-0.113261
0
VERTEX
8
1
10
14.567345
20
5.129101
42
-0.200917
0
VERTEX
8
1
10
14.584573
20
5.161969
42
-0.010102
0
SEQEND
0
POLYLINE
8
1
66
1
70
1
0
VERTEX
8
1
10
15.338409
20
4.452641
42
0.166775
0
VERTEX
8
1
10
15.429776
20
4.305415
42
-0.062449
0
VERTEX
8
1
10
15.434830
20
4.293495
42
0.190744
0
VERTEX
8
1
10
15.424340
20
4.320355
42
-0.200935
0
VERTEX
8
1
10
15.416252
20
4.380875
42
0.232027
0
VERTEX
8
1
10
15.392479
20
4.415047
42
-0.167424
0
VERTEX
8
1
10
15.379257
20
4.523468
0
VERTEX
8
1
10
15.389275
20
4.539089
0
VERTEX
8
1
10
15.406181
20
4.546585
42
-0.246399
0
VERTEX
8
1
10
15.473801
20
4.512221
42
0.001445
0
VERTEX
8
1
10
15.597565
20
4.353012
42
-0.037367
0
VERTEX
8
1
10
15.659485
20
4.228878
42
-0.080527
0
VERTEX
8
1
10
15.702362
20
4.153629
42
0.138555
0
VERTEX
8
1
10
15.707123
20
4.117218
42
-0.236781
0
VERTEX
8
1
10
15.763397
20
4.043560
0
VERTEX
8
1
10
15.769684
20
4.021435
42
0.162610
0
VERTEX
8
1
10
15.836037
20
3.887028
42
-0.050706
0
VERTEX
8
1
10
15.858009
20
3.839745
0
VERTEX
8
1
10
15.863525
20
3.835209
0
VERTEX
8
1
10
15.871483
20
3.832821
0
VERTEX
8
1
10
15.878891
20
3.843254
42
0.156544
0
VERTEX
8
1
10
15.874001
20
3.958662
42
-0.033656
0
VERTEX
8
1
10
15.865341
20
4.033695
42
-0.121258
0
VERTEX
8
1
10
16.086298
20
3.794030
42
0.414005
0
VERTEX
8
1
10
16.106697
20
3.796799
0
VERTEX
8
1
10
16.120483
20
3.810081
0
VERTEX
8
1
10
16.133904
20
3.835495
0
VERTEX
8
1
10
16.139999
20
3.867493
0
VERTEX
8
1
10
16.140114
20
3.903561
42
0.097082
0
VERTEX
8
1
10
16.061590
20
4.139878
42
-0.008870
0
VERTEX
8
1
10
16.016321
20
4.227965
0
VERTEX
8
1
10
16.013500
20
4.239692
0
VERTEX
8
1
10
16.011909
20
4.251648
0
VERTEX
8
1
10
16.018074
20
4.253487
42
-0.089267
0
VERTEX
8
1
10
16.129204
20
4.133924
42
0.012854
0
VERTEX
8
1
10
16.268429
20
3.967637
42
-0.068848
0
VERTEX
8
1
10
16.304169
20
3.902313
42
0.001290
0
VERTEX
8
1
10
16.364607
20
3.821106
42
-0.217248
0
VERTEX
8
1
10
16.363701
20
3.756325
42
-0.107359
0
VERTEX
8
1
10
16.277588
20
3.816730
42
0.032218
0
VERTEX
8
1
10
16.224632
20
3.850143
42
0.138886
0
VERTEX
8
1
10
16.295547
20
3.638876
42
-0.224385
0
VERTEX
8
1
10
16.306030
20
3.499140
42
-0.252745
0
VERTEX
8
1
10
16.274040
20
3.485489
42
0.053505
0
VERTEX
8
1
10
16.157013
20
3.567280
0
VERTEX
8
1
10
16.138763
20
3.573009
0
VERTEX
8
1
10
16.123268
20
3.572628
0
VERTEX
8
1
10
16.119469
20
3.564884
42
0.048468
0
VERTEX
8
1
10
16.167770
20
3.411961
42
-0.102032
0
VERTEX
8
1
10
16.239883
20
3.272282
42
-0.691499
0
VERTEX
8
1
10
16.168831
20
3.242062
42
-0.098631
0
VERTEX
8
1
10
16.096008
20
3.339642
42
0.057065
0
VERTEX
8
1
10
15.982979
20
3.465446
42
0.052802
0
VERTEX
8
1
10
15.868309
20
3.577892
0
VERTEX
8
1
10
15.842697
20
3.589291
0
VERTEX
8
1
10
15.818504
20
3.589939
0
VERTEX
8
1
10
15.815765
20
3.580666
42
0.066163
0
VERTEX
8
1
10
15.898232
20
3.438941
42
-0.084563
0
VERTEX
8
1
10
15.939201
20
3.340214
0
VERTEX
8
1
10
15.937378
20
3.330029
42
0.172310
0
VERTEX
8
1
10
15.900882
20
3.345158
42
-0.141900
0
VERTEX
8
1
10
15.786133
20
3.425247
42
-0.007513
0
VERTEX
8
1
10
15.610725
20
3.609314
0
VERTEX
8
1
10
15.597633
20
3.618713
0
VERTEX
8
1
10
15.583839
20
3.625011
0
VERTEX
8
1
10
15.576378
20
3.604660
42
0.120699
0
VERTEX
8
1
10
15.601639
20
3.424644
42
-0.100347
0
VERTEX
8
1
10
15.613518
20
3.279819
0
VERTEX
8
1
10
15.603256
20
3.259663
0
VERTEX
8
1
10
15.585014
20
3.251469
42
0.075773
0
VERTEX
8
1
10
15.540451
20
3.331944
42
-0.047870
0
VERTEX
8
1
10
15.472412
20
3.518219
42
0.249210
0
VERTEX
8
1
10
15.454201
20
3.583407
42
0.142135
0
VERTEX
8
1
10
15.416718
20
3.692688
42
-0.059611
0
VERTEX
8
1
10
15.418304
20
3.750954
0
VERTEX
8
1
10
15.412941
20
3.762531
0
VERTEX
8
1
10
15.401047
20
3.770790
0
VERTEX
8
1
10
15.388138
20
3.765285
42
0.126334
0
VERTEX
8
1
10
15.340866
20
3.667801
42
0.099771
0
VERTEX
8
1
10
15.297699
20
3.649883
0
VERTEX
8
1
10
15.284431
20
3.656467
42
-0.196856
0
VERTEX
8
1
10
15.248795
20
3.788963
42
-0.024480
0
VERTEX
8
1
10
15.266350
20
4.051773
0
VERTEX
8
1
10
15.264954
20
4.081890
42
0.041447
0
VERTEX
8
1
10
15.210403
20
4.267990
0
VERTEX
8
1
10
15.193108
20
4.296970
0
VERTEX
8
1
10
15.173233
20
4.312984
0
VERTEX
8
1
10
15.150864
20
4.310299
0
VERTEX
8
1
10
15.145576
20
4.304516
42
0.014326
0
VERTEX
8
1
10
15.143341
20
4.210114
42
-0.272704
0
VERTEX
8
1
10
15.072914
20
4.125050
42
0.098224
0
VERTEX
8
1
10
15.054130
20
4.293051
42
0.059426
0
VERTEX
8
1
10
15.038109
20
4.382633
42
-0.036739
0
VERTEX
8
1
10
14.972366
20
4.560192
42
0.056986
0
VERTEX
8
1
10
14.933563
20
4.606480
0
VERTEX
8
1
10
14.930847
20
4.613159
0
VERTEX
8
1
10
14.929459
20
4.617710
0
VERTEX
8
1
10
14.893883
20
4.653290
42
-0.599034
0
VERTEX
8
1
10
14.916565
20
4.670216
0
VERTEX
8
1
10
14.928528
20
4.663990
42
0.142045
0
VERTEX
8
1
10
15.022804
20
4.614182
42
-0.125433
0
VERTEX
8
1
10
15.139801
20
4.506023
0
VERTEX
8
1
10
15.146248
20
4.504166
42
-0.115095
0
VERTEX
8
1
10
15.149230
20
4.633907
42
-0.364777
0
VERTEX
8
1
10
15.184769
20
4.642864
42
-0.050727
0
VERTEX
8
1
10
15.295373
20
4.510890
42
-0.084784
0
VERTEX
8
1
10
15.311302
20
4.458836
42
0.016823
0
SEQEND
0
POLYLINE
8
1
66
1
70
1
0
VERTEX
8
1
10
16.211800
20
7.151104
42
-0.203335
0
VERTEX
8
1
10
16.189056
20
7.169960
42
0.368709
0
VERTEX
8
1
10
16.154251
20
7.166378
42
-0.155110
0
VERTEX
8
1
10
16.142395
20
7.128849
0
VERTEX
8
1
10
16.134224
20
7.126122
0
VERTEX
8
1
10
16.124443
20
7.127327
42
-0.111216
0
VERTEX
8
1
10
16.070480
20
7.187008
42
0.188185
0
VERTEX
8
1
10
15.989163
20
7.229075
42
-0.073900
0
VERTEX
8
1
10
15.955727
20
7.245541
42
0.131180
0
VERTEX
8
1
10
15.921478
20
7.225185
42
0.302461
0
VERTEX
8
1
10
15.928539
20
7.192094
42
-0.214436
0
VERTEX
8
1
10
15.926849
20
7.086273
42
-0.266512
0
VERTEX
8
1
10
15.877594
20
7.130581
42
-0.132594
0
VERTEX
8
1
10
15.838333
20
7.256813
42
-0.200933
0
VERTEX
8
1
10
15.830378
20
7.311023
42
0.283284
0
VERTEX
8
1
10
15.814346
20
7.332050
42
0.108966
0
VERTEX
8
1
10
15.718278
20
7.345097
42
-0.279706
0
VERTEX
8
1
10
15.695671
20
7.368797
42
0.153065
0
VERTEX
8
1
10
15.762184
20
7.395473
42
-0.003962
0
VERTEX
8
1
10
15.805283
20
7.541512
42
-0.203126
0
VERTEX
8
1
10
15.889702
20
7.625278
42
-0.078828
0
VERTEX
8
1
10
15.967484
20
7.676121
0
VERTEX
8
1
10
15.980988
20
7.667892
42
-0.182095
0
VERTEX
8
1
10
15.962837
20
7.601376
42
0.385832
0
VERTEX
8
1
10
15.977882
20
7.571823
42
0.058107
0
VERTEX
8
1
10
16.043282
20
7.636681
0
VERTEX
8
1
10
16.058563
20
7.649853
42
-0.073593
0
VERTEX
8
1
10
16.182968
20
7.688163
0
VERTEX
8
1
10
16.195442
20
7.687263
42
-0.153014
0
VERTEX
8
1
10
16.248032
20
7.692966
42
-0.540205
0
VERTEX
8
1
10
16.241096
20
7.653427
0
VERTEX
8
1
10
16.236229
20
7.645710
0
VERTEX
8
1
10
16.241241
20
7.640980
42
-0.001148
0
VERTEX
8
1
10
16.304146
20
7.651226
42
-0.290874
0
VERTEX
8
1
10
16.328682
20
7.660339
42
0.066781
0
VERTEX
8
1
10
16.400673
20
7.685772
42
-0.313049
0
VERTEX
8
1
10
16.442284
20
7.656918
0
VERTEX
8
1
10
16.439766
20
7.649902
0
VERTEX
8
1
10
16.434486
20
7.645967
42
0.385797
0
VERTEX
8
1
10
16.406815
20
7.615532
0
VERTEX
8
1
10
16.417496
20
7.613461
42
0.048001
0
VERTEX
8
1
10
16.503275
20
7.580716
42
-0.138323
0
VERTEX
8
1
10
16.524696
20
7.559067
0
VERTEX
8
1
10
16.523743
20
7.549835
42
-0.128839
0
VERTEX
8
1
10
16.451195
20
7.542675
42
0.611913
0
VERTEX
8
1
10
16.443672
20
7.524548
0
VERTEX
8
1
10
16.451874
20
7.499146
42
-0.435597
0
VERTEX
8
1
10
16.462883
20
7.434078
0
VERTEX
8
1
10
16.451973
20
7.431660
0
VERTEX
8
1
10
16.440361
20
7.437641
42
-0.037746
0
VERTEX
8
1
10
16.409653
20
7.492924
42
-0.075656
0
VERTEX
8
1
10
16.366562
20
7.531246
42
-0.065767
0
VERTEX
8
1
10
16.301651
20
7.556114
42
0.145700
0
VERTEX
8
1
10
16.139961
20
7.534085
42
0.090742
0
VERTEX
8
1
10
16.107513
20
7.516674
42
0.254065
0
VERTEX
8
1
10
16.062477
20
7.490963
42
0.199496
0
VERTEX
8
1
10
16.008110
20
7.397194
0
VERTEX
8
1
10
15.974419
20
7.388775
0
VERTEX
8
1
10
15.973427
20
7.389164
0
VERTEX
8
1
10
15.972038
20
7.393456
42
0.144925
0
VERTEX
8
1
10
15.918991
20
7.348248
0
VERTEX
8
1
10
15.918213
20
7.337200
42
0.240026
0
VERTEX
8
1
10
16.046455
20
7.259983
42
0.153818
0
VERTEX
8
1
10
16.142481
20
7.244925
0
VERTEX
8
1
10
16.155678
20
7.243865
42
0.148073
0
VERTEX
8
1
10
16.203983
20
7.251282
0
VERTEX
8
1
10
16.209200
20
7.251519
42
0.331914
0
VERTEX
8
1
10
16.259796
20
7.253731
0
VERTEX
8
1
10
16.266541
20
7.254684
42
0.348929
0
VERTEX
8
1
10
16.305275
20
7.265057
42
-0.178421
0
VERTEX
8
1
10
16.341934
20
7.277008
0
VERTEX
8
1
10
16.363556
20
7.286922
42
0.233206
0
VERTEX
8
1
10
16.424534
20
7.342717
42
-0.825402
0
VERTEX
8
1
10
16.451035
20
7.326988
42
0.140716
0
VERTEX
8
1
10
16.458191
20
7.283966
42
-0.122523
0
VERTEX
8
1
10
16.452782
20
7.192242
42
-0.518051
0
VERTEX
8
1
10
16.404146
20
7.197153
42
0.136928
0
VERTEX
8
1
10
16.368385
20
7.209221
42
0.537188
0
VERTEX
8
1
10
16.361702
20
7.192566
42
-0.212656
0
VERTEX
8
1
10
16.351105
20
7.162178
0
VERTEX
8
1
10
16.349968
20
7.156231
42
-0.214869
0
VERTEX
8
1
10
16.289415
20
7.196290
42
0.339551
0
VERTEX
8
1
10
16.268066
20
7.195938
0
VERTEX
8
1
10
16.261200
20
7.179623
0
VERTEX
8
1
10
16.257339
20
7.159626
0
VERTEX
8
1
10
16.250183
20
7.144382
42
-0.186907
0
SEQEND
0
POLYLINE
8
1
66
1
70
1
0
VERTEX
8
1
10
16.261528
20
7.460552
42
-0.339153
0
VERTEX
8
1
10
16.206139
20
7.417858
42
-0.271893
0
VERTEX
8
1
10
16.102600
20
7.448224
42
-0.495791
0
VERTEX
8
1
10
16.128223
20
7.494280
42
-0.287726
0
VERTEX
8
1
10
16.254318
20
7.479126
0
VERTEX
8
1
10
16.259659
20
7.470200
0
SEQEND
0
POLYLINE
8
1
66
1
70
1
0
VERTEX
8
1
10
16.337349
20
8.735008
42
0.248725
0
VERTEX
8
1
10
16.377716
20
8.717892
42
-0.110848
0
VERTEX
8
1
10
16.468292
20
8.698303
42
-0.434878
0
VERTEX
8
1
10
16.466301
20
8.661110
42
-0.084384
0
VERTEX
8
1
10
16.398621
20
8.623329
0
VERTEX
8
1
10
16.388397
20
8.615520
0
VERTEX
8
1
10
16.407249
20
8.595795
0
VERTEX
8
1
10
16.435455
20
8.587147
42
0.089758
0
VERTEX
8
1
10
16.532501
20
8.602547
0
VERTEX
8
1
10
16.562500
20
8.607010
0
VERTEX
8
1
10
16.588051
20
8.603912
0
VERTEX
8
1
10
16.607201
20
8.588913
0
VERTEX
8
1
10
16.607117
20
8.578075
42
-0.107519
0
VERTEX
8
1
10
16.567619
20
8.508247
42
0.065296
0
VERTEX
8
1
10
16.524971
20
8.487511
0
VERTEX
8
1
10
16.521461
20
8.480414
42
0.371198
0
VERTEX
8
1
10
16.707085
20
8.548994
42
-0.062803
0
VERTEX
8
1
10
16.723991
20
8.564739
42
-0.251346
0
VERTEX
8
1
10
16.718346
20
8.483906
42
0.199120
0
VERTEX
8
1
10
16.709686
20
8.398941
42
-0.217084
0
VERTEX
8
1
10
16.687485
20
8.338531
0
VERTEX
8
1
10
16.701256
20
8.332691
42
0.116229
0
VERTEX
8
1
10
16.834885
20
8.352833
0
VERTEX
8
1
10
16.857910
20
8.357262
0
VERTEX
8
1
10
16.871086
20
8.367569
42
0.030884
0
VERTEX
8
1
10
16.871117
20
8.488369
42
-0.310364
0
VERTEX
8
1
10
16.906013
20
8.551261
0
VERTEX
8
1
10
16.915359
20
8.554253
42
-0.499441
0
VERTEX
8
1
10
16.956276
20
8.543926
42
-0.179202
0
VERTEX
8
1
10
16.966396
20
8.448061
42
0.112655
0
VERTEX
8
1
10
16.990074
20
8.284351
0
VERTEX
8
1
10
16.944138
20
8.284351
42
-0.410739
0
VERTEX
8
1
10
16.874863
20
8.237106
42
0.055432
0
VERTEX
8
1
10
16.767097
20
8.235950
42
0.083250
0
VERTEX
8
1
10
16.744957
20
8.218182
42
-0.449137
0
VERTEX
8
1
10
16.659735
20
8.262384
42
-0.038640
0
VERTEX
8
1
10
16.643158
20
8.306725
0
VERTEX
8
1
10
16.636497
20
8.313488
0
VERTEX
8
1
10
16.628044
20
8.313538
0
VERTEX
8
1
10
16.617455
20
8.304436
0
VERTEX
8
1
10
16.604683
20
8.288834
42
-0.235569
0
VERTEX
8
1
10
16.536674
20
8.398407
42
-0.027847
0
VERTEX
8
1
10
16.448471
20
8.427231
42
0.028718
0
VERTEX
8
1
10
16.380165
20
8.423579
42
-0.453273
0
VERTEX
8
1
10
16.313217
20
8.544003
0
VERTEX
8
1
10
16.319664
20
8.565163
0
VERTEX
8
1
10
16.327118
20
8.585442
0
VERTEX
8
1
10
16.309746
20
8.588450
42
-0.491747
0
VERTEX
8
1
10
16.286535
20
8.752172
42
-0.496918
0
SEQEND
0
POLYLINE
8
1
66
1
70
1
0
VERTEX
8
1
10
17.054016
20
6.911057
0
VERTEX
8
1
10
17.049149
20
6.915871
42
-0.079059
0
VERTEX
8
1
10
16.909470
20
7.020916
42
-0.245996
0
VERTEX
8
1
10
16.896217
20
6.972424
42
0.135384
0
VERTEX
8
1
10
16.891350
20
6.886429
42
-0.181675
0
VERTEX
8
1
10
16.869516
20
6.789000
42
-0.239361
0
VERTEX
8
1
10
16.839851
20
6.782612
42
0.148498
0
VERTEX
8
1
10
16.775444
20
6.925591
0
VERTEX
8
1
10
16.756340
20
6.935837
0
VERTEX
8
1
10
16.749275
20
6.925525
42
0.002485
0
VERTEX
8
1
10
16.723221
20
6.805744
42
0.049431
0
VERTEX
8
1
10
16.668978
20
6.676111
42
-0.157809
0
VERTEX
8
1
10
16.620186
20
6.629391
0
VERTEX
8
1
10
16.600922
20
6.631756
0
VERTEX
8
1
10
16.592758
20
6.642727
0
VERTEX
8
1
10
16.591568
20
6.661594
42
-0.021329
0
VERTEX
8
1
10
16.621033
20
6.788048
42
0.014588
0
VERTEX
8
1
10
16.624489
20
6.891342
42
0.120797
0
VERTEX
8
1
10
16.603233
20
6.934826
42
-0.033364
0
VERTEX
8
1
10
16.600372
20
6.989594
0
VERTEX
8
1
10
16.586494
20
6.992451
0
VERTEX
8
1
10
16.585632
20
6.993259
0
VERTEX
8
1
10
16.603432
20
7.046642
42
0.007391
0
VERTEX
8
1
10
16.722389
20
7.024030
0
VERTEX
8
1
10
16.735516
20
7.025768
42
0.513773
0
VERTEX
8
1
10
16.767536
20
7.064991
42
0.005262
0
VERTEX
8
1
10
16.761580
20
7.119663
42
-0.556884
0
VERTEX
8
1
10
16.805183
20
7.136337
42
0.065471
0
VERTEX
8
1
10
16.877573
20
7.106239
42
0.378405
0
VERTEX
8
1
10
16.904930
20
7.134804
0
VERTEX
8
1
10
16.908249
20
7.155457
42
0.011377
0
VERTEX
8
1
10
16.910179
20
7.379768
42
-0.058800
0
VERTEX
8
1
10
17.013168
20
7.293121
42
-0.127404
0
VERTEX
8
1
10
17.055565
20
7.268963
42
0.131777
0
VERTEX
8
1
10
17.107773
20
7.198586
42
0.058789
0
VERTEX
8
1
10
17.197731
20
7.087879
42
-0.572107
0
VERTEX
8
1
10
17.179150
20
7.062742
42
-0.306247
0
VERTEX
8
1
10
17.131557
20
7.088528
42
0.240951
0
VERTEX
8
1
10
17.088432
20
7.102345
0
VERTEX
8
1
10
17.070763
20
7.087578
0
VERTEX
8
1
10
17.064148
20
7.061852
42
0.048008
0
VERTEX
8
1
10
17.085968
20
6.922081
0
VERTEX
8
1
10
17.087982
20
6.896149
0
VERTEX
8
1
10
17.082977
20
6.887035
42
-0.190726
0
SEQEND
0
POLYLINE
8
1
66
1
70
1
0
VERTEX
8
1
10
15.376617
20
8.804386
42
0.063299
0
VERTEX
8
1
10
15.472084
20
8.802982
42
0.639844
0
VERTEX
8
1
10
15.471878
20
8.847393
42
-0.246330
0
VERTEX
8
1
10
15.459808
20
8.874626
0
VERTEX
8
1
10
15.458893
20
8.911510
0
VERTEX
8
1
10
15.466820
20
8.931690
0
VERTEX
8
1
10
15.481895
20
8.938450
0
VERTEX
8
1
10
15.502426
20
8.935081
0
VERTEX
8
1
10
15.526718
20
8.924881
0
VERTEX
8
1
10
15.579788
20
8.897114
42
0.195704
0
VERTEX
8
1
10
15.762970
20
8.893356
42
0.048352
0
VERTEX
8
1
10
16.007828
20
8.993431
42
0.015841
0
VERTEX
8
1
10
16.125816
20
9.040661
42
-0.193717
0
VERTEX
8
1
10
16.154259
20
9.000427
0
VERTEX
8
1
10
16.140144
20
8.990620
42
0.046893
0
VERTEX
8
1
10
15.967613
20
8.898434
0
VERTEX
8
1
10
15.950790
20
8.880066
0
VERTEX
8
1
10
15.944992
20
8.862480
42
0.095937
0
VERTEX
8
1
10
15.996252
20
8.857827
42
-0.079433
0
VERTEX
8
1
10
16.102158
20
8.836533
42
0.060385
0
VERTEX
8
1
10
16.230068
20
8.830564
42
-0.141630
0
VERTEX
8
1
10
16.302292
20
8.800159
0
VERTEX
8
1
10
16.309975
20
8.798088
0
VERTEX
8
1
10
16.313065
20
8.785164
0
VERTEX
8
1
10
16.287468
20
8.757946
0
VERTEX
8
1
10
16.240883
20
8.745697
0
VERTEX
8
1
10
16.179642
20
8.742981
42
0.033835
0
VERTEX
8
1
10
15.971123
20
8.737762
0
VERTEX
8
1
10
15.914398
20
8.718891
0
VERTEX
8
1
10
15.874603
20
8.682407
0
VERTEX
8
1
10
15.862457
20
8.646988
0
VERTEX
8
1
10
15.871117
20
8.628475
0
VERTEX
8
1
10
15.892746
20
8.616982
0
VERTEX
8
1
10
15.923790
20
8.610958
42
0.010037
0
VERTEX
8
1
10
16.095772
20
8.608746
42
0.002059
0
VERTEX
8
1
10
16.158577
20
8.587845
42
-0.214691
0
VERTEX
8
1
10
16.217224
20
8.576778
42
-0.093430
0
VERTEX
8
1
10
16.281906
20
8.533062
42
0.049623
0
VERTEX
8
1
10
16.209475
20
8.534471
42
0.216894
0
VERTEX
8
1
10
16.176502
20
8.512533
0
VERTEX
8
1
10
16.170597
20
8.509642
42
0.066906
0
VERTEX
8
1
10
16.038338
20
8.494621
42
-0.078129
0
VERTEX
8
1
10
15.950427
20
8.456600
42
0.094344
0
VERTEX
8
1
10
15.806984
20
8.425758
42
0.222166
0
VERTEX
8
1
10
15.727784
20
8.405611
42
-0.028396
0
VERTEX
8
1
10
15.660851
20
8.376713
42
0.124799
0
VERTEX
8
1
10
15.543030
20
8.343475
42
-0.143630
0
VERTEX
8
1
10
15.487114
20
8.310020
0
VERTEX
8
1
10
15.482384
20
8.290634
0
VERTEX
8
1
10
15.455643
20
8.317348
42
-0.185471
0
VERTEX
8
1
10
15.489082
20
8.370491
0
VERTEX
8
1
10
15.529053
20
8.406822
42
0.324876
0
VERTEX
8
1
10
15.560265
20
8.499073
0
VERTEX
8
1
10
15.543556
20
8.497288
42
0.092514
0
VERTEX
8
1
10
15.392067
20
8.402302
42
-0.067368
0
VERTEX
8
1
10
15.313416
20
8.305473
42
-0.263559
0
VERTEX
8
1
10
15.244347
20
8.303734
0
VERTEX
8
1
10
15.240097
20
8.311390
0
VERTEX
8
1
10
15.238174
20
8.321529
0
VERTEX
8
1
10
15.240041
20
8.346673
42
0.152709
0
VERTEX
8
1
10
15.211591
20
8.474713
42
0.102138
0
VERTEX
8
1
10
15.095621
20
8.613002
42
-0.077276
0
VERTEX
8
1
10
15.081970
20
8.634438
0
VERTEX
8
1
10
15.091072
20
8.634422
42
0.088268
0
VERTEX
8
1
10
15.294695
20
8.604930
42
0.436832
0
VERTEX
8
1
10
15.319298
20
8.655468
42
0.038420
0
VERTEX
8
1
10
15.246140
20
8.787682
0
VERTEX
8
1
10
15.247406
20
8.799385
42
-0.078156
0
SEQEND
0
POLYLINE
8
1
66
1
70
1
0
VERTEX
8
1
10
15.036903
20
8.975662
42
0.169657
0
VERTEX
8
1
10
15.072418
20
8.969418
0
VERTEX
8
1
10
15.074043
20
8.957378
0
VERTEX
8
1
10
15.073448
20
8.956482
42
0.213356
0
VERTEX
8
1
10
15.022202
20
8.970421
42
-0.248086
0
VERTEX
8
1
10
15.059227
20
8.944673
42
0.828907
0
VERTEX
8
1
10
15.062210
20
8.921127
42
-0.242351
0
VERTEX
8
1
10
15.069878
20
8.900169
42
-0.184593
0
VERTEX
8
1
10
14.931206
20
8.914345
42
0.040345
0
VERTEX
8
1
10
14.779312
20
8.966217
42
0.052398
0
VERTEX
8
1
10
14.560196
20
9.045162
0
VERTEX
8
1
10
14.545456
20
9.045582
0
VERTEX
8
1
10
14.525105
20
9.042535
42
-0.200793
0
VERTEX
8
1
10
14.347426
20
9.102623
42
-0.371566
0
VERTEX
8
1
10
14.357796
20
9.151699
0
VERTEX
8
1
10
14.371254
20
9.166199
0
VERTEX
8
1
10
14.386490
20
9.180367
42
0.190858
0
VERTEX
8
1
10
14.493195
20
9.334679
0
VERTEX
8
1
10
14.497749
20
9.343698
42
0.023253
0
VERTEX
8
1
10
14.564492
20
9.423058
42
0.088432
0
VERTEX
8
1
10
14.574165
20
9.457787
42
0.107298
0
VERTEX
8
1
10
14.763657
20
9.289223
0
VERTEX
8
1
10
14.780853
20
9.274784
0
VERTEX
8
1
10
14.789383
20
9.259377
0
VERTEX
8
1
10
14.785126
20
9.242889
0
VERTEX
8
1
10
14.764000
20
9.225220
0
VERTEX
8
1
10
14.766075
20
9.220974
42
-0.167645
0
VERTEX
8
1
10
14.886986
20
9.140797
0
VERTEX
8
1
10
14.894844
20
9.123466
0
VERTEX
8
1
10
14.893829
20
9.112999
42
0.022943
0
VERTEX
8
1
10
14.853523
20
9.087620
0
VERTEX
8
1
10
14.854263
20
9.076263
42
-0.140643
0
VERTEX
8
1
10
14.960533
20
9.013596
42
0.099522
0
SEQEND
0
POLYLINE
8
1
66
1
0
VERTEX
8
1
10
14.914307
20
8.624702
0
VERTEX
8
1
10
14.913445
20
8.624805
0
VERTEX
8
1
10
14.914307
20
8.624702
0
SEQEND
0
POLYLINE
8
1
66
1
70
1
0
VERTEX
8
1
10
14.285805
20
9.116600
42
-0.098076
0
VERTEX
8
1
10
14.301476
20
9.103390
42
0.074457
0
VERTEX
8
1
10
14.284492
20
9.114059
0
SEQEND
0
POLYLINE
8
1
66
1
70
1
0
VERTEX
8
1
10
10.917892
20
10.637825
42
0.036075
0
VERTEX
8
1
10
10.808815
20
10.718239
0
VERTEX
8
1
10
10.793159
20
10.723801
0
VERTEX
8
1
10
10.777077
20
10.727409
42
-0.133477
0
VERTEX
8
1
10
10.608627
20
10.784515
42
0.176685
0
VERTEX
8
1
10
10.491493
20
10.801813
42
-0.144351
0
VERTEX
8
1
10
10.360973
20
10.832816
42
0.047002
0
VERTEX
8
1
10
10.326416
20
10.841305
0
VERTEX
8
1
10
10.326759
20
10.862076
0
VERTEX
8
1
10
10.345802
20
10.881210
0
VERTEX
8
1
10
10.376068
20
10.891544
42
-0.094441
0
VERTEX
8
1
10
10.537598
20
10.878822
42
0.236393
0
VERTEX
8
1
10
10.528954
20
10.922813
42
0.036261
0
VERTEX
8
1
10
10.433891
20
11.044258
0
VERTEX
8
1
10
10.429367
20
11.053074
0
VERTEX
8
1
10
10.426010
20
11.062450
42
0.215134
0
VERTEX
8
1
10
10.373802
20
11.159435
42
-0.125932
0
VERTEX
8
1
10
10.287510
20
11.275366
42
0.032598
0
VERTEX
8
1
10
10.194794
20
11.423923
42
-0.805397
0
VERTEX
8
1
10
10.232315
20
11.474125
42
-0.078457
0
VERTEX
8
1
10
10.384651
20
11.362244
42
0.124302
0
VERTEX
8
1
10
10.451691
20
11.258480
0
VERTEX
8
1
10
10.476449
20
11.233698
42
-0.010925
0
VERTEX
8
1
10
10.663270
20
11.007329
0
VERTEX
8
1
10
10.694724
20
10.962912
0
VERTEX
8
1
10
10.724915
20
10.917625
42
-0.163563
0
VERTEX
8
1
10
10.759232
20
10.867214
42
0.058104
0
VERTEX
8
1
10
10.834801
20
10.770214
42
-0.047472
0
VERTEX
8
1
10
10.965805
20
10.673214
42
-0.144990
0
VERTEX
8
1
10
11.056755
20
10.602184
42
0.025389
0
VERTEX
8
1
10
11.232167
20
10.499898
42
-0.680334
0
VERTEX
8
1
10
11.207703
20
10.453739
0
VERTEX
8
1
10
11.201126
20
10.460751
0
VERTEX
8
1
10
11.197784
20
10.472450
42
-0.237073
0
VERTEX
8
1
10
11.046257
20
10.525520
42
0.050420
0
SEQEND
0
POLYLINE
8
1
66
1
70
1
0
VERTEX
8
1
10
12.071953
20
8.376087
42
0.059507
0
VERTEX
8
1
10
12.019734
20
8.356201
0
VERTEX
8
1
10
12.000497
20
8.351826
42
-0.100341
0
VERTEX
8
1
10
11.834882
20
8.371904
42
0.008619
0
VERTEX
8
1
10
11.791605
20
8.372007
42
-0.036277
0
VERTEX
8
1
10
11.774101
20
8.385841
42
-0.014016
0
VERTEX
8
1
10
11.674355
20
8.392593
42
0.222218
0
VERTEX
8
1
10
11.591698
20
8.406197
42
-0.173844
0
VERTEX
8
1
10
11.521141
20
8.423534
42
0.132894
0
VERTEX
8
1
10
11.151792
20
8.391005
42
-0.092012
0
VERTEX
8
1
10
11.102821
20
8.389141
0
VERTEX
8
1
10
11.095131
20
8.385666
42
-0.251579
0
VERTEX
8
1
10
11.005222
20
8.354053
42
0.170049
0
VERTEX
8
1
10
10.899048
20
8.324486
42
-0.103072
0
VERTEX
8
1
10
10.815308
20
8.314556
42
-0.178273
0
VERTEX
8
1
10
10.697693
20
8.310616
42
0.031310
0
VERTEX
8
1
10
10.440136
20
8.379604
42
-0.131591
0
VERTEX
8
1
10
10.188875
20
8.528109
42
-0.122570
0
VERTEX
8
1
10
10.118049
20
8.599618
42
0.162971
0
VERTEX
8
1
10
10.001175
20
8.684853
42
-0.086510
0
VERTEX
8
1
10
9.894836
20
8.767353
42
0.070873
0
VERTEX
8
1
10
9.760078
20
8.857269
0
VERTEX
8
1
10
9.741852
20
8.872650
42
-0.020564
0
VERTEX
8
1
10
9.632599
20
9.021416
42
0.113954
0
VERTEX
8
1
10
9.528290
20
9.173664
42
-0.068591
0
VERTEX
8
1
10
9.449921
20
9.300785
42
0.020965
0
VERTEX
8
1
10
9.305641
20
9.472015
0
VERTEX
8
1
10
9.293129
20
9.491230
42
0.043680
0
VERTEX
8
1
10
9.203278
20
9.637825
42
-0.016606
0
VERTEX
8
1
10
9.131001
20
9.794105
42
-0.117114
0
VERTEX
8
1
10
9.095131
20
9.872971
42
0.105835
0
VERTEX
8
1
10
8.999962
20
9.985630
42
-0.157092
0
VERTEX
8
1
10
8.968803
20
10.052464
0
VERTEX
8
1
10
8.962425
20
10.064430
42
-0.070413
0
VERTEX
8
1
10
8.879082
20
10.194874
42
-0.177567
0
VERTEX
8
1
10
8.883102
20
10.248711
42
-0.509564
0
VERTEX
8
1
10
8.908455
20
10.243782
42
0.022769
0
VERTEX
8
1
10
9.017708
20
10.117558
42
0.051572
0
VERTEX
8
1
10
9.149637
20
9.957265
42
-0.073564
0
VERTEX
8
1
10
9.244125
20
9.806011
42
0.065876
0
VERTEX
8
1
10
9.533806
20
9.480583
42
-0.097941
0
VERTEX
8
1
10
9.653544
20
9.393981
42
0.279166
0
VERTEX
8
1
10
9.696342
20
9.381611
0
VERTEX
8
1
10
9.688647
20
9.412045
42
-0.073875
0
VERTEX
8
1
10
9.683356
20
9.593650
0
VERTEX
8
1
10
9.687508
20
9.612164
42
-0.622588
0
VERTEX
8
1
10
9.720504
20
9.619364
42
-0.213899
0
VERTEX
8
1
10
9.752632
20
9.566284
42
0.043833
0
VERTEX
8
1
10
9.800591
20
9.400798
42
0.022004
0
VERTEX
8
1
10
9.821129
20
9.309330
42
0.060978
0
VERTEX
8
1
10
9.950455
20
9.116821
42
0.029277
0
VERTEX
8
1
10
9.990906
20
9.041637
42
0.148328
0
VERTEX
8
1
10
10.036987
20
9.018196
42
-0.151792
0
VERTEX
8
1
10
10.069969
20
8.985058
0
VERTEX
8
1
10
10.086327
20
8.954918
42
0.195084
0
VERTEX
8
1
10
10.118179
20
8.931061
42
0.007901
0
VERTEX
8
1
10
10.227600
20
8.855930
42
-0.098754
0
VERTEX
8
1
10
10.321663
20
8.820187
42
0.023216
0
VERTEX
8
1
10
10.531990
20
8.772503
42
-0.029421
0
VERTEX
8
1
10
10.661324
20
8.771278
42
0.130935
0
VERTEX
8
1
10
10.799652
20
8.754566
42
-0.045966
0
VERTEX
8
1
10
11.011214
20
8.722018
42
-0.101249
0
VERTEX
8
1
10
11.123131
20
8.699127
42
0.285093
0
VERTEX
8
1
10
11.219124
20
8.729881
0
VERTEX
8
1
10
11.222458
20
8.741077
42
0.127870
0
VERTEX
8
1
10
11.156825
20
8.773188
42
0.007979
0
VERTEX
8
1
10
11.046989
20
8.811104
42
0.083609
0
VERTEX
8
1
10
10.948442
20
8.862919
42
-0.047779
0
VERTEX
8
1
10
10.753430
20
8.980865
42
-0.052616
0
VERTEX
8
1
10
10.611606
20
9.161738
42
-0.050573
0
VERTEX
8
1
10
10.545296
20
9.248737
42
-0.103912
0
VERTEX
8
1
10
10.510056
20
9.296555
42
-0.013824
0
VERTEX
8
1
10
10.555881
20
9.240291
42
0.117128
0
VERTEX
8
1
10
10.591370
20
9.225491
0
VERTEX
8
1
10
10.598045
20
9.197773
42
-0.138374
0
VERTEX
8
1
10
10.655815
20
9.166237
42
0.125760
0
VERTEX
8
1
10
10.846630
20
9.060761
0
VERTEX
8
1
10
10.863472
20
9.054424
42
-0.066257
0
VERTEX
8
1
10
11.068893
20
9.005119
42
0.110269
0
VERTEX
8
1
10
11.161787
20
8.960644
42
0.001245
0
VERTEX
8
1
10
11.314896
20
8.905205
42
-0.121021
0
VERTEX
8
1
10
11.396210
20
8.882000
42
0.071392
0
VERTEX
8
1
10
11.550407
20
8.882263
42
0.057681
0
VERTEX
8
1
10
11.663353
20
8.884331
42
-0.346218
0
VERTEX
8
1
10
11.726262
20
8.894670
42
0.007484
0
VERTEX
8
1
10
11.793121
20
8.873905
42
-0.012671
0
VERTEX
8
1
10
11.886917
20
8.794888
42
-0.055853
0
VERTEX
8
1
10
12.163411
20
8.627368
42
-0.144756
0
VERTEX
8
1
10
12.198608
20
8.557922
42
0.109977
0
VERTEX
8
1
10
12.233749
20
8.508379
42
-0.286968
0
VERTEX
8
1
10
12.227943
20
8.466084
0
VERTEX
8
1
10
12.209778
20
8.448154
42
-0.117714
0
VERTEX
8
1
10
12.078110
20
8.404312
42
-0.022171
0
SEQEND
0
POLYLINE
8
1
66
1
70
1
0
VERTEX
8
1
10
12.069839
20
8.861359
42
-0.082593
0
VERTEX
8
1
10
11.826958
20
8.948521
42
-0.227776
0
VERTEX
8
1
10
11.718408
20
9.039528
42
0.168814
0
VERTEX
8
1
10
11.659369
20
9.080839
42
-0.114660
0
VERTEX
8
1
10
11.602394
20
9.126110
42
-0.083977
0
VERTEX
8
1
10
11.601822
20
9.171059
42
0.298031
0
VERTEX
8
1
10
11.567299
20
9.208073
42
-0.277613
0
VERTEX
8
1
10
11.531967
20
9.277287
42
0.090048
0
VERTEX
8
1
10
11.488564
20
9.396564
42
0.076889
0
VERTEX
8
1
10
11.456291
20
9.476094
0
VERTEX
8
1
10
11.453793
20
9.488464
42
0.088444
0
VERTEX
8
1
10
11.439644
20
9.536848
42
-0.342810
0
VERTEX
8
1
10
11.447403
20
9.561134
0
VERTEX
8
1
10
11.451973
20
9.567258
42
0.281457
0
VERTEX
8
1
10
11.436752
20
9.657143
42
-0.378104
0
VERTEX
8
1
10
11.457680
20
9.705708
0
VERTEX
8
1
10
11.464165
20
9.714172
42
0.224147
0
VERTEX
8
1
10
11.448143
20
9.794178
42
-0.159014
0
VERTEX
8
1
10
11.433846
20
9.871529
42
0.070981
0
VERTEX
8
1
10
11.420425
20
10.025234
42
0.072220
0
VERTEX
8
1
10
11.401215
20
10.151713
42
-0.026590
0
VERTEX
8
1
10
11.407016
20
10.557446
42
-0.066024
0
VERTEX
8
1
10
11.443235
20
10.692126
42
-0.515900
0
VERTEX
8
1
10
11.522658
20
10.694093
42
-0.224281
0
VERTEX
8
1
10
11.550690
20
10.621895
0
VERTEX
8
1
10
11.550987
20
10.597519
42
0.040379
0
VERTEX
8
1
10
11.547470
20
10.349957
0
VERTEX
8
1
10
11.554858
20
10.334098
42
0.009515
0
VERTEX
8
1
10
11.597576
20
10.225073
0
VERTEX
8
1
10
11.607583
20
10.194283
0
VERTEX
8
1
10
11.615715
20
10.162945
0
VERTEX
8
1
10
11.614632
20
10.149479
42
0.191038
0
VERTEX
8
1
10
11.603432
20
10.068478
42
-0.328907
0
VERTEX
8
1
10
11.604347
20
9.977386
42
0.128320
0
VERTEX
8
1
10
11.600273
20
9.922955
0
VERTEX
8
1
10
11.598808
20
9.915771
42
0.125924
0
VERTEX
8
1
10
11.576082
20
9.799371
42
0.137490
0
VERTEX
8
1
10
11.642723
20
9.526367
42
0.127660
0
VERTEX
8
1
10
11.686914
20
9.421873
0
VERTEX
8
1
10
11.692481
20
9.409914
0
VERTEX
8
1
10
11.696503
20
9.397350
0
VERTEX
8
1
10
11.721992
20
9.391216
42
0.157701
0
VERTEX
8
1
10
11.765381
20
9.326290
42
0.088989
0
VERTEX
8
1
10
11.851387
20
9.236645
42
0.055645
0
VERTEX
8
1
10
11.979446
20
9.133816
42
0.110747
0
VERTEX
8
1
10
12.072678
20
9.116566
42
0.093953
0
VERTEX
8
1
10
12.158997
20
9.097881
0
VERTEX
8
1
10
12.185610
20
9.091429
42
-0.006750
0
VERTEX
8
1
10
12.402771
20
9.060989
0
VERTEX
8
1
10
12.436882
20
9.061539
0
VERTEX
8
1
10
12.470627
20
9.067444
42
0.106461
0
VERTEX
8
1
10
12.480530
20
9.098171
42
-0.002085
0
VERTEX
8
1
10
12.510681
20
9.105648
42
-0.059922
0
VERTEX
8
1
10
12.554581
20
9.258369
42
-0.048577
0
VERTEX
8
1
10
12.603310
20
9.399879
42
-0.070345
0
VERTEX
8
1
10
12.661987
20
9.457115
42
0.158919
0
VERTEX
8
1
10
12.682739
20
9.500946
0
VERTEX
8
1
10
12.724640
20
9.506310
0
VERTEX
8
1
10
12.730225
20
9.512348
42
-0.398232
0
VERTEX
8
1
10
12.777031
20
9.558014
0
VERTEX
8
1
10
12.792290
20
9.560375
0
VERTEX
8
1
10
12.803230
20
9.563202
42
-0.020309
0
VERTEX
8
1
10
12.808899
20
9.589115
42
0.180429
0
VERTEX
8
1
10
12.864044
20
9.630592
0
VERTEX
8
1
10
12.874771
20
9.640247
0
VERTEX
8
1
10
12.886803
20
9.646461
0
VERTEX
8
1
10
12.895462
20
9.644524
42
-0.134596
0
VERTEX
8
1
10
12.850024
20
9.522526
42
0.048467
0
VERTEX
8
1
10
12.836571
20
9.488476
42
-0.018685
0
VERTEX
8
1
10
12.810745
20
9.482758
42
0.076897
0
VERTEX
8
1
10
12.806160
20
9.415489
0
VERTEX
8
1
10
12.803986
20
9.403881
0
VERTEX
8
1
10
12.801392
20
9.401676
0
VERTEX
8
1
10
12.788284
20
9.412098
0
VERTEX
8
1
10
12.787773
20
9.409424
0
VERTEX
8
1
10
12.787811
20
9.299507
0
VERTEX
8
1
10
12.788284
20
9.274471
42
0.222881
0
VERTEX
8
1
10
12.850990
20
9.119995
42
-0.179306
0
VERTEX
8
1
10
12.870216
20
9.055676
0
VERTEX
8
1
10
12.872803
20
9.022278
42
0.273122
0
VERTEX
8
1
10
12.925213
20
8.938725
42
-0.153264
0
VERTEX
8
1
10
12.953575
20
8.889057
42
0.058802
0
VERTEX
8
1
10
12.986015
20
8.877163
42
0.035926
0
VERTEX
8
1
10
13.052200
20
8.789600
0
VERTEX
8
1
10
13.045845
20
8.790226
42
0.244685
0
VERTEX
8
1
10
12.952657
20
8.807110
42
-0.147448
0
VERTEX
8
1
10
12.877060
20
8.823132
42
0.101257
0
VERTEX
8
1
10
12.699036
20
8.815685
0
VERTEX
8
1
10
12.650223
20
8.808300
0
VERTEX
8
1
10
12.638306
20
8.804539
42
-0.167167
0
VERTEX
8
1
10
12.526123
20
8.771362
42
0.008717
0
VERTEX
8
1
10
12.349541
20
8.773674
0
VERTEX
8
1
10
12.330559
20
8.776699
42
0.019027
0
VERTEX
8
1
10
12.183914
20
8.821159
42
0.109914
0
SEQEND
0
POLYLINE
8
1
66
1
70
1
0
VERTEX
8
1
10
14.384079
20
8.411922
42
0.241636
0
VERTEX
8
1
10
14.267586
20
8.412243
42
-0.346807
0
VERTEX
8
1
10
14.204977
20
8.438916
42
0.295273
0
VERTEX
8
1
10
14.096581
20
8.453583
42
-0.275146
0
VERTEX
8
1
10
13.970924
20
8.461273
0
VERTEX
8
1
10
13.960892
20
8.463875
0
VERTEX
8
1
10
13.948906
20
8.464352
42
-0.075315
0
VERTEX
8
1
10
13.780764
20
8.444089
42
-0.051585
0
VERTEX
8
1
10
13.506935
20
8.460079
42
-0.044499
0
VERTEX
8
1
10
13.322281
20
8.478119
42
-0.035749
0
VERTEX
8
1
10
13.123802
20
8.497139
0
VERTEX
8
1
10
13.094414
20
8.498753
42
-0.159150
0
VERTEX
8
1
10
12.971727
20
8.529581
42
0.264607
0
VERTEX
8
1
10
12.933968
20
8.522106
42
-0.147415
0
VERTEX
8
1
10
12.811020
20
8.517361
42
0.165281
0
VERTEX
8
1
10
12.668839
20
8.503113
42
0.059614
0
VERTEX
8
1
10
12.567383
20
8.482208
42
-0.088837
0
VERTEX
8
1
10
12.434998
20
8.485760
42
-0.013771
0
VERTEX
8
1
10
12.280701
20
8.603497
42
-0.833766
0
VERTEX
8
1
10
12.312080
20
8.667027
42
-0.116695
0
VERTEX
8
1
10
12.396263
20
8.645782
42
0.009210
0
VERTEX
8
1
10
12.455704
20
8.641693
0
VERTEX
8
1
10
12.458839
20
8.626694
0
VERTEX
8
1
10
12.493843
20
8.661701
42
-0.308766
0
VERTEX
8
1
10
12.486237
20
8.644436
42
-0.270332
0
VERTEX
8
1
10
12.518631
20
8.631310
42
0.172034
0
VERTEX
8
1
10
12.587311
20
8.627407
42
-0.150975
0
VERTEX
8
1
10
12.667305
20
8.613888
42
0.175035
0
VERTEX
8
1
10
12.780911
20
8.623864
42
-0.151860
0
VERTEX
8
1
10
12.883657
20
8.613751
42
0.061079
0
VERTEX
8
1
10
12.942383
20
8.607700
42
-0.094969
0
VERTEX
8
1
10
13.039987
20
8.649248
42
-0.213521
0
VERTEX
8
1
10
13.092369
20
8.627438
42
0.372827
0
VERTEX
8
1
10
13.144363
20
8.665195
42
-0.376114
0
VERTEX
8
1
10
13.182476
20
8.677383
42
-0.023725
0
VERTEX
8
1
10
13.246956
20
8.661125
42
0.064123
0
VERTEX
8
1
10
13.463341
20
8.726772
42
-0.034642
0
VERTEX
8
1
10
13.545212
20
8.740097
42
-0.144070
0
VERTEX
8
1
10
13.638306
20
8.751534
42
0.089775
0
VERTEX
8
1
10
13.725189
20
8.771954
42
0.156920
0
VERTEX
8
1
10
13.840271
20
8.804859
42
0.020421
0
VERTEX
8
1
10
13.958054
20
8.828743
42
-0.020061
0
VERTEX
8
1
10
14.096863
20
8.828629
42
0.068081
0
VERTEX
8
1
10
14.157715
20
8.848011
42
-0.098240
0
VERTEX
8
1
10
14.226608
20
8.829659
0
VERTEX
8
1
10
14.238113
20
8.828083
42
-0.028900
0
VERTEX
8
1
10
14.416374
20
8.827843
42
0.058168
0
VERTEX
8
1
10
14.470215
20
8.807705
42
0.192559
0
VERTEX
8
1
10
14.494263
20
8.824062
0
VERTEX
8
1
10
14.504586
20
8.821742
42
0.091634
0
VERTEX
8
1
10
14.596748
20
8.808823
42
-0.209821
0
VERTEX
8
1
10
14.695549
20
8.760765
42
0.112855
0
VERTEX
8
1
10
14.746834
20
8.744605
42
-0.464680
0
VERTEX
8
1
10
14.753487
20
8.720795
42
0.158129
0
VERTEX
8
1
10
14.655147
20
8.679891
42
0.590104
0
VERTEX
8
1
10
14.682378
20
8.630116
42
0.029052
0
VERTEX
8
1
10
14.744202
20
8.612450
0
VERTEX
8
1
10
14.757263
20
8.601299
0
VERTEX
8
1
10
14.754486
20
8.592598
42
-0.032103
0
VERTEX
8
1
10
14.695488
20
8.588024
42
0.145522
0
VERTEX
8
1
10
14.685287
20
8.558548
0
VERTEX
8
1
10
14.666199
20
8.556389
0
VERTEX
8
1
10
14.651131
20
8.548534
0
VERTEX
8
1
10
14.649055
20
8.534554
42
0.057152
0
VERTEX
8
1
10
14.688065
20
8.466320
42
-0.093207
0
VERTEX
8
1
10
14.687912
20
8.421566
42
0.236202
0
VERTEX
8
1
10
14.701820
20
8.403763
42
0.028024
0
VERTEX
8
1
10
14.721512
20
8.340473
42
-0.040265
0
VERTEX
8
1
10
14.700630
20
8.318817
0
VERTEX
8
1
10
14.685211
20
8.282642
42
-0.355066
0
VERTEX
8
1
10
14.551128
20
8.328053
42
0.102030
0
VERTEX
8
1
10
14.468653
20
8.390214
42
-0.124056
0
VERTEX
8
1
10
14.417293
20
8.400439
0
VERTEX
8
1
10
14.400677
20
8.406155
0
SEQEND
0
POLYLINE
8
1
66
1
70
1
0
VERTEX
8
1
10
14.635765
20
7.636784
0
VERTEX
8
1
10
14.638046
20
7.641750
42
0.087517
0
VERTEX
8
1
10
14.635852
20
7.791783
42
-0.084939
0
VERTEX
8
1
10
14.646042
20
7.885075
0
VERTEX
8
1
10
14.658524
20
7.901936
42
-0.225485
0
VERTEX
8
1
10
14.726974
20
7.840147
42
0.094973
0
VERTEX
8
1
10
14.788200
20
7.775528
0
VERTEX
8
1
10
14.799385
20
7.790527
42
0.123773
0
VERTEX
8
1
10
14.804909
20
7.907295
42
0.009181
0
VERTEX
8
1
10
14.802658
20
8.034443
42
-0.118945
0
VERTEX
8
1
10
14.787108
20
8.129569
42
0.216145
0
VERTEX
8
1
10
14.772415
20
8.148136
42
-0.150255
0
VERTEX
8
1
10
14.770706
20
8.226238
42
0.139136
0
VERTEX
8
1
10
14.786812
20
8.253204
42
-0.300348
0
VERTEX
8
1
10
14.816666
20
8.334553
0
VERTEX
8
1
10
14.826424
20
8.330410
42
-0.071761
0
VERTEX
8
1
10
14.868134
20
8.251606
42
-0.143121
0
VERTEX
8
1
10
14.916229
20
8.165092
0
VERTEX
8
1
10
14.940994
20
8.160126
0
VERTEX
8
1
10
14.944969
20
8.158558
42
0.207900
0
VERTEX
8
1
10
14.980835
20
8.080017
0
VERTEX
8
1
10
14.994781
20
8.075047
42
-0.098169
0
VERTEX
8
1
10
15.054497
20
8.194473
42
-0.127706
0
VERTEX
8
1
10
15.133431
20
8.302200
42
-0.517905
0
VERTEX
8
1
10
15.182640
20
8.268922
42
-0.170416
0
VERTEX
8
1
10
15.172050
20
8.191757
0
VERTEX
8
1
10
15.168411
20
8.178970
42
-0.152634
0
VERTEX
8
1
10
15.134562
20
8.068308
42
0.022379
0
VERTEX
8
1
10
15.050173
20
7.892299
42
0.121356
0
VERTEX
8
1
10
15.039558
20
7.793705
0
VERTEX
8
1
10
15.049530
20
7.787975
42
0.284446
0
VERTEX
8
1
10
15.071686
20
7.822086
42
-0.139269
0
VERTEX
8
1
10
15.110681
20
7.865665
42
-0.016572
0
VERTEX
8
1
10
15.171777
20
7.942255
42
-0.389919
0
VERTEX
8
1
10
15.237114
20
7.934563
0
VERTEX
8
1
10
15.238106
20
7.926449
42
0.140893
0
VERTEX
8
1
10
15.218160
20
7.849285
42
-0.204568
0
VERTEX
8
1
10
15.187739
20
7.751706
42
0.233457
0
VERTEX
8
1
10
15.187729
20
7.696693
42
0.146384
0
VERTEX
8
1
10
15.227676
20
7.725777
42
-0.037347
0
VERTEX
8
1
10
15.472931
20
7.970100
42
0.014059
0
VERTEX
8
1
10
15.557068
20
8.029667
42
0.133460
0
VERTEX
8
1
10
15.688827
20
8.096699
42
-0.204196
0
VERTEX
8
1
10
15.765533
20
8.104782
0
VERTEX
8
1
10
15.770821
20
8.096622
0
VERTEX
8
1
10
15.769905
20
8.084965
0
VERTEX
8
1
10
15.761917
20
8.069851
42
-0.036824
0
VERTEX
8
1
10
15.675011
20
7.985050
0
VERTEX
8
1
10
15.685745
20
7.983688
42
0.060353
0
VERTEX
8
1
10
15.778542
20
8.014149
0
VERTEX
8
1
10
15.795815
20
8.017109
42
-0.018677
0
VERTEX
8
1
10
16.004196
20
8.016281
42
0.217436
0
VERTEX
8
1
10
16.096916
20
8.002357
42
-0.269815
0
VERTEX
8
1
10
16.144524
20
7.984451
42
0.141886
0
VERTEX
8
1
10
16.183138
20
7.978155
42
-0.098085
0
VERTEX
8
1
10
16.274111
20
7.947394
42
-0.077652
0
VERTEX
8
1
10
16.490286
20
7.851156
42
-0.163442
0
VERTEX
8
1
10
16.565292
20
7.793564
0
VERTEX
8
1
10
16.568840
20
7.782162
0
VERTEX
8
1
10
16.565834
20
7.776833
0
VERTEX
8
1
10
16.549492
20
7.784824
42
0.094983
0
VERTEX
8
1
10
16.338619
20
7.772260
42
-0.052192
0
VERTEX
8
1
10
16.268791
20
7.768070
0
VERTEX
8
1
10
16.261696
20
7.788979
42
0.691080
0
VERTEX
8
1
10
16.225754
20
7.809317
42
-0.115901
0
VERTEX
8
1
10
16.134453
20
7.803642
42
0.136382
0
VERTEX
8
1
10
16.077606
20
7.788383
42
0.013567
0
VERTEX
8
1
10
15.892990
20
7.735344
0
VERTEX
8
1
10
15.888023
20
7.738586
42
-0.099239
0
VERTEX
8
1
10
15.908302
20
7.802837
42
-0.057755
0
VERTEX
8
1
10
15.955528
20
7.828133
0
VERTEX
8
1
10
15.965309
20
7.838173
0
VERTEX
8
1
10
15.974228
20
7.856220
0
VERTEX
8
1
10
15.969101
20
7.867741
0
VERTEX
8
1
10
15.953835
20
7.873962
42
0.209703
0
VERTEX
8
1
10
15.749756
20
7.811691
0
VERTEX
8
1
10
15.726634
20
7.794768
42
0.175711
0
VERTEX
8
1
10
15.590178
20
7.588112
0
VERTEX
8
1
10
15.580566
20
7.553017
0
VERTEX
8
1
10
15.579612
20
7.545009
42
-0.420382
0
VERTEX
8
1
10
15.522163
20
7.466679
42
-0.063897
0
VERTEX
8
1
10
15.429680
20
7.442379
0
VERTEX
8
1
10
15.422089
20
7.438683
42
-0.045347
0
VERTEX
8
1
10
15.347343
20
7.386307
42
0.477435
0
VERTEX
8
1
10
15.359390
20
7.343147
42
0.150456
0
VERTEX
8
1
10
15.524208
20
7.319309
0
VERTEX
8
1
10
15.546066
20
7.319458
42
-0.291633
0
VERTEX
8
1
10
15.636421
20
7.271172
0
VERTEX
8
1
10
15.634262
20
7.259560
0
VERTEX
8
1
10
15.621254
20
7.253071
42
-0.017618
0
VERTEX
8
1
10
15.534134
20
7.243156
42
-0.301505
0
VERTEX
8
1
10
15.479022
20
7.226508
42
0.214533
0
VERTEX
8
1
10
15.435867
20
7.216915
42
0.181313
0
VERTEX
8
1
10
15.440445
20
7.158100
0
VERTEX
8
1
10
15.463723
20
7.140320
42
0.103590
0
VERTEX
8
1
10
15.601555
20
7.073630
42
-0.088445
0
VERTEX
8
1
10
15.691778
20
7.038049
42
0.112674
0
VERTEX
8
1
10
15.752426
20
7.028294
42
-0.117954
0
VERTEX
8
1
10
15.847488
20
6.984310
42
-0.054487
0
VERTEX
8
1
10
16.032837
20
6.910751
42
-0.098339
0
VERTEX
8
1
10
16.240173
20
6.695068
42
-0.040981
0
VERTEX
8
1
10
16.386183
20
6.459531
42
-0.165580
0
VERTEX
8
1
10
16.388466
20
6.390888
0
VERTEX
8
1
10
16.375809
20
6.377586
0
VERTEX
8
1
10
16.357231
20
6.374207
42
-0.132159
0
VERTEX
8
1
10
16.279808
20
6.404650
42
0.079204
0
VERTEX
8
1
10
16.142206
20
6.451461
42
0.521337
0
VERTEX
8
1
10
16.098139
20
6.391717
42
0.120041
0
VERTEX
8
1
10
16.135056
20
6.324364
42
-0.078988
0
VERTEX
8
1
10
16.171051
20
6.254581
0
VERTEX
8
1
10
16.177261
20
6.248047
0
VERTEX
8
1
10
16.221840
20
6.237335
42
0.161189
0
VERTEX
8
1
10
16.279755
20
6.147265
42
-0.298211
0
VERTEX
8
1
10
16.295227
20
6.024483
0
VERTEX
8
1
10
16.282021
20
6.013599
42
-0.281273
0
VERTEX
8
1
10
16.200615
20
6.039955
42
0.049220
0
VERTEX
8
1
10
16.045685
20
6.135708
0
VERTEX
8
1
10
16.036171
20
6.131870
42
0.193438
0
VERTEX
8
1
10
16.054136
20
5.945785
42
-0.255079
0
VERTEX
8
1
10
16.041939
20
5.875145
42
0.194470
0
VERTEX
8
1
10
16.031517
20
5.776890
42
-0.228935
0
VERTEX
8
1
10
16.001381
20
5.674877
0
VERTEX
8
1
10
15.965782
20
5.674980
0
VERTEX
8
1
10
15.923920
20
5.701801
42
-0.068220
0
VERTEX
8
1
10
15.806702
20
5.842327
0
VERTEX
8
1
10
15.781860
20
5.869881
0
VERTEX
8
1
10
15.752792
20
5.854462
0
VERTEX
8
1
10
15.736961
20
5.831486
0
VERTEX
8
1
10
15.730812
20
5.803020
0
VERTEX
8
1
10
15.730858
20
5.771103
42
-0.155966
0
VERTEX
8
1
10
15.712797
20
5.615339
42
-0.006818
0
VERTEX
8
1
10
15.631516
20
5.390022
0
VERTEX
8
1
10
15.617378
20
5.367516
0
VERTEX
8
1
10
15.599625
20
5.353313
0
VERTEX
8
1
10
15.577492
20
5.351414
0
VERTEX
8
1
10
15.552628
20
5.364048
0
VERTEX
8
1
10
15.540741
20
5.379162
42
-0.113931
0
VERTEX
8
1
10
15.495911
20
5.557583
42
-0.150491
0
VERTEX
8
1
10
15.515026
20
5.600119
42
0.186424
0
VERTEX
8
1
10
15.533989
20
5.706074
0
VERTEX
8
1
10
15.530869
20
5.745125
42
0.094489
0
VERTEX
8
1
10
15.507492
20
5.893253
42
-0.049074
0
VERTEX
8
1
10
15.495155
20
6.006039
42
0.056361
0
VERTEX
8
1
10
15.453636
20
6.026302
42
-0.038782
0
VERTEX
8
1
10
15.374008
20
6.217491
42
-0.275125
0
VERTEX
8
1
10
15.335457
20
6.278076
0
VERTEX
8
1
10
15.332710
20
6.286381
42
0.075841
0
VERTEX
8
1
10
15.146774
20
6.490143
42
-0.072154
0
VERTEX
8
1
10
15.070801
20
6.547611
42
0.154777
0
VERTEX
8
1
10
14.995369
20
6.561932
42
-0.106801
0
VERTEX
8
1
10
14.933800
20
6.578625
42
-0.003895
0
VERTEX
8
1
10
14.850052
20
6.581486
42
0.172712
0
VERTEX
8
1
10
14.729675
20
6.596348
42
-0.152569
0
VERTEX
8
1
10
14.641563
20
6.615663
42
-0.925872
0
VERTEX
8
1
10
14.634880
20
6.641269
42
-0.229173
0
VERTEX
8
1
10
14.680061
20
6.651260
0
VERTEX
8
1
10
14.689804
20
6.652122
42
-0.109267
0
VERTEX
8
1
10
14.850617
20
6.669170
42
-0.003921
0
VERTEX
8
1
10
15.046059
20
6.667202
42
0.024588
0
VERTEX
8
1
10
15.173645
20
6.645477
42
0.098561
0
VERTEX
8
1
10
15.246056
20
6.632687
42
0.477010
0
VERTEX
8
1
10
15.250053
20
6.665039
42
0.147581
0
VERTEX
8
1
10
15.136278
20
6.748451
42
-0.069598
0
VERTEX
8
1
10
15.029449
20
6.812141
0
VERTEX
8
1
10
15.024445
20
6.828030
42
-0.088906
0
VERTEX
8
1
10
15.185554
20
6.831139
42
0.016052
0
VERTEX
8
1
10
15.344017
20
6.827320
0
VERTEX
8
1
10
15.367638
20
6.832817
0
VERTEX
8
1
10
15.385582
20
6.843220
0
VERTEX
8
1
10
15.378227
20
6.858555
42
0.099779
0
VERTEX
8
1
10
15.120840
20
6.976851
42
-0.085909
0
VERTEX
8
1
10
15.064896
20
7.009163
42
-0.349699
0
VERTEX
8
1
10
15.113533
20
7.027576
42
0.089205
0
VERTEX
8
1
10
15.191765
20
7.045826
42
-0.017956
0
VERTEX
8
1
10
15.286194
20
7.050747
42
-0.029911
0
VERTEX
8
1
10
15.340317
20
7.067963
42
0.353892
0
VERTEX
8
1
10
15.302696
20
7.104866
42
-0.033533
0
VERTEX
8
1
10
15.176804
20
7.146667
42
0.136873
0
VERTEX
8
1
10
15.031685
20
7.147850
42
-0.216343
0
VERTEX
8
1
10
14.968277
20
7.137493
42
0.127926
0
VERTEX
8
1
10
14.927094
20
7.121685
42
-0.213505
0
VERTEX
8
1
10
14.864227
20
7.136688
42
-0.081241
0
VERTEX
8
1
10
14.988129
20
7.206192
42
0.111788
0
VERTEX
8
1
10
15.020668
20
7.237991
42
-0.071176
0
VERTEX
8
1
10
15.056946
20
7.252487
42
0.638530
0
VERTEX
8
1
10
15.015938
20
7.314575
42
-0.325347
0
VERTEX
8
1
10
14.969570
20
7.302876
42
0.225360
0
VERTEX
8
1
10
14.919182
20
7.281776
42
-0.163653
0
VERTEX
8
1
10
14.887475
20
7.279417
42
0.139059
0
VERTEX
8
1
10
14.799805
20
7.254177
42
-0.123864
0
VERTEX
8
1
10
14.717262
20
7.240494
42
0.008506
0
VERTEX
8
1
10
14.694496
20
7.222939
42
-0.668952
0
VERTEX
8
1
10
14.682747
20
7.259884
42
-0.046048
0
VERTEX
8
1
10
14.757744
20
7.304379
0
VERTEX
8
1
10
14.777657
20
7.321358
42
0.680862
0
VERTEX
8
1
10
14.750664
20
7.368664
42
-0.089425
0
VERTEX
8
1
10
14.627541
20
7.330421
42
-0.077151
0
VERTEX
8
1
10
14.548607
20
7.297371
42
-0.189341
0
VERTEX
8
1
10
14.484962
20
7.265114
42
0.016179
0
VERTEX
8
1
10
14.362968
20
7.210899
42
-0.028480
0
VERTEX
8
1
10
14.426010
20
7.190624
0
VERTEX
8
1
10
14.339882
20
7.190628
42
-0.216192
0
VERTEX
8
1
10
14.327049
20
7.190338
42
0.284762
0
VERTEX
8
1
10
14.356084
20
7.207464
0
VERTEX
8
1
10
14.358936
20
7.209332
0
VERTEX
8
1
10
14.361977
20
7.210873
42
-0.332811
0
VERTEX
8
1
10
14.322212
20
7.234566
42
-0.043905
0
VERTEX
8
1
10
14.410805
20
7.397953
42
0.145873
0
VERTEX
8
1
10
14.426361
20
7.489647
42
-0.020198
0
VERTEX
8
1
10
14.419838
20
7.636959
0
VERTEX
8
1
10
14.424500
20
7.671326
0
VERTEX
8
1
10
14.435677
20
7.686054
42
-0.102204
0
VERTEX
8
1
10
14.536255
20
7.620537
42
0.012185
0
VERTEX
8
1
10
14.574692
20
7.549160
0
VERTEX
8
1
10
14.586494
20
7.539558
0
VERTEX
8
1
10
14.601433
20
7.534851
42
-0.032276
0
SEQEND
0
POLYLINE
8
1
66
1
70
1
0
VERTEX
8
1
10
13.142227
20
5.916874
0
VERTEX
8
1
10
13.145004
20
5.918587
0
VERTEX
8
1
10
13.241478
20
5.995770
42
-0.154149
0
VERTEX
8
1
10
13.276907
20
6.049297
42
-0.039624
0
VERTEX
8
1
10
13.361504
20
6.129341
0
VERTEX
8
1
10
13.388391
20
6.163105
42
-0.008710
0
VERTEX
8
1
10
13.558709
20
6.409068
42
-0.057855
0
VERTEX
8
1
10
13.895835
20
6.760297
0
VERTEX
8
1
10
13.929758
20
6.784830
0
VERTEX
8
1
10
13.964699
20
6.807892
42
-0.026144
0
VERTEX
8
1
10
14.107544
20
6.919010
0
VERTEX
8
1
10
14.148926
20
6.941601
0
VERTEX
8
1
10
14.187683
20
6.953571
0
VERTEX
8
1
10
14.221352
20
6.950665
0
VERTEX
8
1
10
14.247505
20
6.928604
0
VERTEX
8
1
10
14.252129
20
6.902939
42
-0.031468
0
VERTEX
8
1
10
14.144577
20
6.806011
42
0.070005
0
VERTEX
8
1
10
14.017607
20
6.720072
0
VERTEX
8
1
10
14.003462
20
6.709958
42
0.281394
0
VERTEX
8
1
10
13.972058
20
6.644548
0
VERTEX
8
1
10
13.973320
20
6.629841
0
VERTEX
8
1
10
13.977165
20
6.625072
42
0.098443
0
VERTEX
8
1
10
14.149236
20
6.619603
42
-0.102253
0
VERTEX
8
1
10
14.237709
20
6.609470
0
VERTEX
8
1
10
14.231514
20
6.592628
42
-0.154539
0
VERTEX
8
1
10
14.081535
20
6.480919
42
0.058058
0
VERTEX
8
1
10
13.900162
20
6.439789
0
VERTEX
8
1
10
13.875557
20
6.424263
0
VERTEX
8
1
10
13.860573
20
6.404816
42
0.462459
0
VERTEX
8
1
10
13.888100
20
6.348824
42
0.167391
0
VERTEX
8
1
10
14.015060
20
6.352753
42
-0.284337
0
VERTEX
8
1
10
14.092946
20
6.377181
42
0.136312
0
VERTEX
8
1
10
14.169678
20
6.397835
42
-0.081449
0
VERTEX
8
1
10
14.266503
20
6.401235
42
-0.060925
0
VERTEX
8
1
10
14.417809
20
6.397961
0
VERTEX
8
1
10
14.426994
20
6.393379
42
-0.112275
0
VERTEX
8
1
10
14.304085
20
6.314548
42
0.157014
0
VERTEX
8
1
10
14.190646
20
6.272499
42
0.087628
0
VERTEX
8
1
10
14.062934
20
6.191617
0
VERTEX
8
1
10
14.058043
20
6.182335
42
0.391968
0
VERTEX
8
1
10
14.069965
20
6.134732
42
0.202710
0
VERTEX
8
1
10
14.113556
20
6.124901
42
0.139296
0
VERTEX
8
1
10
14.247123
20
6.151907
42
-0.045627
0
VERTEX
8
1
10
14.337024
20
6.180613
42
-0.245215
0
VERTEX
8
1
10
14.376221
20
6.160156
0
VERTEX
8
1
10
14.383659
20
6.158817
42
-0.216863
0
VERTEX
8
1
10
14.537582
20
6.117908
42
0.106254
0
VERTEX
8
1
10
14.638989
20
6.082675
42
-0.155567
0
VERTEX
8
1
10
14.698448
20
6.041443
0
VERTEX
8
1
10
14.702492
20
6.022968
0
VERTEX
8
1
10
14.696693
20
6.000591
0
VERTEX
8
1
10
14.678001
20
5.999203
42
-0.056703
0
VERTEX
8
1
10
14.561569
20
6.045948
0
VERTEX
8
1
10
14.543121
20
6.051193
0
VERTEX
8
1
10
14.525345
20
6.052616
0
VERTEX
8
1
10
14.537308
20
6.036926
42
-0.013031
0
VERTEX
8
1
10
14.745468
20
5.825085
42
-0.127234
0
VERTEX
8
1
10
14.815058
20
5.678691
42
-0.271462
0
VERTEX
8
1
10
14.783714
20
5.627491
0
VERTEX
8
1
10
14.757202
20
5.632614
42
0.201923
0
VERTEX
8
1
10
14.540047
20
5.921242
0
VERTEX
8
1
10
14.502678
20
5.936970
42
0.094665
0
VERTEX
8
1
10
14.161631
20
5.965014
42
-0.065390
0
VERTEX
8
1
10
14.104195
20
5.974762
42
-0.067893
0
VERTEX
8
1
10
13.929230
20
5.933201
42
0.029759
0
VERTEX
8
1
10
13.797086
20
5.896738
42
-0.106471
0
VERTEX
8
1
10
13.757156
20
5.899590
0
VERTEX
8
1
10
13.748238
20
5.909157
0
VERTEX
8
1
10
13.746506
20
5.925488
42
-0.182091
0
VERTEX
8
1
10
13.813171
20
6.024415
42
0.247548
0
VERTEX
8
1
10
13.835373
20
6.108276
42
0.378823
0
VERTEX
8
1
10
13.772690
20
6.134735
42
0.092631
0
VERTEX
8
1
10
13.682143
20
6.103750
42
0.060820
0
VERTEX
8
1
10
13.418304
20
5.940960
42
-0.186976
0
VERTEX
8
1
10
13.292328
20
5.916420
42
0.040396
0
VERTEX
8
1
10
13.142769
20
5.916790
0
VERTEX
8
1
10
13.107925
20
5.888920
0
VERTEX
8
1
10
13.107300
20
5.888866
0
VERTEX
8
1
10
13.111794
20
5.910709
42
-0.036769
0
SEQEND
0
POLYLINE
8
1
66
1
70
1
0
VERTEX
8
1
10
13.938942
20
4.402523
42
0.157745
0
VERTEX
8
1
10
13.904190
20
4.396553
42
-0.026037
0
VERTEX
8
1
10
13.903603
20
4.383366
0
VERTEX
8
1
10
13.886192
20
4.383366
42
-0.129115
0
VERTEX
8
1
10
13.904106
20
4.397678
42
-0.097611
0
VERTEX
8
1
10
13.925293
20
4.478046
42
-0.219827
0
VERTEX
8
1
10
14.008949
20
4.611683
0
VERTEX
8
1
10
14.029770
20
4.618549
0
VERTEX
8
1
10
14.045967
20
4.625027
0
VERTEX
8
1
10
14.048264
20
4.638710
42
0.131000
0
VERTEX
8
1
10
14.066628
20
4.792877
42
-0.012792
0
VERTEX
8
1
10
14.064125
20
4.902695
42
-0.255427
0
VERTEX
8
1
10
14.094513
20
4.939747
42
0.245644
0
VERTEX
8
1
10
14.100159
20
4.987946
42
-0.105674
0
VERTEX
8
1
10
14.121742
20
5.042114
42
0.458977
0
VERTEX
8
1
10
14.077663
20
5.106872
42
-0.414395
0
VERTEX
8
1
10
14.036474
20
5.213634
42
-0.212506
0
VERTEX
8
1
10
14.099098
20
5.259338
42
0.280708
0
VERTEX
8
1
10
14.138412
20
5.248028
42
-0.199115
0
VERTEX
8
1
10
14.187820
20
5.207184
42
-0.093351
0
VERTEX
8
1
10
14.259789
20
5.110485
42
-0.216272
0
VERTEX
8
1
10
14.245552
20
5.009235
42
0.083055
0
VERTEX
8
1
10
14.224640
20
4.914734
42
0.120338
0
VERTEX
8
1
10
14.210083
20
4.797249
0
VERTEX
8
1
10
14.209373
20
4.774670
42
0.007226
0
VERTEX
8
1
10
14.181835
20
4.585289
42
-0.209388
0
VERTEX
8
1
10
14.053978
20
4.430305
42
-0.224120
0
SEQEND
0
POLYLINE
8
1
66
1
70
1
0
VERTEX
8
1
10
13.158447
20
4.793240
0
VERTEX
8
1
10
13.154335
20
4.801529
42
-0.065769
0
VERTEX
8
1
10
13.103691
20
4.888618
0
VERTEX
8
1
10
13.108505
20
4.902649
42
-0.250428
0
VERTEX
8
1
10
13.176155
20
4.920258
42
0.036123
0
VERTEX
8
1
10
13.234871
20
4.919666
42
0.362790
0
VERTEX
8
1
10
13.234299
20
4.953178
42
-0.019390
0
VERTEX
8
1
10
13.174744
20
5.036976
42
-0.022228
0
VERTEX
8
1
10
13.114517
20
5.251160
0
VERTEX
8
1
10
13.116714
20
5.264866
0
VERTEX
8
1
10
13.133873
20
5.264961
42
-0.098444
0
VERTEX
8
1
10
13.263420
20
5.203060
0
VERTEX
8
1
10
13.269623
20
5.201603
42
-0.091943
0
VERTEX
8
1
10
13.295387
20
5.285912
42
-0.081144
0
VERTEX
8
1
10
13.323532
20
5.403301
42
-0.366263
0
VERTEX
8
1
10
13.355949
20
5.475494
42
0.186971
0
VERTEX
8
1
10
13.390455
20
5.530638
42
-0.076917
0
VERTEX
8
1
10
13.411835
20
5.561600
0
VERTEX
8
1
10
13.423576
20
5.564957
42
-0.321951
0
VERTEX
8
1
10
13.459747
20
5.518379
42
0.032520
0
VERTEX
8
1
10
13.468201
20
5.387001
0
VERTEX
8
1
10
13.479286
20
5.372185
0
VERTEX
8
1
10
13.499138
20
5.376427
0
VERTEX
8
1
10
13.530380
20
5.405643
42
-0.003355
0
VERTEX
8
1
10
13.634926
20
5.553769
42
-0.134643
0
VERTEX
8
1
10
13.693321
20
5.589222
0
VERTEX
8
1
10
13.699379
20
5.576511
42
-0.108484
0
VERTEX
8
1
10
13.694885
20
5.432762
42
0.129781
0
VERTEX
8
1
10
13.670448
20
5.350521
0
VERTEX
8
1
10
13.677277
20
5.333084
42
0.623760
0
VERTEX
8
1
10
13.714813
20
5.328285
42
-0.453576
0
VERTEX
8
1
10
13.806278
20
5.332361
42
-0.583609
0
VERTEX
8
1
10
13.781658
20
5.293412
42
0.370657
0
VERTEX
8
1
10
13.753906
20
5.260818
42
-0.050482
0
VERTEX
8
1
10
13.692619
20
5.179436
42
0.096385
0
VERTEX
8
1
10
13.669304
20
5.089615
0
VERTEX
8
1
10
13.666054
20
5.083477
42
0.282760
0
VERTEX
8
1
10
13.645630
20
5.050613
0
VERTEX
8
1
10
13.648224
20
5.001236
42
-0.184380
0
VERTEX
8
1
10
13.624146
20
4.958538
42
0.166342
0
VERTEX
8
1
10
13.620071
20
4.874046
42
-0.113025
0
VERTEX
8
1
10
13.605347
20
4.765877
42
0.209976
0
VERTEX
8
1
10
13.630424
20
4.568924
42
-0.067016
0
VERTEX
8
1
10
13.674629
20
4.445675
42
0.150900
0
VERTEX
8
1
10
13.717743
20
4.404316
42
-0.443366
0
VERTEX
8
1
10
13.721397
20
4.351326
0
VERTEX
8
1
10
13.710395
20
4.350806
42
-0.245565
0
VERTEX
8
1
10
13.666238
20
4.371991
42
0.239500
0
VERTEX
8
1
10
13.616338
20
4.375848
42
-0.175397
0
VERTEX
8
1
10
13.529411
20
4.400097
0
VERTEX
8
1
10
13.519043
20
4.403706
42
0.066470
0
VERTEX
8
1
10
13.403862
20
4.404053
0
VERTEX
8
1
10
13.377563
20
4.430340
42
-0.344270
0
VERTEX
8
1
10
13.315956
20
4.452286
0
VERTEX
8
1
10
13.307472
20
4.461979
42
0.035761
0
VERTEX
8
1
10
13.116058
20
4.597849
42
-0.817356
0
VERTEX
8
1
10
13.153737
20
4.655577
0
VERTEX
8
1
10
13.166449
20
4.652804
42
-0.006792
0
VERTEX
8
1
10
13.232432
20
4.617270
42
0.539612
0
VERTEX
8
1
10
13.273392
20
4.656631
42
0.414390
0
VERTEX
8
1
10
13.207008
20
4.725140
42
-0.183442
0
SEQEND
0
POLYLINE
8
1
66
1
70
1
0
VERTEX
8
1
10
12.966545
20
3.382324
42
0.024639
0
VERTEX
8
1
10
12.939445
20
3.287071
42
0.001398
0
VERTEX
8
1
10
12.894554
20
3.207966
42
0.127125
0
VERTEX
8
1
10
12.962392
20
3.242584
42
-0.040065
0
VERTEX
8
1
10
13.115387
20
3.319336
42
-0.021896
0
VERTEX
8
1
10
13.240585
20
3.391998
0
VERTEX
8
1
10
13.268616
20
3.400059
0
VERTEX
8
1
10
13.291885
20
3.398750
0
VERTEX
8
1
10
13.307922
20
3.384975
0
VERTEX
8
1
10
13.312523
20
3.369045
42
-0.135392
0
VERTEX
8
1
10
13.175385
20
3.215652
42
-0.053858
0
VERTEX
8
1
10
13.082535
20
3.143883
42
0.143409
0
VERTEX
8
1
10
13.020195
20
3.032524
0
VERTEX
8
1
10
13.025963
20
3.031040
42
0.042909
0
VERTEX
8
1
10
13.092345
20
3.078125
42
0.000863
0
VERTEX
8
1
10
13.250482
20
3.131395
42
-0.007801
0
VERTEX
8
1
10
13.363640
20
3.190098
42
0.070938
0
VERTEX
8
1
10
13.556679
20
3.256423
42
-0.050820
0
VERTEX
8
1
10
13.640518
20
3.280460
42
0.052166
0
VERTEX
8
1
10
13.727669
20
3.337940
42
-0.159150
0
VERTEX
8
1
10
13.810081
20
3.348492
42
0.162920
0
VERTEX
8
1
10
13.892685
20
3.372002
42
-0.134941
0
VERTEX
8
1
10
13.962967
20
3.375908
0
VERTEX
8
1
10
13.977089
20
3.375980
42
0.980988
0
VERTEX
8
1
10
13.987610
20
3.447224
42
0.058089
0
VERTEX
8
1
10
13.838185
20
3.453605
42
-0.141855
0
VERTEX
8
1
10
13.737106
20
3.493122
0
VERTEX
8
1
10
13.731270
20
3.505379
42
-0.068761
0
VERTEX
8
1
10
13.899475
20
3.561768
42
0.111084
0
VERTEX
8
1
10
13.994977
20
3.612475
42
0.427052
0
VERTEX
8
1
10
13.986465
20
3.646828
42
0.221621
0
VERTEX
8
1
10
13.931904
20
3.656949
42
-0.097414
0
VERTEX
8
1
10
13.813993
20
3.674051
42
0.076171
0
VERTEX
8
1
10
13.693643
20
3.672899
42
-0.138087
0
VERTEX
8
1
10
13.645317
20
3.689705
0
VERTEX
8
1
10
13.641228
20
3.704243
42
-0.405718
0
VERTEX
8
1
10
13.734645
20
3.773161
42
-0.003333
0
VERTEX
8
1
10
13.831301
20
3.775218
42
0.141736
0
VERTEX
8
1
10
13.917592
20
3.818880
42
-0.314663
0
VERTEX
8
1
10
14.035583
20
3.810326
42
0.131453
0
VERTEX
8
1
10
14.124290
20
3.822735
42
-0.093712
0
VERTEX
8
1
10
14.224815
20
3.826859
42
0.269165
0
VERTEX
8
1
10
14.295990
20
3.870220
42
-0.056009
0
VERTEX
8
1
10
14.281520
20
3.782955
42
0.058801
0
VERTEX
8
1
10
14.268608
20
3.622017
42
-0.036782
0
VERTEX
8
1
10
14.240735
20
3.447030
42
0.087487
0
VERTEX
8
1
10
14.248222
20
3.361710
42
0.190038
0
VERTEX
8
1
10
14.323517
20
3.291965
0
VERTEX
8
1
10
14.376892
20
3.265396
42
-0.140264
0
VERTEX
8
1
10
14.467751
20
3.183628
42
-0.254493
0
VERTEX
8
1
10
14.452515
20
3.103626
42
0.315397
0
VERTEX
8
1
10
14.487160
20
3.015503
42
0.048584
0
VERTEX
8
1
10
14.660934
20
2.908089
42
0.000571
0
VERTEX
8
1
10
14.815908
20
2.794556
42
-0.250135
0
VERTEX
8
1
10
14.844254
20
2.712643
42
0.275858
0
VERTEX
8
1
10
14.920868
20
2.551617
42
0.005180
0
VERTEX
8
1
10
14.996040
20
2.493385
42
-0.192979
0
VERTEX
8
1
10
15.070038
20
2.434853
42
0.121779
0
VERTEX
8
1
10
15.151039
20
2.406040
42
-0.004616
0
VERTEX
8
1
10
15.233818
20
2.375443
42
0.004489
0
VERTEX
8
1
10
15.311562
20
2.372143
42
-0.075198
0
VERTEX
8
1
10
15.401825
20
2.299801
0
VERTEX
8
1
10
15.399529
20
2.286694
0
VERTEX
8
1
10
15.388245
20
2.276630
42
-0.113656
0
VERTEX
8
1
10
15.273323
20
2.275501
42
0.107116
0
VERTEX
8
1
10
15.189308
20
2.255806
42
-0.211971
0
VERTEX
8
1
10
15.090321
20
2.268715
0
VERTEX
8
1
10
15.083034
20
2.268874
42
-0.023714
0
VERTEX
8
1
10
14.970596
20
2.234566
0
VERTEX
8
1
10
14.964119
20
2.229839
42
0.268385
0
VERTEX
8
1
10
14.980840
20
2.163729
42
0.051519
0
VERTEX
8
1
10
15.054344
20
2.070820
42
0.049594
0
VERTEX
8
1
10
15.137978
20
1.966671
42
0.058230
0
VERTEX
8
1
10
15.244815
20
1.822095
42
-0.380886
0
VERTEX
8
1
10
15.219524
20
1.627194
42
-0.171873
0
VERTEX
8
1
10
15.130173
20
1.599125
0
VERTEX
8
1
10
15.107452
20
1.608105
0
VERTEX
8
1
10
15.092049
20
1.625881
42
-0.049952
0
VERTEX
8
1
10
15.061516
20
1.738255
0
VERTEX
8
1
10
15.051163
20
1.765018
42
0.070614
0
VERTEX
8
1
10
14.926193
20
1.903831
42
-0.083456
0
VERTEX
8
1
10
14.776649
20
2.092426
42
-0.223845
0
VERTEX
8
1
10
14.790009
20
2.159962
0
VERTEX
8
1
10
14.784599
20
2.170418
42
0.008254
0
VERTEX
8
1
10
14.571568
20
2.168367
42
-0.056937
0
VERTEX
8
1
10
14.504837
20
2.181965
0
VERTEX
8
1
10
14.492332
20
2.198143
42
-0.140142
0
VERTEX
8
1
10
14.556625
20
2.297184
0
VERTEX
8
1
10
14.567970
20
2.302803
42
0.116931
0
VERTEX
8
1
10
14.639832
20
2.334492
0
VERTEX
8
1
10
14.639740
20
2.343246
42
-0.059917
0
VERTEX
8
1
10
14.521721
20
2.390686
42
0.131462
0
VERTEX
8
1
10
14.449244
20
2.396867
42
-0.070419
0
VERTEX
8
1
10
14.355934
20
2.401882
42
0.158557
0
VERTEX
8
1
10
14.245331
20
2.427105
42
-0.049445
0
VERTEX
8
1
10
14.063187
20
2.424164
42
0.075915
0
VERTEX
8
1
10
13.921333
20
2.455009
42
-0.143929
0
VERTEX
8
1
10
13.880432
20
2.476891
0
VERTEX
8
1
10
13.885353
20
2.486874
42
-0.024558
0
VERTEX
8
1
10
14.012329
20
2.552372
42
-0.050430
0
VERTEX
8
1
10
14.120979
20
2.618252
42
-0.032099
0
VERTEX
8
1
10
14.241527
20
2.628633
42
0.125992
0
VERTEX
8
1
10
14.299004
20
2.654015
0
VERTEX
8
1
10
14.312691
20
2.675797
0
VERTEX
8
1
10
14.312660
20
2.696522
0
VERTEX
8
1
10
14.298622
20
2.699467
42
0.022807
0
VERTEX
8
1
10
14.120011
20
2.697541
42
-0.228109
0
VERTEX
8
1
10
14.086800
20
2.720093
42
0.044141
0
VERTEX
8
1
10
13.911911
20
2.721191
0
VERTEX
8
1
10
13.883118
20
2.722939
0
VERTEX
8
1
10
13.855095
20
2.727737
0
VERTEX
8
1
10
13.848671
20
2.737213
42
-0.086918
0
VERTEX
8
1
10
13.951614
20
2.846958
42
-0.019149
0
VERTEX
8
1
10
14.061914
20
2.885050
42
0.179170
0
VERTEX
8
1
10
14.090187
20
2.918373
42
-0.056052
0
VERTEX
8
1
10
13.788878
20
2.900795
42
0.072103
0
VERTEX
8
1
10
13.685608
20
2.876835
0
VERTEX
8
1
10
13.673882
20
2.875927
42
0.123962
0
VERTEX
8
1
10
13.402527
20
2.830013
42
0.155946
0
VERTEX
8
1
10
13.293800
20
2.764763
0
VERTEX
8
1
10
13.289421
20
2.775341
42
-0.232113
0
VERTEX
8
1
10
13.331681
20
2.850792
42
0.246081
0
VERTEX
8
1
10
13.366597
20
2.978042
42
-0.256620
0
VERTEX
8
1
10
13.404160
20
3.050205
42
0.165211
0
VERTEX
8
1
10
13.190971
20
2.984203
42
-0.162080
0
VERTEX
8
1
10
13.107635
20
2.971325
42
0.344105
0
VERTEX
8
1
10
13.022141
20
2.906086
0
VERTEX
8
1
10
13.017632
20
2.898487
0
VERTEX
8
1
10
13.011383
20
2.890930
42
0.034066
0
VERTEX
8
1
10
12.876534
20
2.793030
42
-0.417409
0
VERTEX
8
1
10
12.912207
20
2.784574
42
-0.200503
0
VERTEX
8
1
10
12.877441
20
2.667282
0
VERTEX
8
1
10
13.009827
20
2.762909
42
-0.100777
0
VERTEX
8
1
10
13.060143
20
2.799259
0
VERTEX
8
1
10
13.089455
20
2.820419
42
0.015818
0
VERTEX
8
1
10
13.097183
20
2.845978
42
0.084043
0
VERTEX
8
1
10
13.164513
20
2.874622
0
VERTEX
8
1
10
13.091133
20
2.821632
0
VERTEX
8
1
10
13.089539
20
2.820015
0
VERTEX
8
1
10
13.086075
20
2.805626
42
0.076787
0
VERTEX
8
1
10
13.059731
20
2.798954
0
VERTEX
8
1
10
13.013412
20
2.765499
42
0.021201
0
VERTEX
8
1
10
12.928551
20
2.654121
42
0.087551
0
VERTEX
8
1
10
12.864510
20
2.582924
42
-0.204194
0
VERTEX
8
1
10
12.834969
20
2.530914
0
VERTEX
8
1
10
12.822876
20
2.528080
0
VERTEX
8
1
10
12.816162
20
2.537064
0
VERTEX
8
1
10
12.815575
20
2.550732
42
-0.105558
0
VERTEX
8
1
10
12.872742
20
2.663887
0
VERTEX
8
1
10
12.714752
20
2.549782
0
VERTEX
8
1
10
12.692162
20
2.557915
0
VERTEX
8
1
10
12.684288
20
2.574562
0
VERTEX
8
1
10
12.690216
20
2.596989
0
VERTEX
8
1
10
12.706070
20
2.622822
42
-0.026727
0
VERTEX
8
1
10
12.871887
20
2.789253
0
VERTEX
8
1
10
12.861549
20
2.783833
42
-0.050517
0
VERTEX
8
1
10
12.615524
20
2.645115
42
-0.031225
0
VERTEX
8
1
10
12.483162
20
2.570732
42
-0.085251
0
VERTEX
8
1
10
12.422508
20
2.528114
0
VERTEX
8
1
10
12.416969
20
2.532085
0
VERTEX
8
1
10
12.417641
20
2.546577
42
-0.101703
0
VERTEX
8
1
10
12.518906
20
2.756157
42
0.018953
0
VERTEX
8
1
10
12.654350
20
2.959236
0
VERTEX
8
1
10
12.637939
20
2.970825
0
VERTEX
8
1
10
12.618774
20
2.977245
42
0.181092
0
VERTEX
8
1
10
12.460741
20
2.928573
42
-0.034993
0
VERTEX
8
1
10
12.333794
20
2.860008
0
VERTEX
8
1
10
12.316971
20
2.856003
0
VERTEX
8
1
10
12.316071
20
2.868382
42
-0.189833
0
VERTEX
8
1
10
12.434519
20
3.058758
42
0.093278
0
VERTEX
8
1
10
12.481178
20
3.130798
42
-0.243366
0
VERTEX
8
1
10
12.531654
20
3.163052
42
0.225540
0
VERTEX
8
1
10
12.584969
20
3.222372
42
-0.170282
0
VERTEX
8
1
10
12.660301
20
3.291531
42
0.054384
0
VERTEX
8
1
10
12.768196
20
3.361927
0
VERTEX
8
1
10
12.781609
20
3.369022
42
0.172751
0
VERTEX
8
1
10
12.912979
20
3.464550
42
-0.145820
0
VERTEX
8
1
10
13.012131
20
3.531387
0
VERTEX
8
1
10
13.054596
20
3.547600
0
VERTEX
8
1
10
13.062790
20
3.543987
42
-0.238342
0
VERTEX
8
1
10
13.025696
20
3.479038
42
0.086361
0
SEQEND
0
POLYLINE
8
1
66
1
70
1
0
VERTEX
8
1
10
13.662035
20
1.948878
42
-0.033180
0
VERTEX
8
1
10
13.514740
20
1.962845
42
-0.129566
0
VERTEX
8
1
10
13.469297
20
1.984694
42
-0.323279
0
VERTEX
8
1
10
13.467918
20
2.011456
42
-0.042558
0
VERTEX
8
1
10
13.523537
20
2.072582
42
-0.129390
0
VERTEX
8
1
10
13.577591
20
2.139229
0
VERTEX
8
1
10
13.572807
20
2.146946
0
VERTEX
8
1
10
13.542809
20
2.152069
42
0.029845
0
VERTEX
8
1
10
13.372332
20
2.139791
42
-0.097472
0
VERTEX
8
1
10
13.289993
20
2.157372
0
VERTEX
8
1
10
13.272148
20
2.173092
42
-0.282445
0
VERTEX
8
1
10
13.285904
20
2.231823
42
-0.027922
0
VERTEX
8
1
10
13.355293
20
2.300003
42
0.034664
0
VERTEX
8
1
10
13.217209
20
2.295673
42
-0.091131
0
VERTEX
8
1
10
13.115486
20
2.272770
0
VERTEX
8
1
10
13.085617
20
2.280453
42
-0.348929
0
VERTEX
8
1
10
13.066156
20
2.332150
42
0.078902
0
VERTEX
8
1
10
13.060326
20
2.379650
0
VERTEX
8
1
10
13.047249
20
2.392448
42
0.208715
0
VERTEX
8
1
10
12.969566
20
2.382959
42
-0.109374
0
VERTEX
8
1
10
12.924080
20
2.376019
42
0.041945
0
VERTEX
8
1
10
12.768845
20
2.333427
42
-0.032072
0
VERTEX
8
1
10
12.643471
20
2.259682
42
-0.365314
0
VERTEX
8
1
10
12.589287
20
2.273842
0
VERTEX
8
1
10
12.575745
20
2.341560
42
-0.050790
0
VERTEX
8
1
10
12.634117
20
2.328194
0
VERTEX
8
1
10
12.634285
20
2.336685
0
VERTEX
8
1
10
12.629776
20
2.347000
42
0.070311
0
VERTEX
8
1
10
12.564209
20
2.399170
0
VERTEX
8
1
10
12.575485
20
2.342876
42
-0.093249
0
VERTEX
8
1
10
12.430990
20
2.389225
42
0.128687
0
VERTEX
8
1
10
12.307170
20
2.399624
42
-0.029405
0
VERTEX
8
1
10
12.165420
20
2.403314
42
0.214450
0
VERTEX
8
1
10
12.133102
20
2.381428
42
0.059057
0
VERTEX
8
1
10
11.827049
20
2.294926
42
0.572487
0
VERTEX
8
1
10
11.816489
20
2.258453
42
0.276361
0
VERTEX
8
1
10
11.867268
20
2.223780
42
0.431862
0
VERTEX
8
1
10
11.891441
20
2.266346
42
0.072289
0
VERTEX
8
1
10
11.995430
20
2.313072
42
-0.195889
0
VERTEX
8
1
10
12.202463
20
2.295617
42
-0.005696
0
VERTEX
8
1
10
12.293892
20
2.254349
42
-0.038400
0
VERTEX
8
1
10
12.427132
20
2.211472
42
-0.361363
0
VERTEX
8
1
10
12.530815
20
2.117985
42
0.003858
0
VERTEX
8
1
10
12.546524
20
1.995862
42
-0.202922
0
VERTEX
8
1
10
12.556557
20
1.952644
42
0.263529
0
VERTEX
8
1
10
12.533696
20
1.897603
42
-0.265542
0
VERTEX
8
1
10
12.494592
20
1.845432
42
0.423934
0
VERTEX
8
1
10
12.479647
20
1.742040
42
0.354278
0
VERTEX
8
1
10
12.538345
20
1.738552
0
VERTEX
8
1
10
12.561821
20
1.759092
42
0.072115
0
VERTEX
8
1
10
12.708940
20
1.958157
42
0.189643
0
VERTEX
8
1
10
12.707501
20
2.043298
42
-0.097050
0
VERTEX
8
1
10
12.691635
20
2.114346
0
VERTEX
8
1
10
12.699425
20
2.119389
42
-0.147459
0
VERTEX
8
1
10
12.785440
20
2.042368
42
0.134016
0
VERTEX
8
1
10
13.050217
20
1.861601
42
-0.096173
0
VERTEX
8
1
10
13.252874
20
1.737777
42
-0.193210
0
VERTEX
8
1
10
13.264931
20
1.680878
0
VERTEX
8
1
10
13.267509
20
1.660370
0
VERTEX
8
1
10
13.276268
20
1.636250
42
0.207558
0
VERTEX
8
1
10
13.407499
20
1.561573
42
-0.047093
0
VERTEX
8
1
10
13.515717
20
1.525753
42
0.119684
0
VERTEX
8
1
10
13.627014
20
1.522865
0
VERTEX
8
1
10
13.638687
20
1.522511
42
-0.024672
0
VERTEX
8
1
10
13.794426
20
1.477840
0
VERTEX
8
1
10
13.818436
20
1.473068
42
-0.021959
0
VERTEX
8
1
10
14.003128
20
1.448090
42
0.004754
0
VERTEX
8
1
10
14.313118
20
1.446814
42
0.437997
0
VERTEX
8
1
10
14.424125
20
1.588109
42
-0.253647
0
VERTEX
8
1
10
14.471194
20
1.671951
42
-0.167584
0
VERTEX
8
1
10
14.608894
20
1.717709
42
0.121686
0
VERTEX
8
1
10
14.765223
20
1.755332
42
0.489278
0
VERTEX
8
1
10
14.762459
20
1.800224
0
VERTEX
8
1
10
14.742220
20
1.811696
42
0.206996
0
VERTEX
8
1
10
14.571349
20
1.831243
42
0.164518
0
VERTEX
8
1
10
14.297673
20
1.701554
42
-0.034709
0
VERTEX
8
1
10
14.223015
20
1.661388
42
-0.137510
0
VERTEX
8
1
10
14.210846
20
1.602512
42
-0.293905
0
VERTEX
8
1
10
14.138491
20
1.607493
42
0.182394
0
VERTEX
8
1
10
14.039722
20
1.619612
42
-0.169911
0
VERTEX
8
1
10
13.929703
20
1.645264
0
VERTEX
8
1
10
13.919884
20
1.648113
0
VERTEX
8
1
10
13.903397
20
1.649506
42
-0.037519
0
VERTEX
8
1
10
13.737134
20
1.640820
42
-0.612295
0
VERTEX
8
1
10
13.725098
20
1.687305
42
-0.065816
0
VERTEX
8
1
10
13.832962
20
1.765633
0
VERTEX
8
1
10
13.823509
20
1.770607
42
0.083756
0
VERTEX
8
1
10
13.670343
20
1.774728
42
0.062423
0
VERTEX
8
1
10
13.609684
20
1.746651
42
-0.270223
0
VERTEX
8
1
10
13.566109
20
1.759281
0
VERTEX
8
1
10
13.548447
20
1.777824
42
-0.551329
0
VERTEX
8
1
10
13.568047
20
1.846569
0
VERTEX
8
1
10
13.584198
20
1.856503
42
0.266972
0
VERTEX
8
1
10
13.633039
20
1.923576
42
-0.275185
0
SEQEND
0
POLYLINE
8
1
66
1
70
1
0
VERTEX
8
1
10
11.962234
20
1.972908
42
0.023827
0
VERTEX
8
1
10
12.211448
20
1.873875
42
-0.083173
0
VERTEX
8
1
10
12.398582
20
1.751358
0
VERTEX
8
1
10
12.388672
20
1.744923
42
-0.095944
0
VERTEX
8
1
10
12.266617
20
1.789650
42
0.105237
0
VERTEX
8
1
10
12.153909
20
1.800711
42
-0.259441
0
VERTEX
8
1
10
12.133392
20
1.815933
42
0.227392
0
VERTEX
8
1
10
12.071114
20
1.821918
42
-0.207606
0
VERTEX
8
1
10
12.008202
20
1.832500
42
0.006808
0
VERTEX
8
1
10
11.844147
20
1.909439
42
-0.413340
0
VERTEX
8
1
10
11.847610
20
1.940433
42
0.000330
0
VERTEX
8
1
10
11.883179
20
2.005505
42
0.085565
0
VERTEX
8
1
10
11.887016
20
2.048126
0
SEQEND
0
POLYLINE
8
1
66
1
70
1
0
VERTEX
8
1
10
12.183891
20
4.726544
42
0.014822
0
VERTEX
8
1
10
12.270069
20
4.816490
42
1.015288
0
VERTEX
8
1
10
12.240364
20
4.831059
42
-0.261449
0
VERTEX
8
1
10
12.222427
20
4.823910
42
0.174520
0
VERTEX
8
1
10
12.092476
20
4.788109
42
-0.057183
0
VERTEX
8
1
10
11.963692
20
4.737128
0
VERTEX
8
1
10
11.958624
20
4.734420
42
0.063176
0
VERTEX
8
1
10
12.019714
20
4.809361
42
0.043843
0
VERTEX
8
1
10
12.103569
20
4.917259
0
VERTEX
8
1
10
12.114853
20
4.928677
42
0.041640
0
VERTEX
8
1
10
12.307083
20
5.103188
0
VERTEX
8
1
10
12.312920
20
5.105247
42
0.338672
0
VERTEX
8
1
10
12.370975
20
5.133008
42
-0.203034
0
VERTEX
8
1
10
12.415810
20
5.159691
42
-0.124351
0
VERTEX
8
1
10
12.541440
20
5.246937
42
0.021340
0
VERTEX
8
1
10
12.666336
20
5.321011
42
-0.093806
0
VERTEX
8
1
10
12.745178
20
5.341526
42
-0.330081
0
VERTEX
8
1
10
12.804359
20
5.355434
42
0.103657
0
VERTEX
8
1
10
12.866867
20
5.371513
42
-0.075321
0
VERTEX
8
1
10
12.997368
20
5.367435
42
-0.332268
0
VERTEX
8
1
10
13.005531
20
5.346413
42
0.015907
0
VERTEX
8
1
10
13.007675
20
5.130939
42
-0.305684
0
VERTEX
8
1
10
12.993229
20
4.975161
42
-0.013036
0
VERTEX
8
1
10
12.961967
20
4.931335
42
-0.107941
0
VERTEX
8
1
10
12.917950
20
4.831737
42
0.103591
0
VERTEX
8
1
10
12.875725
20
4.722916
42
0.094976
0
VERTEX
8
1
10
12.853661
20
4.538017
0
VERTEX
8
1
10
12.851601
20
4.513763
42
0.300930
0
VERTEX
8
1
10
12.877052
20
4.437363
42
-0.109866
0
VERTEX
8
1
10
12.893570
20
4.406200
0
VERTEX
8
1
10
12.915443
20
4.400990
0
VERTEX
8
1
10
12.918350
20
4.399395
0
VERTEX
8
1
10
12.924416
20
4.373894
42
-0.021462
0
VERTEX
8
1
10
12.985146
20
4.347519
42
0.194455
0
VERTEX
8
1
10
13.004929
20
4.303223
0
VERTEX
8
1
10
12.938568
20
4.303219
42
-0.237707
0
VERTEX
8
1
10
12.899651
20
4.264690
42
0.104097
0
VERTEX
8
1
10
12.841688
20
4.226043
42
-0.019275
0
VERTEX
8
1
10
12.750732
20
4.158165
42
-0.015567
0
VERTEX
8
1
10
12.674500
20
4.082527
42
-0.047224
0
VERTEX
8
1
10
12.588199
20
3.961280
42
-0.004973
0
VERTEX
8
1
10
12.530807
20
3.873039
42
-0.158190
0
VERTEX
8
1
10
12.466652
20
3.754261
0
VERTEX
8
1
10
12.461708
20
3.744076
42
-0.183292
0
VERTEX
8
1
10
12.421976
20
3.650020
42
0.052641
0
VERTEX
8
1
10
12.337370
20
3.495456
0
VERTEX
8
1
10
12.332688
20
3.477975
0
VERTEX
8
1
10
12.329704
20
3.460125
42
0.087991
0
VERTEX
8
1
10
12.298431
20
3.352661
42
0.083785
0
VERTEX
8
1
10
12.251110
20
3.219469
42
-0.050154
0
VERTEX
8
1
10
12.202927
20
3.089199
42
-0.859456
0
VERTEX
8
1
10
12.180663
20
3.077974
42
-0.253279
0
VERTEX
8
1
10
12.150558
20
3.155224
42
0.011776
0
VERTEX
8
1
10
12.152100
20
3.286976
0
VERTEX
8
1
10
12.154282
20
3.291824
42
0.326784
0
VERTEX
8
1
10
12.167503
20
3.351604
42
-0.132952
0
VERTEX
8
1
10
12.187767
20
3.411930
42
-0.079327
0
VERTEX
8
1
10
12.303307
20
3.652630
42
0.055324
0
VERTEX
8
1
10
12.374329
20
3.797806
42
-0.008185
0
VERTEX
8
1
10
12.461060
20
3.973741
42
-0.056508
0
VERTEX
8
1
10
12.558346
20
4.091737
42
0.007524
0
VERTEX
8
1
10
12.697083
20
4.254139
42
0.492953
0
VERTEX
8
1
10
12.684570
20
4.312241
42
-0.129672
0
VERTEX
8
1
10
12.668068
20
4.367165
42
0.137075
0
VERTEX
8
1
10
12.550827
20
4.364174
42
0.065175
0
VERTEX
8
1
10
12.479156
20
4.310051
42
0.152347
0
VERTEX
8
1
10
12.180037
20
3.936333
42
-0.058273
0
VERTEX
8
1
10
12.084572
20
3.779591
42
0.009259
0
VERTEX
8
1
10
12.013863
20
3.613481
42
-0.075352
0
VERTEX
8
1
10
11.948341
20
3.532891
0
VERTEX
8
1
10
11.927810
20
3.493485
42
-0.015437
0
VERTEX
8
1
10
11.843396
20
3.332090
0
VERTEX
8
1
10
11.833256
20
3.309799
0
VERTEX
8
1
10
11.824791
20
3.286819
42
0.012059
0
VERTEX
8
1
10
11.785126
20
3.241009
42
-0.234951
0
VERTEX
8
1
10
11.760620
20
3.172436
0
VERTEX
8
1
10
11.756264
20
3.165241
42
-0.076768
0
VERTEX
8
1
10
11.706985
20
3.040501
0
VERTEX
8
1
10
11.701019
20
3.048424
0
VERTEX
8
1
10
11.698273
20
3.064915
42
-0.009181
0
VERTEX
8
1
10
11.703479
20
3.258647
0
VERTEX
8
1
10
11.708503
20
3.277690
42
0.032088
0
VERTEX
8
1
10
11.767639
20
3.424496
42
-0.037807
0
VERTEX
8
1
10
11.868523
20
3.627106
42
0.034769
0
VERTEX
8
1
10
11.898346
20
3.712463
42
0.060323
0
VERTEX
8
1
10
12.007805
20
3.910263
42
-0.023849
0
VERTEX
8
1
10
12.174034
20
4.143715
42
0.025222
0
VERTEX
8
1
10
12.325171
20
4.398242
42
-0.058857
0
VERTEX
8
1
10
12.462531
20
4.565496
42
0.104108
0
VERTEX
8
1
10
12.511848
20
4.653175
42
0.467885
0
VERTEX
8
1
10
12.395836
20
4.637527
42
-0.173356
0
VERTEX
8
1
10
12.322426
20
4.582516
42
0.123474
0
VERTEX
8
1
10
12.273529
20
4.541397
0
VERTEX
8
1
10
12.261276
20
4.530361
0
VERTEX
8
1
10
12.233766
20
4.513528
42
0.095799
0
VERTEX
8
1
10
12.124213
20
4.412298
42
-0.078467
0
VERTEX
8
1
10
12.039833
20
4.347435
42
0.027431
0
VERTEX
8
1
10
11.945473
20
4.245560
42
0.121963
0
VERTEX
8
1
10
11.837334
20
4.143242
42
-0.020591
0
VERTEX
8
1
10
11.620773
20
3.950687
42
-0.035191
0
VERTEX
8
1
10
11.494225
20
3.801910
42
-0.030323
0
VERTEX
8
1
10
11.351555
20
3.623837
42
-0.062538
0
VERTEX
8
1
10
11.280212
20
3.516327
42
-0.007644
0
VERTEX
8
1
10
11.179230
20
3.327198
42
-0.050258
0
VERTEX
8
1
10
11.158119
20
3.248753
0
VERTEX
8
1
10
11.147743
20
3.238884
0
VERTEX
8
1
10
11.135040
20
3.237400
42
0.049631
0
VERTEX
8
1
10
11.101364
20
3.325714
0
VERTEX
8
1
10
11.097359
20
3.343582
0
VERTEX
8
1
10
11.097137
20
3.361889
42
-0.162648
0
VERTEX
8
1
10
11.207443
20
3.556847
42
0.107088
0
VERTEX
8
1
10
11.250214
20
3.641697
42
-0.088398
0
VERTEX
8
1
10
11.359589
20
3.787903
42
-0.078941
0
VERTEX
8
1
10
11.492371
20
3.941475
42
0.064329
0
VERTEX
8
1
10
11.604462
20
4.076775
42
-0.013081
0
VERTEX
8
1
10
11.788406
20
4.290812
0
VERTEX
8
1
10
11.813889
20
4.323288
42
-0.065426
0
VERTEX
8
1
10
12.171584
20
4.713530
0
VERTEX
8
1
10
12.177770
20
4.720006
0
SEQEND
0
POLYLINE
8
1
66
1
70
1
0
VERTEX
8
1
10
7.213303
20
4.866219
42
-0.114568
0
VERTEX
8
1
10
7.333191
20
4.883751
42
0.200703
0
VERTEX
8
1
10
7.433907
20
4.609871
42
-0.026572
0
VERTEX
8
1
10
7.548904
20
4.453396
42
0.214563
0
VERTEX
8
1
10
7.687386
20
4.380440
42
0.044047
0
VERTEX
8
1
10
7.923821
20
4.377043
42
-0.006148
0
VERTEX
8
1
10
8.325176
20
4.384828
42
-0.106065
0
VERTEX
8
1
10
8.440825
20
4.345425
42
0.102235
0
VERTEX
8
1
10
8.513451
20
4.331924
0
VERTEX
8
1
10
8.505051
20
4.325134
42
-0.089138
0
VERTEX
8
1
10
8.281921
20
4.297779
42
0.019028
0
VERTEX
8
1
10
8.023109
20
4.293953
0
VERTEX
8
1
10
7.970482
20
4.286686
0
VERTEX
8
1
10
7.927383
20
4.274227
0
VERTEX
8
1
10
7.896179
20
4.255253
0
VERTEX
8
1
10
7.879852
20
4.230766
42
0.096068
0
VERTEX
8
1
10
7.871002
20
4.057831
42
-0.047053
0
VERTEX
8
1
10
7.883029
20
3.723409
42
0.024465
0
VERTEX
8
1
10
7.888351
20
3.503692
42
-0.261580
0
VERTEX
8
1
10
7.753067
20
3.751274
0
VERTEX
8
1
10
7.750854
20
3.787582
42
0.121081
0
VERTEX
8
1
10
7.681421
20
4.086228
42
0.151044
0
VERTEX
8
1
10
7.447105
20
4.298954
42
0.016216
0
VERTEX
8
1
10
7.321396
20
4.329163
42
-0.223142
0
VERTEX
8
1
10
7.193024
20
4.470570
42
0.098925
0
VERTEX
8
1
10
7.066071
20
4.676929
42
0.021212
0
VERTEX
8
1
10
6.993156
20
4.719128
42
-0.129964
0
VERTEX
8
1
10
6.939835
20
4.824287
42
-0.070182
0
VERTEX
8
1
10
7.082703
20
4.832245
42
0.084827
0
SEQEND
0
POLYLINE
8
1
66
1
70
1
0
VERTEX
8
1
10
5.095947
20
1.933575
0
VERTEX
8
1
10
5.125931
20
1.873623
42
-0.031974
0
VERTEX
8
1
10
5.447878
20
1.835264
42
0.053440
0
VERTEX
8
1
10
5.747816
20
1.828626
42
-0.046746
0
VERTEX
8
1
10
5.907982
20
1.814709
42
-0.035872
0
VERTEX
8
1
10
6.013107
20
1.762562
42
0.016177
0
VERTEX
8
1
10
6.242617
20
1.688581
42
0.014320
0
VERTEX
8
1
10
6.533121
20
1.586747
42
0.092063
0
VERTEX
8
1
10
6.662560
20
1.577267
0
VERTEX
8
1
10
6.710884
20
1.579544
42
-0.124835
0
VERTEX
8
1
10
6.975039
20
1.533323
42
0.128795
0
VERTEX
8
1
10
7.122818
20
1.528725
0
VERTEX
8
1
10
7.129837
20
1.573673
42
0.244550
0
VERTEX
8
1
10
7.079651
20
1.669415
42
0.104332
0
VERTEX
8
1
10
6.914837
20
1.716786
42
-0.130336
0
VERTEX
8
1
10
6.804642
20
1.766842
0
VERTEX
8
1
10
6.831085
20
1.789696
42
-0.222560
0
VERTEX
8
1
10
7.042816
20
1.791313
42
0.079625
0
VERTEX
8
1
10
7.365067
20
1.697762
42
-0.057933
0
VERTEX
8
1
10
7.850029
20
1.564971
0
VERTEX
8
1
10
7.870168
20
1.559185
42
-0.030853
0
VERTEX
8
1
10
8.028488
20
1.527313
42
0.009922
0
VERTEX
8
1
10
8.227409
20
1.438316
42
0.065320
0
VERTEX
8
1
10
8.540519
20
1.386598
42
-0.072156
0
VERTEX
8
1
10
8.892818
20
1.301672
42
0.040746
0
VERTEX
8
1
10
9.103226
20
1.257580
42
0.035072
0
VERTEX
8
1
10
9.307945
20
1.223156
0
VERTEX
8
1
10
9.324310
20
1.224506
0
VERTEX
8
1
10
9.333542
20
1.228828
0
VERTEX
8
1
10
9.343857
20
1.252159
0
VERTEX
8
1
10
9.336769
20
1.276237
42
0.105024
0
VERTEX
8
1
10
9.239899
20
1.349072
42
0.026302
0
VERTEX
8
1
10
8.963745
20
1.461605
42
0.014006
0
VERTEX
8
1
10
8.651442
20
1.597639
42
-0.057789
0
VERTEX
8
1
10
8.427370
20
1.737055
42
0.196977
0
VERTEX
8
1
10
8.241451
20
1.777943
42
-0.225562
0
VERTEX
8
1
10
8.156567
20
1.813565
42
0.181741
0
VERTEX
8
1
10
8.113083
20
1.823208
42
0.302682
0
VERTEX
8
1
10
8.130646
20
1.859467
42
-0.014553
0
VERTEX
8
1
10
7.855711
20
1.928564
42
0.024567
0
VERTEX
8
1
10
7.583260
20
1.981838
42
0.048257
0
VERTEX
8
1
10
7.428062
20
2.021927
42
0.004759
0
VERTEX
8
1
10
6.463597
20
2.023620
0
VERTEX
8
1
10
6.357704
20
2.019012
0
VERTEX
8
1
10
6.344685
20
2.019155
42
-0.422362
0
VERTEX
8
1
10
6.275059
20
2.095591
42
-0.213586
0
VERTEX
8
1
10
6.296331
20
2.166371
42
0.023558
0
VERTEX
8
1
10
6.327965
20
2.209366
42
0.152882
0
VERTEX
8
1
10
6.320984
20
2.366344
42
0.018508
0
VERTEX
8
1
10
6.225700
20
2.335312
42
0.036857
0
VERTEX
8
1
10
5.978683
20
2.257401
42
0.008047
0
VERTEX
8
1
10
5.764015
20
2.138954
42
-0.061228
0
VERTEX
8
1
10
5.385586
20
2.027034
42
0.046910
0
SEQEND
0
POLYLINE
8
1
66
1
70
1
0
VERTEX
8
1
10
11.787910
20
1.421631
42
0.153006
0
VERTEX
8
1
10
11.582316
20
1.449785
42
-0.009145
0
VERTEX
8
1
10
11.514885
20
1.446228
0
VERTEX
8
1
10
11.316071
20
1.446205
42
-0.057978
0
VERTEX
8
1
10
11.134468
20
1.447495
0
VERTEX
8
1
10
11.116074
20
1.454990
42
-0.633720
0
VERTEX
8
1
10
11.117012
20
1.488178
42
-0.132691
0
VERTEX
8
1
10
11.319763
20
1.520955
42
-0.015152
0
VERTEX
8
1
10
11.600553
20
1.517266
42
0.042184
0
VERTEX
8
1
10
11.648972
20
1.524048
0
VERTEX
8
1
10
11.658096
20
1.530792
0
VERTEX
8
1
10
11.652748
20
1.538216
0
VERTEX
8
1
10
11.644432
20
1.545010
0
VERTEX
8
1
10
11.611090
20
1.560436
42
0.126567
0
VERTEX
8
1
10
11.416817
20
1.596587
0
VERTEX
8
1
10
11.372059
20
1.594780
42
-0.159703
0
VERTEX
8
1
10
11.220886
20
1.617928
0
VERTEX
8
1
10
11.209732
20
1.620167
42
0.016500
0
VERTEX
8
1
10
11.061859
20
1.616497
42
-0.090905
0
VERTEX
8
1
10
10.971443
20
1.642654
0
VERTEX
8
1
10
10.960500
20
1.645000
0
VERTEX
8
1
10
10.738978
20
1.646713
42
0.009272
0
VERTEX
8
1
10
9.904450
20
1.640519
42
-0.015164
0
VERTEX
8
1
10
9.649445
20
1.644989
0
VERTEX
8
1
10
9.603348
20
1.652592
0
VERTEX
8
1
10
9.582100
20
1.664497
42
-0.039150
0
VERTEX
8
1
10
9.674301
20
1.692997
42
0.166936
0
VERTEX
8
1
10
9.782379
20
1.717388
42
-0.142980
0
VERTEX
8
1
10
9.853455
20
1.719685
42
0.151418
0
VERTEX
8
1
10
9.934395
20
1.742924
42
-0.085027
0
VERTEX
8
1
10
10.026680
20
1.746407
42
0.096735
0
VERTEX
8
1
10
10.166245
20
1.792447
42
0.011411
0
VERTEX
8
1
10
10.203583
20
1.807781
42
0.429640
0
VERTEX
8
1
10
10.167252
20
1.823895
42
-0.176562
0
VERTEX
8
1
10
10.079727
20
1.840824
42
0.058426
0
VERTEX
8
1
10
9.924057
20
1.847488
42
0.021437
0
VERTEX
8
1
10
9.566819
20
1.843570
42
-0.151439
0
VERTEX
8
1
10
9.522934
20
1.865532
42
0.187857
0
VERTEX
8
1
10
9.446037
20
1.872425
42
-0.107679
0
VERTEX
8
1
10
9.355171
20
1.891724
42
0.079839
0
VERTEX
8
1
10
9.125267
20
1.897400
42
-0.100678
0
VERTEX
8
1
10
8.958260
20
1.916134
42
0.070113
0
VERTEX
8
1
10
8.788379
20
1.916957
42
-0.202393
0
VERTEX
8
1
10
8.676521
20
1.963905
0
VERTEX
8
1
10
8.674011
20
1.974644
42
-0.325201
0
VERTEX
8
1
10
8.707214
20
2.002331
42
-0.072590
0
VERTEX
8
1
10
8.846163
20
1.998096
42
0.001617
0
VERTEX
8
1
10
9.454213
20
1.998142
0
VERTEX
8
1
10
9.454201
20
2.019550
42
0.146297
0
VERTEX
8
1
10
9.377045
20
2.029385
0
VERTEX
8
1
10
9.540512
20
2.094765
0
VERTEX
8
1
10
9.542809
20
2.096199
0
VERTEX
8
1
10
9.519020
20
2.101913
0
VERTEX
8
1
10
9.516449
20
2.105076
42
0.119804
0
VERTEX
8
1
10
9.478882
20
2.209835
42
0.042961
0
VERTEX
8
1
10
9.339989
20
2.277580
0
VERTEX
8
1
10
9.320076
20
2.280350
42
0.022811
0
VERTEX
8
1
10
9.230309
20
2.248249
42
0.082805
0
VERTEX
8
1
10
9.087750
20
2.225678
42
-0.202292
0
VERTEX
8
1
10
9.031136
20
2.243107
42
0.182242
0
VERTEX
8
1
10
8.959892
20
2.228371
42
-0.174162
0
VERTEX
8
1
10
8.913023
20
2.233693
42
0.138075
0
VERTEX
8
1
10
8.787744
20
2.226651
42
-0.150526
0
VERTEX
8
1
10
8.623001
20
2.248402
42
0.206468
0
VERTEX
8
1
10
8.514817
20
2.226848
42
-0.487161
0
VERTEX
8
1
10
8.420874
20
2.282005
42
0.249722
0
VERTEX
8
1
10
8.339888
20
2.345788
42
-0.389036
0
VERTEX
8
1
10
8.303192
20
2.432121
42
-0.142048
0
VERTEX
8
1
10
8.406513
20
2.494324
42
0.072402
0
VERTEX
8
1
10
8.450974
20
2.524681
0
VERTEX
8
1
10
8.501099
20
2.549801
0
VERTEX
8
1
10
8.499184
20
2.556381
42
0.067778
0
VERTEX
8
1
10
8.315735
20
2.573246
42
-0.062570
0
VERTEX
8
1
10
8.032074
20
2.628117
42
-0.038944
0
VERTEX
8
1
10
7.799866
20
2.710167
42
0.061217
0
VERTEX
8
1
10
7.568126
20
2.755503
42
-0.048335
0
VERTEX
8
1
10
7.406163
20
2.802267
42
0.079971
0
VERTEX
8
1
10
7.211418
20
2.826294
0
VERTEX
8
1
10
7.146873
20
2.825031
42
-0.163313
0
VERTEX
8
1
10
6.733665
20
2.923401
0
VERTEX
8
1
10
6.707924
20
2.944469
0
VERTEX
8
1
10
6.691353
20
2.966671
0
VERTEX
8
1
10
6.686783
20
2.992798
0
VERTEX
8
1
10
6.698265
20
3.022408
0
VERTEX
8
1
10
6.721352
20
3.052456
0
VERTEX
8
1
10
6.778099
20
3.112213
0
VERTEX
8
1
10
6.799644
20
3.141094
0
VERTEX
8
1
10
6.808548
20
3.168755
0
VERTEX
8
1
10
6.798759
20
3.194786
0
VERTEX
8
1
10
6.764214
20
3.218773
42
0.212257
0
VERTEX
8
1
10
6.542511
20
3.221844
0
VERTEX
8
1
10
6.504044
20
3.205669
42
-0.054252
0
VERTEX
8
1
10
6.240504
20
3.095788
42
0.152988
0
VERTEX
8
1
10
6.131577
20
2.999297
42
-0.149151
0
VERTEX
8
1
10
5.999367
20
2.901943
42
0.042099
0
VERTEX
8
1
10
5.817429
20
2.812809
42
0.060140
0
VERTEX
8
1
10
5.662674
20
2.739082
42
0.041614
0
VERTEX
8
1
10
5.590096
20
2.653797
42
-0.253270
0
VERTEX
8
1
10
5.475883
20
2.627392
42
0.048201
0
VERTEX
8
1
10
5.401085
20
2.568619
42
-0.101158
0
VERTEX
8
1
10
5.272450
20
2.531063
42
0.213217
0
VERTEX
8
1
10
5.169035
20
2.443520
42
-0.131317
0
VERTEX
8
1
10
5.053825
20
2.349289
42
-0.009216
0
VERTEX
8
1
10
4.820107
20
2.248444
0
VERTEX
8
1
10
4.784042
20
2.230175
42
-0.106909
0
VERTEX
8
1
10
4.506351
20
2.121111
42
-0.077725
0
VERTEX
8
1
10
4.394180
20
2.129017
0
VERTEX
8
1
10
4.380089
20
2.155045
42
-0.191149
0
VERTEX
8
1
10
4.474152
20
2.256618
0
VERTEX
8
1
10
4.508507
20
2.276363
42
0.090407
0
VERTEX
8
1
10
4.715010
20
2.422030
42
-0.040431
0
VERTEX
8
1
10
4.871216
20
2.534122
0
VERTEX
8
1
10
4.892792
20
2.550739
42
-0.035286
0
VERTEX
8
1
10
5.054863
20
2.683239
42
-0.064870
0
VERTEX
8
1
10
5.149925
20
2.713699
42
0.133299
0
VERTEX
8
1
10
5.262810
20
2.793339
42
-0.145033
0
VERTEX
8
1
10
5.396725
20
2.884543
0
VERTEX
8
1
10
5.417999
20
2.889671
42
0.021260
0
VERTEX
8
1
10
5.434158
20
2.962158
0
VERTEX
8
1
10
5.448448
20
2.970600
42
0.097227
0
VERTEX
8
1
10
5.710220
20
3.074448
42
-0.011703
0
VERTEX
8
1
10
6.000195
20
3.225589
42
0.168067
0
VERTEX
8
1
10
6.103838
20
3.360649
42
-0.121100
0
VERTEX
8
1
10
6.208430
20
3.483584
42
0.279993
0
VERTEX
8
1
10
6.234230
20
3.585819
42
0.209053
0
VERTEX
8
1
10
6.154877
20
3.671837
42
-0.293951
0
VERTEX
8
1
10
6.130750
20
3.760508
42
0.271576
0
VERTEX
8
1
10
6.082588
20
3.862995
0
VERTEX
8
1
10
6.066086
20
3.875786
42
-0.059941
0
VERTEX
8
1
10
5.820343
20
4.056015
0
VERTEX
8
1
10
5.802025
20
4.077389
0
VERTEX
8
1
10
5.809479
20
4.081581
42
0.337380
0
VERTEX
8
1
10
5.920695
20
4.154226
42
0.269828
0
VERTEX
8
1
10
5.903893
20
4.196911
42
0.097700
0
VERTEX
8
1
10
5.568161
20
4.381859
42
-0.106501
0
VERTEX
8
1
10
5.433856
20
4.478403
42
0.143689
0
VERTEX
8
1
10
5.329509
20
4.532056
42
0.257237
0
VERTEX
8
1
10
5.268188
20
4.499256
42
-0.123391
0
VERTEX
8
1
10
5.160789
20
4.408394
42
-0.123092
0
VERTEX
8
1
10
4.859306
20
4.310986
42
0.097437
0
VERTEX
8
1
10
4.711372
20
4.255039
42
0.129088
0
VERTEX
8
1
10
4.571388
20
4.152206
0
VERTEX
8
1
10
4.569496
20
4.170750
42
-0.346951
0
VERTEX
8
1
10
4.645790
20
4.318893
42
-0.045064
0
VERTEX
8
1
10
4.731255
20
4.327690
42
0.292683
0
VERTEX
8
1
10
4.804169
20
4.399815
0
VERTEX
8
1
10
4.812607
20
4.430759
42
-0.259088
0
VERTEX
8
1
10
4.871193
20
4.496040
42
0.088004
0
VERTEX
8
1
10
5.014816
20
4.586765
42
0.147475
0
VERTEX
8
1
10
5.172462
20
4.765006
42
-0.082583
0
VERTEX
8
1
10
5.235252
20
4.849483
42
-0.178468
0
VERTEX
8
1
10
5.367836
20
4.884079
0
VERTEX
8
1
10
5.465118
20
4.883648
0
VERTEX
8
1
10
5.479240
20
4.882679
0
VERTEX
8
1
10
5.577179
20
4.833729
0
VERTEX
8
1
10
5.591942
20
4.829552
42
-0.071613
0
VERTEX
8
1
10
5.754372
20
4.714363
42
-0.000676
0
VERTEX
8
1
10
5.972388
20
4.549874
42
0.100241
0
VERTEX
8
1
10
6.171796
20
4.477463
42
-0.028220
0
VERTEX
8
1
10
6.368624
20
4.424349
42
-0.162876
0
VERTEX
8
1
10
6.613373
20
4.212570
42
-0.206386
0
VERTEX
8
1
10
6.615616
20
4.119659
0
VERTEX
8
1
10
6.607628
20
4.096355
42
0.303344
0
VERTEX
8
1
10
6.640472
20
3.848045
42
0.380463
0
VERTEX
8
1
10
6.845274
20
3.786898
42
-0.012869
0
VERTEX
8
1
10
6.972666
20
3.828664
0
VERTEX
8
1
10
6.986302
20
3.829190
42
-0.359425
0
VERTEX
8
1
10
7.050491
20
3.783237
42
-0.030505
0
VERTEX
8
1
10
7.098228
20
3.575802
42
-0.172028
0
VERTEX
8
1
10
7.135060
20
3.408868
42
0.243330
0
VERTEX
8
1
10
7.241906
20
3.203400
42
0.164944
0
VERTEX
8
1
10
7.579347
20
3.072008
42
-0.054608
0
VERTEX
8
1
10
7.810745
20
3.019352
42
0.013561
0
VERTEX
8
1
10
8.034050
20
2.981110
42
-0.150113
0
VERTEX
8
1
10
8.097008
20
2.942787
42
0.248424
0
VERTEX
8
1
10
8.198250
20
2.926018
42
-0.218320
0
VERTEX
8
1
10
8.321304
20
2.912651
42
0.219932
0
VERTEX
8
1
10
8.446615
20
2.839909
42
-0.110242
0
VERTEX
8
1
10
8.614593
20
2.764230
42
0.019715
0
VERTEX
8
1
10
8.716530
20
2.700741
0
VERTEX
8
1
10
8.730499
20
2.698696
42
0.226872
0
VERTEX
8
1
10
8.799088
20
2.822147
42
-0.098509
0
VERTEX
8
1
10
8.849091
20
2.918976
42
0.110952
0
VERTEX
8
1
10
8.879086
20
3.074810
42
-0.132164
0
VERTEX
8
1
10
8.910652
20
3.148506
42
-0.260780
0
VERTEX
8
1
10
8.998982
20
3.033428
42
0.118073
0
VERTEX
8
1
10
9.036362
20
2.977737
42
0.511960
0
VERTEX
8
1
10
9.094292
20
3.008293
42
-0.028777
0
VERTEX
8
1
10
9.155231
20
3.208718
42
-0.009400
0
VERTEX
8
1
10
9.176613
20
3.278450
42
-0.036672
0
VERTEX
8
1
10
9.183311
20
3.419140
42
0.264962
0
VERTEX
8
1
10
9.204544
20
3.455421
0
VERTEX
8
1
10
9.202179
20
3.502136
42
-0.140896
0
VERTEX
8
1
10
9.266086
20
3.594907
42
-0.327469
0
VERTEX
8
1
10
9.313667
20
3.588264
42
-0.097422
0
VERTEX
8
1
10
9.380879
20
3.473007
42
0.314839
0
VERTEX
8
1
10
9.482427
20
3.424465
42
0.395496
0
VERTEX
8
1
10
9.504311
20
3.476948
0
VERTEX
8
1
10
9.503653
20
3.488738
42
-0.346486
0
VERTEX
8
1
10
9.521233
20
3.531990
42
0.034970
0
VERTEX
8
1
10
9.576668
20
3.702435
42
-0.025868
0
VERTEX
8
1
10
9.710517
20
3.973488
0
VERTEX
8
1
10
9.737198
20
3.996414
0
VERTEX
8
1
10
9.761444
20
3.998871
0
VERTEX
8
1
10
9.783470
20
3.984772
42
-0.036743
0
VERTEX
8
1
10
9.871556
20
3.841473
42
0.302795
0
VERTEX
8
1
10
9.942287
20
3.807321
42
0.132602
0
VERTEX
8
1
10
9.971474
20
3.823505
42
-0.014529
0
VERTEX
8
1
10
10.056618
20
3.857529
42
0.080678
0
VERTEX
8
1
10
10.103371
20
3.941952
42
0.047217
0
VERTEX
8
1
10
10.156548
20
4.024404
42
-0.037013
0
VERTEX
8
1
10
10.176113
20
4.170505
42
-0.249125
0
VERTEX
8
1
10
10.219360
20
4.201206
0
VERTEX
8
1
10
10.232315
20
4.195278
42
-0.018470
0
VERTEX
8
1
10
10.329430
20
4.095722
0
VERTEX
8
1
10
10.344162
20
4.085121
0
VERTEX
8
1
10
10.359863
20
4.095856
42
0.101896
0
VERTEX
8
1
10
10.480034
20
4.403759
42
-0.174616
0
VERTEX
8
1
10
10.519630
20
4.443016
42
0.191879
0
VERTEX
8
1
10
10.537140
20
4.519997
42
-0.034590
0
VERTEX
8
1
10
10.582146
20
4.648533
42
0.007479
0
VERTEX
8
1
10
10.584106
20
4.808170
42
-0.165691
0
VERTEX
8
1
10
10.646400
20
4.926529
42
-0.382860
0
VERTEX
8
1
10
10.717941
20
4.914185
42
0.104013
0
VERTEX
8
1
10
10.779976
20
4.856791
42
0.292874
0
VERTEX
8
1
10
10.870872
20
4.878628
42
0.005303
0
VERTEX
8
1
10
10.960411
20
4.973789
42
-0.110735
0
VERTEX
8
1
10
11.008988
20
4.997210
42
0.092588
0
VERTEX
8
1
10
11.125610
20
5.070629
42
-0.017067
0
VERTEX
8
1
10
11.251074
20
5.147201
42
-0.141322
0
VERTEX
8
1
10
11.377174
20
5.213173
42
0.077759
0
VERTEX
8
1
10
11.475449
20
5.272301
42
-0.022507
0
VERTEX
8
1
10
11.576005
20
5.303557
0
VERTEX
8
1
10
11.585905
20
5.302366
42
0.055215
0
VERTEX
8
1
10
11.657433
20
5.278652
0
VERTEX
8
1
10
11.661163
20
5.273701
0
VERTEX
8
1
10
11.663116
20
5.254482
42
-0.167167
0
VERTEX
8
1
10
11.592567
20
5.176586
42
0.022734
0
VERTEX
8
1
10
11.345551
20
5.004082
0
VERTEX
8
1
10
11.307701
20
4.968834
0
VERTEX
8
1
10
11.298355
20
4.959229
42
0.676312
0
VERTEX
8
1
10
11.310036
20
4.904797
42
0.108435
0
VERTEX
8
1
10
11.392206
20
4.907079
42
-0.399681
0
VERTEX
8
1
10
11.407349
20
4.884640
42
-0.221309
0
VERTEX
8
1
10
11.367569
20
4.805859
42
0.064554
0
VERTEX
8
1
10
11.233391
20
4.613338
42
-0.016580
0
VERTEX
8
1
10
11.144073
20
4.500889
42
-0.138577
0
VERTEX
8
1
10
11.041275
20
4.369331
42
0.082218
0
VERTEX
8
1
10
10.981392
20
4.276375
42
0.103621
0
VERTEX
8
1
10
10.933311
20
4.207432
42
-0.245328
0
VERTEX
8
1
10
10.905491
20
4.125441
42
0.015481
0
VERTEX
8
1
10
10.780815
20
3.929413
42
0.070578
0
VERTEX
8
1
10
10.741127
20
3.877174
42
-0.410110
0
VERTEX
8
1
10
10.692467
20
3.910934
42
-0.191946
0
VERTEX
8
1
10
10.704958
20
4.062776
42
0.193828
0
VERTEX
8
1
10
10.701775
20
4.101429
42
0.211158
0
VERTEX
8
1
10
10.626380
20
4.039332
42
-0.011534
0
VERTEX
8
1
10
10.537048
20
3.882530
42
0.116681
0
VERTEX
8
1
10
10.429932
20
3.722130
42
-0.046289
0
VERTEX
8
1
10
10.344337
20
3.614128
42
-0.058124
0
VERTEX
8
1
10
10.232552
20
3.460709
0
VERTEX
8
1
10
10.223785
20
3.446468
42
-0.053892
0
VERTEX
8
1
10
10.099136
20
3.241058
42
-0.009618
0
VERTEX
8
1
10
10.053734
20
3.158039
42
0.258630
0
VERTEX
8
1
10
10.004234
20
3.051952
42
-0.110115
0
VERTEX
8
1
10
9.966507
20
2.966217
42
0.018437
0
VERTEX
8
1
10
9.914787
20
2.751347
0
VERTEX
8
1
10
9.912910
20
2.700951
42
0.126933
0
VERTEX
8
1
10
9.945259
20
2.529644
42
0.320485
0
VERTEX
8
1
10
10.009247
20
2.564987
0
VERTEX
8
1
10
10.017967
20
2.578907
42
-0.063740
0
VERTEX
8
1
10
10.099541
20
2.725266
42
-0.081391
0
VERTEX
8
1
10
10.144318
20
2.800892
42
0.200267
0
VERTEX
8
1
10
10.217369
20
2.848301
0
VERTEX
8
1
10
10.230972
20
2.864853
42
0.082272
0
VERTEX
8
1
10
10.256737
20
2.779720
42
-0.014361
0
VERTEX
8
1
10
10.258545
20
2.557289
42
0.227274
0
VERTEX
8
1
10
10.339813
20
2.379601
42
0.005810
0
VERTEX
8
1
10
10.360229
20
2.329845
42
0.585309
0
VERTEX
8
1
10
10.439897
20
2.347563
42
0.088181
0
VERTEX
8
1
10
10.464485
20
2.430134
42
0.013311
0
VERTEX
8
1
10
10.527557
20
2.607235
42
-0.126595
0
VERTEX
8
1
10
10.545242
20
2.677551
42
-0.542812
0
VERTEX
8
1
10
10.587807
20
2.652443
0
VERTEX
8
1
10
10.591263
20
2.637455
42
0.104800
0
VERTEX
8
1
10
10.626617
20
2.506779
42
0.025860
0
VERTEX
8
1
10
10.770060
20
2.255877
42
0.159964
0
VERTEX
8
1
10
10.832733
20
2.219719
0
VERTEX
8
1
10
10.853401
20
2.226284
0
VERTEX
8
1
10
10.858879
20
2.232964
42
0.069712
0
VERTEX
8
1
10
10.858810
20
2.348316
42
-0.062477
0
VERTEX
8
1
10
10.888832
20
2.493786
0
VERTEX
8
1
10
10.900833
20
2.493610
0
VERTEX
8
1
10
10.915672
20
2.485092
42
-0.086777
0
VERTEX
8
1
10
11.043137
20
2.319519
42
0.108286
0
VERTEX
8
1
10
11.236723
20
2.120634
42
0.257680
0
VERTEX
8
1
10
11.309502
20
2.131348
42
0.036125
0
VERTEX
8
1
10
11.338257
20
2.221210
42
-0.053470
0
VERTEX
8
1
10
11.389572
20
2.269440
42
0.026521
0
VERTEX
8
1
10
11.413109
20
2.313740
0
VERTEX
8
1
10
11.418266
20
2.317604
0
VERTEX
8
1
10
11.425392
20
2.320641
0
VERTEX
8
1
10
11.431824
20
2.314068
42
0.047821
0
VERTEX
8
1
10
11.481842
20
2.162552
42
0.204345
0
VERTEX
8
1
10
11.589783
20
1.979885
42
0.047811
0
VERTEX
8
1
10
11.700401
20
1.889935
0
VERTEX
8
1
10
11.707024
20
1.882946
0
VERTEX
8
1
10
11.705811
20
1.877045
42
-0.078556
0
VERTEX
8
1
10
11.521181
20
1.872858
42
0.106988
0
VERTEX
8
1
10
11.399363
20
1.844377
42
-0.276996
0
VERTEX
8
1
10
11.324196
20
1.868694
42
0.115694
0
VERTEX
8
1
10
11.242023
20
1.872841
42
-0.035016
0
VERTEX
8
1
10
10.944275
20
1.878605
42
0.141159
0
VERTEX
8
1
10
10.778465
20
1.893845
42
-0.154926
0
VERTEX
8
1
10
10.649940
20
1.917301
42
0.058130
0
VERTEX
8
1
10
10.553024
20
1.922798
42
0.050631
0
VERTEX
8
1
10
10.470741
20
1.950050
42
-0.218288
0
VERTEX
8
1
10
10.429828
20
1.957638
42
0.080162
0
VERTEX
8
1
10
10.321640
20
1.974052
42
0.109212
0
VERTEX
8
1
10
10.238449
20
1.998211
42
-0.159419
0
VERTEX
8
1
10
10.281105
20
1.917511
42
-0.050780
0
VERTEX
8
1
10
10.430992
20
1.847034
0
VERTEX
8
1
10
10.444550
20
1.842030
42
-0.000010
0
VERTEX
8
1
10
10.575577
20
1.818512
42
0.180983
0
VERTEX
8
1
10
10.697773
20
1.797054
42
0.007429
0
VERTEX
8
1
10
11.008583
20
1.800304
42
-0.078278
0
VERTEX
8
1
10
11.105881
20
1.778671
42
0.154819
0
VERTEX
8
1
10
11.208374
20
1.794559
0
VERTEX
8
1
10
11.218185
20
1.796280
42
0.011825
0
VERTEX
8
1
10
11.434395
20
1.801464
42
-0.027245
0
VERTEX
8
1
10
11.579391
20
1.773365
42
-0.133518
0
VERTEX
8
1
10
11.704160
20
1.747330
42
0.003804
0
VERTEX
8
1
10
11.732826
20
1.738853
42
0.133999
0
VERTEX
8
1
10
11.804909
20
1.566876
42
0.146146
0
VERTEX
8
1
10
11.927020
20
1.428147
42
-0.094267
0
VERTEX
8
1
10
12.003944
20
1.345303
0
VERTEX
8
1
10
12.008415
20
1.324551
42
-0.027493
0
SEQEND
0
POLYLINE
8
1
66
1
70
1
0
VERTEX
8
1
10
17.655510
20
1.204552
42
-0.080760
0
VERTEX
8
1
10
17.513237
20
1.227318
42
0.072014
0
VERTEX
8
1
10
17.352020
20
1.229656
42
0.015237
0
VERTEX
8
1
10
17.055199
20
1.205349
42
0.075756
0
VERTEX
8
1
10
16.840757
20
1.179404
42
-0.176489
0
VERTEX
8
1
10
16.737030
20
1.199387
0
VERTEX
8
1
10
16.728233
20
1.199493
42
0.066822
0
VERTEX
8
1
10
16.585182
20
1.159592
42
-0.440723
0
VERTEX
8
1
10
16.566374
20
1.169579
42
0.194751
0
VERTEX
8
1
10
16.542107
20
1.180672
42
-0.014774
0
VERTEX
8
1
10
16.290611
20
1.183685
42
0.127784
0
VERTEX
8
1
10
16.151283
20
1.155731
42
-0.042406
0
VERTEX
8
1
10
15.971672
20
1.159290
0
VERTEX
8
1
10
15.948059
20
1.157883
42
0.430687
0
VERTEX
8
1
10
15.884923
20
1.098997
42
0.343508
0
VERTEX
8
1
10
15.908974
20
1.082218
42
-0.024757
0
VERTEX
8
1
10
16.074364
20
1.055191
42
-0.160622
0
VERTEX
8
1
10
16.213284
20
1.028251
0
VERTEX
8
1
10
16.224932
20
1.025287
0
VERTEX
8
1
10
16.236809
20
1.023441
0
VERTEX
8
1
10
16.226044
20
1.002239
0
VERTEX
8
1
10
16.196030
20
0.985779
42
-0.081186
0
VERTEX
8
1
10
15.994507
20
0.973289
0
VERTEX
8
1
10
15.906998
20
0.978336
42
-0.064872
0
VERTEX
8
1
10
15.668991
20
1.014698
42
0.042712
0
VERTEX
8
1
10
15.506737
20
1.032936
42
0.231973
0
VERTEX
8
1
10
15.363922
20
1.034695
42
-0.076763
0
VERTEX
8
1
10
15.198288
20
1.028469
42
-0.104206
0
VERTEX
8
1
10
15.062355
20
1.048988
42
0.178434
0
VERTEX
8
1
10
14.981903
20
1.032787
42
-0.137518
0
VERTEX
8
1
10
14.873180
20
1.032535
42
0.145620
0
VERTEX
8
1
10
14.810677
20
1.018272
0
VERTEX
8
1
10
14.796982
20
1.003368
42
0.135256
0
VERTEX
8
1
10
14.914597
20
0.945618
42
-0.010266
0
VERTEX
8
1
10
15.022758
20
0.906288
42
0.034968
0
VERTEX
8
1
10
15.134883
20
0.904296
42
-0.166412
0
VERTEX
8
1
10
15.174774
20
0.882343
0
VERTEX
8
1
10
15.169647
20
0.878918
42
0.130626
0
VERTEX
8
1
10
15.089302
20
0.859474
42
-0.081974
0
VERTEX
8
1
10
15.043686
20
0.850929
42
0.006268
0
VERTEX
8
1
10
14.688255
20
0.854294
42
0.094598
0
VERTEX
8
1
10
14.620316
20
0.829311
42
-0.133226
0
VERTEX
8
1
10
14.471825
20
0.830757
42
0.036302
0
VERTEX
8
1
10
14.285118
20
0.859093
42
0.087522
0
VERTEX
8
1
10
14.045130
20
0.878851
42
-0.014438
0
VERTEX
8
1
10
13.862903
20
0.875085
42
-0.134280
0
VERTEX
8
1
10
13.818123
20
0.901844
0
VERTEX
8
1
10
13.811188
20
0.904388
42
0.018330
0
VERTEX
8
1
10
13.601251
20
0.900425
42
-0.116766
0
VERTEX
8
1
10
13.530556
20
0.922039
42
0.035695
0
VERTEX
8
1
10
13.433517
20
0.927071
42
0.079275
0
VERTEX
8
1
10
13.235924
20
0.954906
42
-0.105727
0
VERTEX
8
1
10
13.122246
20
0.991695
42
0.091770
0
VERTEX
8
1
10
13.031059
20
0.998756
42
-0.136420
0
VERTEX
8
1
10
12.927696
20
1.039101
42
0.186113
0
VERTEX
8
1
10
12.826134
20
1.051155
42
-0.250245
0
VERTEX
8
1
10
12.769394
20
1.074867
42
0.163036
0
VERTEX
8
1
10
12.661394
20
1.077192
42
-0.113949
0
VERTEX
8
1
10
12.542694
20
1.091942
42
0.069375
0
VERTEX
8
1
10
12.413818
20
1.106613
0
VERTEX
8
1
10
12.396393
20
1.109531
42
0.109622
0
VERTEX
8
1
10
12.184814
20
1.129234
0
VERTEX
8
1
10
12.151367
20
1.127876
42
-0.233082
0
VERTEX
8
1
10
11.977976
20
1.193987
42
-0.498782
0
VERTEX
8
1
10
11.992874
20
1.227592
42
-0.252371
0
VERTEX
8
1
10
12.031807
20
1.230748
42
0.211379
0
VERTEX
8
1
10
12.131938
20
1.253773
42
-0.043131
0
VERTEX
8
1
10
12.181992
20
1.276638
0
VERTEX
8
1
10
12.191154
20
1.276006
42
0.006285
0
VERTEX
8
1
10
12.393372
20
1.231052
42
-0.038940
0
VERTEX
8
1
10
12.781883
20
1.200130
42
0.079531
0
VERTEX
8
1
10
12.921455
20
1.175350
42
0.103268
0
VERTEX
8
1
10
13.131022
20
1.154700
42
-0.121778
0
VERTEX
8
1
10
13.220978
20
1.130604
42
0.052895
0
VERTEX
8
1
10
13.324005
20
1.130642
42
-0.059946
0
VERTEX
8
1
10
13.415833
20
1.106335
42
0.082524
0
VERTEX
8
1
10
13.537109
20
1.108757
42
-0.259097
0
VERTEX
8
1
10
13.617409
20
1.083736
42
0.135484
0
VERTEX
8
1
10
13.702843
20
1.078938
42
-0.082377
0
VERTEX
8
1
10
13.837601
20
1.056854
42
0.072498
0
VERTEX
8
1
10
14.017670
20
1.048878
42
0.012266
0
VERTEX
8
1
10
14.273544
20
1.062141
42
0.087823
0
VERTEX
8
1
10
14.414207
20
1.108158
0
VERTEX
8
1
10
14.439583
20
1.118343
42
0.087704
0
VERTEX
8
1
10
14.687467
20
1.237782
42
-0.107487
0
VERTEX
8
1
10
14.898685
20
1.315502
0
VERTEX
8
1
10
14.919982
20
1.323314
0
VERTEX
8
1
10
14.940338
20
1.333324
42
0.072316
0
VERTEX
8
1
10
15.173125
20
1.445741
42
-0.010772
0
VERTEX
8
1
10
15.237808
20
1.480099
0
VERTEX
8
1
10
15.237808
20
1.456173
0
VERTEX
8
1
10
15.239601
20
1.455265
42
-0.062081
0
VERTEX
8
1
10
15.386065
20
1.432688
42
-0.000057
0
VERTEX
8
1
10
15.627268
20
1.382276
42
0.001808
0
VERTEX
8
1
10
15.869232
20
1.377945
42
0.061792
0
VERTEX
8
1
10
15.988838
20
1.361084
42
-0.182339
0
VERTEX
8
1
10
16.099564
20
1.380280
42
-0.074421
0
VERTEX
8
1
10
16.241997
20
1.357288
0
VERTEX
8
1
10
16.260284
20
1.354862
0
VERTEX
8
1
10
16.280296
20
1.353577
42
-0.000702
0
VERTEX
8
1
10
16.775246
20
1.357185
42
-0.040854
0
VERTEX
8
1
10
16.904175
20
1.381012
42
0.140394
0
VERTEX
8
1
10
17.047554
20
1.401218
42
-0.185063
0
VERTEX
8
1
10
17.180260
20
1.388771
42
0.148486
0
VERTEX
8
1
10
17.279785
20
1.382278
42
-0.133789
0
VERTEX
8
1
10
17.349792
20
1.359462
42
0.168223
0
VERTEX
8
1
10
17.422844
20
1.357365
42
-0.265688
0
VERTEX
8
1
10
17.479919
20
1.334297
42
0.166912
0
VERTEX
8
1
10
17.550308
20
1.327571
42
-0.306766
0
VERTEX
8
1
10
17.573761
20
1.312149
42
0.246598
0
VERTEX
8
1
10
17.618313
20
1.304106
42
-0.119806
0
VERTEX
8
1
10
17.723434
20
1.287292
0
VERTEX
8
1
10
17.737701
20
1.284218
42
-0.052802
0
VERTEX
8
1
10
17.915543
20
1.252628
42
-0.367884
0
VERTEX
8
1
10
17.921204
20
1.213909
0
VERTEX
8
1
10
17.908226
20
1.207230
0
VERTEX
8
1
10
17.890625
20
1.203800
42
0.004862
0
SEQEND
0
POLYLINE
8
1
66
1
70
1
0
VERTEX
8
1
10
19.533966
20
2.764771
42
0.103764
0
VERTEX
8
1
10
19.422386
20
2.742352
0
VERTEX
8
1
10
19.406807
20
2.728512
0
VERTEX
8
1
10
19.405525
20
2.710464
0
VERTEX
8
1
10
19.412735
20
2.699688
42
0.090442
0
VERTEX
8
1
10
19.558586
20
2.681831
0
VERTEX
8
1
10
19.569717
20
2.679958
42
0.139049
0
VERTEX
8
1
10
19.700989
20
2.664402
42
-0.055844
0
VERTEX
8
1
10
19.981634
20
2.649848
42
0.025174
0
VERTEX
8
1
10
20.097193
20
2.649681
42
-0.187839
0
VERTEX
8
1
10
20.115105
20
2.635017
42
-0.111843
0
VERTEX
8
1
10
20.176186
20
2.626114
42
0.348165
0
VERTEX
8
1
10
20.198059
20
2.616756
42
-0.134545
0
VERTEX
8
1
10
20.279182
20
2.597584
0
VERTEX
8
1
10
20.289963
20
2.595387
0
VERTEX
8
1
10
20.292305
20
2.582985
0
VERTEX
8
1
10
20.271805
20
2.570522
42
-0.069446
0
VERTEX
8
1
10
20.080879
20
2.564175
42
0.007324
0
VERTEX
8
1
10
19.809937
20
2.561752
42
0.048344
0
VERTEX
8
1
10
19.684759
20
2.527579
0
VERTEX
8
1
10
19.680897
20
2.523334
42
0.552072
0
VERTEX
8
1
10
19.715017
20
2.480903
0
VERTEX
8
1
10
19.723297
20
2.481628
42
0.012464
0
VERTEX
8
1
10
19.831528
20
2.446632
0
VERTEX
8
1
10
19.842537
20
2.440464
0
VERTEX
8
1
10
19.852760
20
2.431671
0
VERTEX
8
1
10
19.839844
20
2.418846
0
VERTEX
8
1
10
19.816345
20
2.411354
0
VERTEX
8
1
10
19.787521
20
2.408451
42
0.013929
0
VERTEX
8
1
10
19.512436
20
2.414661
42
0.113212
0
VERTEX
8
1
10
19.396164
20
2.431648
0
VERTEX
8
1
10
19.382629
20
2.433514
42
0.150112
0
VERTEX
8
1
10
19.290421
20
2.447144
42
0.074453
0
VERTEX
8
1
10
19.093462
20
2.430241
42
-0.070780
0
VERTEX
8
1
10
18.977781
20
2.430894
42
0.247203
0
VERTEX
8
1
10
18.855919
20
2.369179
42
0.436070
0
VERTEX
8
1
10
18.867958
20
2.349773
42
0.160281
0
VERTEX
8
1
10
18.986145
20
2.331913
0
VERTEX
8
1
10
18.993164
20
2.330673
42
0.239173
0
VERTEX
8
1
10
19.056839
20
2.314064
42
-0.140231
0
VERTEX
8
1
10
19.118111
20
2.300667
42
0.072403
0
VERTEX
8
1
10
19.208588
20
2.296162
42
-0.139994
0
VERTEX
8
1
10
19.302509
20
2.262996
42
-0.261049
0
VERTEX
8
1
10
19.303078
20
2.248680
42
-0.061956
0
VERTEX
8
1
10
19.166946
20
2.246368
0
VERTEX
8
1
10
19.148598
20
2.244709
42
-0.075545
0
VERTEX
8
1
10
19.026449
20
2.230194
42
0.003192
0
VERTEX
8
1
10
18.743065
20
2.228642
42
-0.008391
0
VERTEX
8
1
10
18.578094
20
2.208652
42
-0.089132
0
VERTEX
8
1
10
18.485357
20
2.219436
42
-0.169790
0
VERTEX
8
1
10
18.453629
20
2.247578
0
VERTEX
8
1
10
18.456200
20
2.255356
0
VERTEX
8
1
10
18.462654
20
2.261051
42
0.009798
0
VERTEX
8
1
10
18.570557
20
2.300472
42
0.129740
0
VERTEX
8
1
10
18.708908
20
2.357315
42
0.086762
0
VERTEX
8
1
10
18.759224
20
2.438656
42
-0.210901
0
VERTEX
8
1
10
18.918816
20
2.528286
0
VERTEX
8
1
10
18.927917
20
2.532051
42
-0.104035
0
VERTEX
8
1
10
19.056179
20
2.583950
42
0.182593
0
VERTEX
8
1
10
19.121866
20
2.623993
42
-0.203386
0
VERTEX
8
1
10
19.160149
20
2.631382
42
-0.131437
0
VERTEX
8
1
10
19.395969
20
2.736696
42
0.058076
0
VERTEX
8
1
10
19.427811
20
2.750500
0
VERTEX
8
1
10
19.479912
20
2.815628
42
-0.115210
0
VERTEX
8
1
10
19.460831
20
2.819534
42
-0.525378
0
VERTEX
8
1
10
19.492714
20
2.831654
0
VERTEX
8
1
10
19.480148
20
2.815918
42
-0.174793
0
VERTEX
8
1
10
19.549438
20
2.800392
42
0.140311
0
VERTEX
8
1
10
19.615845
20
2.799030
42
-0.260427
0
VERTEX
8
1
10
19.654137
20
2.780663
42
0.216267
0
VERTEX
8
1
10
19.611763
20
2.770245
42
-0.065023
0
SEQEND
0
POLYLINE
8
1
66
1
70
1
0
VERTEX
8
1
10
19.106056
20
3.714428
42
-0.191773
0
VERTEX
8
1
10
19.132988
20
3.831936
42
0.134696
0
VERTEX
8
1
10
19.139488
20
3.953856
42
-0.010324
0
VERTEX
8
1
10
19.252981
20
3.869147
42
-0.092994
0
VERTEX
8
1
10
19.272873
20
3.835972
0
VERTEX
8
1
10
19.275278
20
3.842914
42
0.006210
0
VERTEX
8
1
10
19.271896
20
4.180286
42
-0.049634
0
VERTEX
8
1
10
19.228832
20
4.375222
42
0.004826
0
VERTEX
8
1
10
19.215500
20
4.432114
42
-0.144370
0
VERTEX
8
1
10
19.255043
20
4.404537
42
-0.032025
0
VERTEX
8
1
10
19.389572
20
4.202685
42
0.056619
0
VERTEX
8
1
10
19.409950
20
4.182003
42
0.042108
0
VERTEX
8
1
10
19.409111
20
4.379314
42
0.174870
0
VERTEX
8
1
10
19.359032
20
4.461250
42
-0.151992
0
VERTEX
8
1
10
19.337204
20
4.561161
0
VERTEX
8
1
10
19.333801
20
4.565750
0
VERTEX
8
1
10
19.284264
20
4.575706
0
VERTEX
8
1
10
19.278938
20
4.589882
42
0.144394
0
VERTEX
8
1
10
19.179848
20
4.771151
42
-0.009538
0
VERTEX
8
1
10
19.127098
20
4.836693
42
-0.073156
0
VERTEX
8
1
10
19.384130
20
4.543721
42
0.006875
0
VERTEX
8
1
10
19.527481
20
4.358608
42
0.031377
0
VERTEX
8
1
10
19.630409
20
4.185230
42
-0.140277
0
VERTEX
8
1
10
19.645172
20
4.054916
0
VERTEX
8
1
10
19.633316
20
4.040115
0
VERTEX
8
1
10
19.614609
20
4.041553
42
-0.028998
0
VERTEX
8
1
10
19.505295
20
4.117332
0
VERTEX
8
1
10
19.477798
20
4.130711
0
VERTEX
8
1
10
19.453629
20
4.132629
0
VERTEX
8
1
10
19.453217
20
4.111183
42
-0.166878
0
VERTEX
8
1
10
19.437271
20
3.650112
42
0.043991
0
VERTEX
8
1
10
19.438805
20
3.618721
42
-0.104721
0
VERTEX
8
1
10
19.383923
20
3.592615
42
-0.246699
0
VERTEX
8
1
10
19.371719
20
3.585484
42
0.124530
0
VERTEX
8
1
10
19.181465
20
3.730011
0
VERTEX
8
1
10
19.176308
20
3.707897
42
0.031754
0
VERTEX
8
1
10
19.177902
20
3.523853
42
-0.135407
0
VERTEX
8
1
10
19.147110
20
3.424824
42
0.131802
0
VERTEX
8
1
10
19.139595
20
3.328231
42
-0.048270
0
VERTEX
8
1
10
19.136665
20
3.305767
0
VERTEX
8
1
10
19.118591
20
3.304962
42
-0.196830
0
VERTEX
8
1
10
19.049812
20
3.385002
42
0.112138
0
VERTEX
8
1
10
18.983612
20
3.482937
0
VERTEX
8
1
10
18.959488
20
3.494762
0
VERTEX
8
1
10
18.944572
20
3.482243
42
0.026740
0
VERTEX
8
1
10
18.948877
20
3.283287
42
-0.055162
0
VERTEX
8
1
10
18.936920
20
3.187832
0
VERTEX
8
1
10
18.921890
20
3.158855
0
VERTEX
8
1
10
18.898529
20
3.141041
0
VERTEX
8
1
10
18.880936
20
3.142143
42
0.085666
0
VERTEX
8
1
10
18.806198
20
3.324044
42
0.398751
0
VERTEX
8
1
10
18.731239
20
3.320572
42
0.287209
0
VERTEX
8
1
10
18.668518
20
3.151676
42
-0.108840
0
VERTEX
8
1
10
18.667427
20
3.004997
42
0.161140
0
VERTEX
8
1
10
18.644173
20
2.894083
42
-0.114762
0
VERTEX
8
1
10
18.635887
20
2.870911
0
VERTEX
8
1
10
18.606987
20
2.851498
0
VERTEX
8
1
10
18.580849
20
2.850929
0
VERTEX
8
1
10
18.561913
20
2.869789
0
VERTEX
8
1
10
18.549088
20
2.903496
42
-0.068755
0
VERTEX
8
1
10
18.539604
20
3.161488
42
0.129256
0
VERTEX
8
1
10
18.472519
20
3.501682
0
VERTEX
8
1
10
18.445412
20
3.610161
42
0.007825
0
VERTEX
8
1
10
18.419739
20
3.636040
0
VERTEX
8
1
10
18.439377
20
3.634335
0
VERTEX
8
1
10
18.445061
20
3.611557
42
-0.086888
0
VERTEX
8
1
10
18.591576
20
3.414257
0
VERTEX
8
1
10
18.601112
20
3.387318
0
VERTEX
8
1
10
18.607071
20
3.360565
0
VERTEX
8
1
10
18.609100
20
3.368187
0
VERTEX
8
1
10
18.619959
20
3.395262
42
0.125199
0
VERTEX
8
1
10
18.639919
20
3.542470
42
-0.045059
0
VERTEX
8
1
10
18.644577
20
3.620281
0
VERTEX
8
1
10
18.660332
20
3.614452
0
VERTEX
8
1
10
18.678131
20
3.595348
42
-0.042074
0
VERTEX
8
1
10
18.757004
20
3.442812
42
0.103285
0
VERTEX
8
1
10
18.793106
20
3.404884
0
VERTEX
8
1
10
18.805305
20
3.415485
42
0.100270
0
VERTEX
8
1
10
18.840729
20
3.647522
42
-0.051728
0
VERTEX
8
1
10
18.874115
20
3.825542
0
VERTEX
8
1
10
18.878410
20
3.849232
0
VERTEX
8
1
10
18.887886
20
3.863907
42
-0.246830
0
VERTEX
8
1
10
18.938530
20
3.813866
0
VERTEX
8
1
10
18.946068
20
3.794827
42
0.122728
0
VERTEX
8
1
10
19.008240
20
3.672081
42
-0.008288
0
VERTEX
8
1
10
19.075386
20
3.546452
42
-0.268323
0
VERTEX
8
1
10
19.097359
20
3.606247
42
0.226639
0
VERTEX
8
1
10
19.109917
20
3.686550
0
SEQEND
0
POLYLINE
8
1
66
1
70
1
0
VERTEX
8
1
10
18.850426
20
5.508286
42
-0.069856
0
VERTEX
8
1
10
18.890701
20
5.423805
42
0.071876
0
VERTEX
8
1
10
18.949379
20
5.346871
42
-0.193023
0
VERTEX
8
1
10
18.957657
20
5.292965
0
VERTEX
8
1
10
18.938728
20
5.294052
42
-0.027972
0
VERTEX
8
1
10
18.797058
20
5.398432
42
0.079328
0
VERTEX
8
1
10
18.739418
20
5.421780
42
-0.205911
0
VERTEX
8
1
10
18.761185
20
5.350307
0
VERTEX
8
1
10
18.760056
20
5.309326
42
0.242296
0
VERTEX
8
1
10
18.792328
20
5.222317
42
-0.136951
0
VERTEX
8
1
10
18.812857
20
5.146318
42
0.043854
0
VERTEX
8
1
10
18.922646
20
4.908131
0
VERTEX
8
1
10
18.926369
20
4.884792
42
-0.179964
0
VERTEX
8
1
10
18.815025
20
4.913532
42
0.005116
0
VERTEX
8
1
10
18.666779
20
5.007273
42
0.446577
0
VERTEX
8
1
10
18.630127
20
4.980087
0
VERTEX
8
1
10
18.627075
20
4.966381
42
0.102971
0
VERTEX
8
1
10
18.652885
20
4.878287
42
0.010547
0
VERTEX
8
1
10
18.677780
20
4.714817
42
0.169249
0
VERTEX
8
1
10
18.776703
20
4.580734
42
0.012155
0
VERTEX
8
1
10
18.899002
20
4.487873
0
VERTEX
8
1
10
18.887619
20
4.482056
42
-0.050262
0
VERTEX
8
1
10
18.730766
20
4.480247
42
-0.119496
0
VERTEX
8
1
10
18.543261
20
4.494523
42
-0.041325
0
VERTEX
8
1
10
18.376358
20
4.547634
0
VERTEX
8
1
10
18.361488
20
4.544655
0
VERTEX
8
1
10
18.357727
20
4.526215
42
0.168264
0
VERTEX
8
1
10
18.346764
20
4.304890
42
0.044106
0
VERTEX
8
1
10
18.416004
20
4.081572
42
-0.085065
0
VERTEX
8
1
10
18.435364
20
3.946899
0
VERTEX
8
1
10
18.427429
20
3.913128
42
0.068500
0
VERTEX
8
1
10
18.267479
20
4.061707
42
-0.020009
0
VERTEX
8
1
10
18.182169
20
4.176723
42
0.146673
0
VERTEX
8
1
10
18.136879
20
4.201633
42
0.029326
0
VERTEX
8
1
10
18.134216
20
4.131779
42
-0.079238
0
VERTEX
8
1
10
18.107758
20
4.087250
42
0.098459
0
VERTEX
8
1
10
18.105392
20
3.969963
42
0.130966
0
VERTEX
8
1
10
18.143108
20
3.802730
42
-0.103775
0
VERTEX
8
1
10
18.158592
20
3.702301
0
VERTEX
8
1
10
18.149551
20
3.681408
42
-0.126437
0
VERTEX
8
1
10
18.097702
20
3.715389
42
-0.009633
0
VERTEX
8
1
10
17.914169
20
3.909814
0
VERTEX
8
1
10
17.905403
20
3.915661
42
-0.095372
0
VERTEX
8
1
10
17.880905
20
3.808605
42
0.081089
0
VERTEX
8
1
10
17.880157
20
3.682391
42
-0.000432
0
VERTEX
8
1
10
17.887892
20
3.455435
42
-0.045642
0
VERTEX
8
1
10
17.877747
20
3.384918
0
VERTEX
8
1
10
17.860268
20
3.384853
0
VERTEX
8
1
10
17.839645
20
3.397762
42
-0.103305
0
VERTEX
8
1
10
17.686264
20
3.623211
42
0.013490
0
VERTEX
8
1
10
17.669518
20
3.709171
42
-0.110863
0
VERTEX
8
1
10
17.610863
20
3.862808
42
0.123915
0
VERTEX
8
1
10
17.572578
20
3.936420
42
-0.137113
0
VERTEX
8
1
10
17.550194
20
4.027374
42
0.121746
0
VERTEX
8
1
10
17.510456
20
4.138010
42
-0.056561
0
VERTEX
8
1
10
17.500069
20
4.171501
0
VERTEX
8
1
10
17.492271
20
4.173729
42
0.117291
0
VERTEX
8
1
10
17.353657
20
4.098305
42
-0.067052
0
VERTEX
8
1
10
17.288979
20
4.066986
0
VERTEX
8
1
10
17.287193
20
4.079678
42
0.156018
0
VERTEX
8
1
10
17.283020
20
4.416946
42
-0.067324
0
VERTEX
8
1
10
17.285706
20
4.554933
42
0.216839
0
VERTEX
8
1
10
17.259644
20
4.615166
42
-0.146017
0
VERTEX
8
1
10
17.253967
20
4.700005
42
0.147127
0
VERTEX
8
1
10
17.232712
20
4.789272
42
-0.072595
0
VERTEX
8
1
10
17.220581
20
4.891003
42
0.139568
0
VERTEX
8
1
10
17.168356
20
4.977427
42
-0.031534
0
VERTEX
8
1
10
17.131645
20
5.052357
42
-0.107817
0
VERTEX
8
1
10
17.110559
20
5.064302
42
0.115938
0
VERTEX
8
1
10
17.128914
20
5.057785
0
VERTEX
8
1
10
17.131187
20
5.053268
0
VERTEX
8
1
10
17.164413
20
5.037779
42
-0.119902
0
VERTEX
8
1
10
17.346813
20
4.896259
42
-0.070388
0
VERTEX
8
1
10
17.401276
20
4.794811
0
VERTEX
8
1
10
17.405380
20
4.767868
0
VERTEX
8
1
10
17.403023
20
4.742023
42
0.050371
0
VERTEX
8
1
10
17.465591
20
4.777962
42
0.043842
0
VERTEX
8
1
10
17.486099
20
4.822601
0
VERTEX
8
1
10
17.491730
20
4.827263
0
VERTEX
8
1
10
17.499512
20
4.829967
42
-0.029675
0
VERTEX
8
1
10
17.511459
20
4.734196
42
-0.214424
0
VERTEX
8
1
10
17.524412
20
4.590555
42
-0.018251
0
VERTEX
8
1
10
17.511230
20
4.541073
0
VERTEX
8
1
10
17.515419
20
4.536644
42
0.127018
0
VERTEX
8
1
10
17.549545
20
4.583858
42
-0.043861
0
VERTEX
8
1
10
17.686653
20
4.820309
0
VERTEX
8
1
10
17.697044
20
4.829014
0
VERTEX
8
1
10
17.705658
20
4.810253
42
-0.076778
0
VERTEX
8
1
10
17.710524
20
4.642817
42
0.009018
0
VERTEX
8
1
10
17.703964
20
4.456902
42
0.065593
0
VERTEX
8
1
10
17.730370
20
4.412762
42
-0.086468
0
VERTEX
8
1
10
17.729782
20
4.267803
0
VERTEX
8
1
10
17.735794
20
4.269371
42
0.102864
0
VERTEX
8
1
10
17.784592
20
4.395931
42
-0.099283
0
VERTEX
8
1
10
17.822746
20
4.468510
42
-0.264498
0
VERTEX
8
1
10
17.868378
20
4.416039
42
0.090581
0
VERTEX
8
1
10
17.898651
20
4.348320
0
VERTEX
8
1
10
17.906677
20
4.345181
42
-0.088556
0
VERTEX
8
1
10
17.927368
20
4.485229
42
-0.083085
0
VERTEX
8
1
10
17.975315
20
4.626362
42
0.121204
0
VERTEX
8
1
10
17.983093
20
4.729482
42
-0.255328
0
VERTEX
8
1
10
17.997711
20
4.752967
42
-0.332060
0
VERTEX
8
1
10
18.081413
20
4.675379
42
0.185839
0
VERTEX
8
1
10
18.117340
20
4.642357
0
VERTEX
8
1
10
18.130257
20
4.645885
42
0.234238
0
VERTEX
8
1
10
18.120995
20
4.709122
42
-0.130900
0
VERTEX
8
1
10
18.108917
20
4.814213
42
0.053767
0
VERTEX
8
1
10
18.082397
20
4.937117
42
-0.108506
0
VERTEX
8
1
10
18.087044
20
5.005074
42
-0.267948
0
VERTEX
8
1
10
18.117771
20
4.982614
42
0.143208
0
VERTEX
8
1
10
18.182877
20
4.938673
42
-0.064729
0
VERTEX
8
1
10
18.280518
20
4.845680
0
VERTEX
8
1
10
18.284737
20
4.846291
42
0.240146
0
VERTEX
8
1
10
18.273792
20
4.869246
42
-0.204756
0
VERTEX
8
1
10
18.257401
20
4.942073
0
VERTEX
8
1
10
18.259762
20
4.965055
42
0.136816
0
VERTEX
8
1
10
18.238432
20
5.086726
42
-0.123723
0
VERTEX
8
1
10
18.235922
20
5.173746
42
0.116278
0
VERTEX
8
1
10
18.212807
20
5.304825
42
-0.129696
0
VERTEX
8
1
10
18.211752
20
5.450263
42
-0.521371
0
VERTEX
8
1
10
18.258102
20
5.450478
0
VERTEX
8
1
10
18.270523
20
5.439274
42
0.092412
0
VERTEX
8
1
10
18.511927
20
5.240071
42
-0.086178
0
VERTEX
8
1
10
18.527428
20
5.218311
42
0.259364
0
VERTEX
8
1
10
18.520424
20
5.296906
42
-0.152843
0
VERTEX
8
1
10
18.504692
20
5.385746
42
0.109920
0
VERTEX
8
1
10
18.485367
20
5.446236
42
-0.087397
0
VERTEX
8
1
10
18.487854
20
5.731033
0
VERTEX
8
1
10
18.499863
20
5.728943
42
-0.152813
0
VERTEX
8
1
10
18.634792
20
5.574823
42
0.195390
0
VERTEX
8
1
10
18.678322
20
5.537514
42
-0.104391
0
VERTEX
8
1
10
18.723648
20
5.638519
0
VERTEX
8
1
10
18.731941
20
5.655815
0
VERTEX
8
1
10
18.738243
20
5.673954
0
VERTEX
8
1
10
18.744766
20
5.681126
0
VERTEX
8
1
10
18.752571
20
5.674744
0
VERTEX
8
1
10
18.759537
20
5.665226
42
0.116278
0
SEQEND
0
POLYLINE
8
1
66
1
70
1
0
VERTEX
8
1
10
17.400658
20
7.441975
42
-0.029526
0
VERTEX
8
1
10
17.537617
20
7.375969
42
0.311179
0
VERTEX
8
1
10
17.595650
20
7.398510
0
VERTEX
8
1
10
17.598442
20
7.417675
42
0.187817
0
VERTEX
8
1
10
17.488556
20
7.561804
42
-0.093497
0
VERTEX
8
1
10
17.415077
20
7.653694
0
VERTEX
8
1
10
17.409538
20
7.673698
0
VERTEX
8
1
10
17.410538
20
7.692398
0
VERTEX
8
1
10
17.422241
20
7.698753
42
-0.067087
0
VERTEX
8
1
10
17.683128
20
7.561684
42
-0.119046
0
VERTEX
8
1
10
17.731323
20
7.552074
42
0.178889
0
VERTEX
8
1
10
17.645088
20
7.698978
42
-0.005416
0
VERTEX
8
1
10
17.522957
20
7.821522
42
-0.200736
0
VERTEX
8
1
10
17.391357
20
7.939018
0
VERTEX
8
1
10
17.398499
20
7.946602
0
VERTEX
8
1
10
17.420166
20
7.945953
0
VERTEX
8
1
10
17.446762
20
7.938171
42
-0.014797
0
VERTEX
8
1
10
17.621780
20
7.846462
42
-0.155376
0
VERTEX
8
1
10
17.774481
20
7.762109
42
-0.052384
0
VERTEX
8
1
10
17.964952
20
7.582806
42
0.070668
0
VERTEX
8
1
10
18.051765
20
7.518982
42
-0.142699
0
VERTEX
8
1
10
18.107681
20
7.438598
42
-0.004833
0
VERTEX
8
1
10
18.208246
20
7.297421
42
-0.266310
0
VERTEX
8
1
10
18.201767
20
7.234760
42
-0.131626
0
VERTEX
8
1
10
18.144272
20
7.288776
42
0.084772
0
VERTEX
8
1
10
18.054611
20
7.338646
42
0.170160
0
VERTEX
8
1
10
18.068108
20
7.281471
42
0.026889
0
VERTEX
8
1
10
18.222240
20
7.077950
42
-0.068977
0
VERTEX
8
1
10
18.284546
20
6.963474
42
-0.008333
0
VERTEX
8
1
10
18.343086
20
6.880192
42
0.128244
0
VERTEX
8
1
10
18.413902
20
6.759365
0
VERTEX
8
1
10
18.426453
20
6.741463
42
0.019156
0
VERTEX
8
1
10
18.571678
20
6.514042
42
-0.214841
0
VERTEX
8
1
10
18.596586
20
6.322755
42
-0.147734
0
VERTEX
8
1
10
18.575981
20
6.303986
0
VERTEX
8
1
10
18.570335
20
6.305969
42
-0.079280
0
VERTEX
8
1
10
18.471771
20
6.437866
42
0.024867
0
VERTEX
8
1
10
18.211500
20
6.776624
42
0.143467
0
VERTEX
8
1
10
18.106571
20
6.837142
42
0.648290
0
VERTEX
8
1
10
18.071480
20
6.771763
42
0.011367
0
VERTEX
8
1
10
18.135078
20
6.670418
42
-0.122034
0
VERTEX
8
1
10
18.166491
20
6.520921
42
-0.251960
0
VERTEX
8
1
10
18.112206
20
6.455341
42
-0.416862
0
VERTEX
8
1
10
18.085899
20
6.477386
0
VERTEX
8
1
10
18.077467
20
6.503756
42
0.173079
0
VERTEX
8
1
10
17.815559
20
6.797844
0
VERTEX
8
1
10
17.787361
20
6.787872
0
VERTEX
8
1
10
17.770996
20
6.759800
42
0.092866
0
VERTEX
8
1
10
17.763466
20
6.607925
0
VERTEX
8
1
10
17.764122
20
6.567959
42
-0.290875
0
VERTEX
8
1
10
17.695244
20
6.434052
42
-0.427021
0
VERTEX
8
1
10
17.663689
20
6.453667
42
-0.141382
0
VERTEX
8
1
10
17.657644
20
6.512884
42
0.046372
0
VERTEX
8
1
10
17.654816
20
6.584892
42
-0.107164
0
VERTEX
8
1
10
17.625679
20
6.715988
42
0.028327
0
VERTEX
8
1
10
17.550013
20
6.952478
42
0.057795
0
VERTEX
8
1
10
17.471886
20
7.083271
42
0.158939
0
VERTEX
8
1
10
17.399452
20
7.166115
0
VERTEX
8
1
10
17.400169
20
7.204414
42
0.011439
0
VERTEX
8
1
10
17.265114
20
7.361485
42
0.029850
0
VERTEX
8
1
10
17.148865
20
7.433454
42
-0.098966
0
VERTEX
8
1
10
17.115891
20
7.472313
0
VERTEX
8
1
10
17.114952
20
7.490696
42
-0.180338
0
VERTEX
8
1
10
17.387787
20
7.447071
0
SEQEND
0
POLYLINE
8
1
66
1
70
1
0
VERTEX
8
1
10
22.449379
20
11.354839
42
0.191505
0
VERTEX
8
1
10
22.400803
20
11.281418
42
-0.165347
0
VERTEX
8
1
10
22.335945
20
11.233875
42
0.086861
0
VERTEX
8
1
10
22.243874
20
11.143673
42
-0.088085
0
VERTEX
8
1
10
22.040245
20
10.990967
42
0.063488
0
VERTEX
8
1
10
21.989807
20
10.914356
42
-0.139063
0
VERTEX
8
1
10
21.938828
20
10.882561
42
0.127113
0
VERTEX
8
1
10
21.904793
20
10.838351
42
-0.120195
0
VERTEX
8
1
10
21.760727
20
10.704205
42
0.116380
0
VERTEX
8
1
10
21.707115
20
10.644585
42
-0.055050
0
VERTEX
8
1
10
21.520325
20
10.455357
42
-0.094155
0
VERTEX
8
1
10
21.345314
20
10.315449
42
0.055256
0
VERTEX
8
1
10
21.242058
20
10.217220
42
-0.056115
0
VERTEX
8
1
10
21.024918
20
10.067673
42
-0.120004
0
VERTEX
8
1
10
20.939386
20
10.027011
42
-0.444999
0
VERTEX
8
1
10
20.923332
20
10.052536
0
VERTEX
8
1
10
20.931259
20
10.069290
42
-0.035521
0
VERTEX
8
1
10
21.026741
20
10.151756
42
0.064454
0
VERTEX
8
1
10
21.126038
20
10.299404
0
VERTEX
8
1
10
21.130867
20
10.323208
42
0.651270
0
VERTEX
8
1
10
21.092461
20
10.326382
42
-0.274755
0
VERTEX
8
1
10
21.033607
20
10.292820
42
0.157052
0
VERTEX
8
1
10
20.935219
20
10.214443
42
-0.130195
0
VERTEX
8
1
10
20.816406
20
10.133930
42
0.074314
0
VERTEX
8
1
10
20.712677
20
10.039078
42
0.024598
0
VERTEX
8
1
10
20.539360
20
9.882771
42
-0.009264
0
VERTEX
8
1
10
20.395393
20
9.772488
0
VERTEX
8
1
10
20.373802
20
9.750313
0
VERTEX
8
1
10
20.362404
20
9.735691
0
VERTEX
8
1
10
20.358856
20
9.728767
42
-0.397470
0
VERTEX
8
1
10
20.306587
20
9.679745
42
0.240790
0
VERTEX
8
1
10
20.240105
20
9.641785
42
-0.146295
0
VERTEX
8
1
10
20.128914
20
9.550602
42
0.078545
0
VERTEX
8
1
10
20.047617
20
9.466672
42
-0.198855
0
VERTEX
8
1
10
19.993896
20
9.444572
42
0.157016
0
VERTEX
8
1
10
19.920006
20
9.400257
42
-0.068787
0
VERTEX
8
1
10
19.789070
20
9.342697
42
0.216080
0
VERTEX
8
1
10
19.745626
20
9.335690
42
-0.132117
0
VERTEX
8
1
10
19.629602
20
9.324251
42
0.133162
0
VERTEX
8
1
10
19.549385
20
9.300066
42
-0.249175
0
VERTEX
8
1
10
19.513618
20
9.304939
0
VERTEX
8
1
10
19.518379
20
9.327389
42
-0.071391
0
VERTEX
8
1
10
19.610176
20
9.408024
0
VERTEX
8
1
10
19.627327
20
9.426880
42
0.759112
0
VERTEX
8
1
10
19.589622
20
9.467312
0
VERTEX
8
1
10
19.569260
20
9.459904
0
VERTEX
8
1
10
19.548294
20
9.448723
42
-0.084141
0
VERTEX
8
1
10
19.385483
20
9.365181
42
0.144112
0
VERTEX
8
1
10
19.313263
20
9.297913
42
0.113650
0
VERTEX
8
1
10
19.229568
20
9.192047
42
-0.120038
0
VERTEX
8
1
10
19.151367
20
9.138668
42
-0.049016
0
VERTEX
8
1
10
19.085419
20
9.077644
42
0.129700
0
VERTEX
8
1
10
18.985161
20
9.025898
0
VERTEX
8
1
10
18.975601
20
9.021347
42
0.030812
0
VERTEX
8
1
10
18.818932
20
8.969578
42
-0.079741
0
VERTEX
8
1
10
18.739998
20
8.966251
42
0.191241
0
VERTEX
8
1
10
18.670197
20
8.933838
42
-0.266521
0
VERTEX
8
1
10
18.590073
20
8.922558
42
0.217486
0
VERTEX
8
1
10
18.494347
20
8.897923
42
-0.049735
0
VERTEX
8
1
10
18.408615
20
8.866474
42
-0.296253
0
VERTEX
8
1
10
18.378532
20
8.848843
0
VERTEX
8
1
10
18.334282
20
8.851147
42
0.046701
0
VERTEX
8
1
10
18.236801
20
8.809387
0
VERTEX
8
1
10
18.218010
20
8.804714
42
0.035794
0
VERTEX
8
1
10
18.103661
20
8.797649
42
-0.396906
0
VERTEX
8
1
10
18.041327
20
8.779766
42
0.184343
0
VERTEX
8
1
10
17.949890
20
8.759586
42
-0.119760
0
VERTEX
8
1
10
17.844368
20
8.755444
42
0.102706
0
VERTEX
8
1
10
17.766403
20
8.738190
42
-0.052134
0
VERTEX
8
1
10
17.666267
20
8.736019
42
0.063155
0
VERTEX
8
1
10
17.592491
20
8.710335
0
VERTEX
8
1
10
17.581383
20
8.708172
42
0.004089
0
VERTEX
8
1
10
17.321701
20
8.704956
0
VERTEX
8
1
10
17.295891
20
8.708408
0
VERTEX
8
1
10
17.277443
20
8.719067
42
-0.347369
0
VERTEX
8
1
10
17.358086
20
8.777599
42
0.072280
0
VERTEX
8
1
10
17.513731
20
8.796982
42
-0.078062
0
VERTEX
8
1
10
17.647879
20
8.798615
42
0.152722
0
VERTEX
8
1
10
17.699074
20
8.815575
0
VERTEX
8
1
10
17.697502
20
8.803337
0
VERTEX
8
1
10
17.697960
20
8.802288
0
VERTEX
8
1
10
17.720947
20
8.779282
42
0.103089
0
VERTEX
8
1
10
17.792870
20
8.797882
42
-0.037575
0
VERTEX
8
1
10
17.903175
20
8.803856
42
0.080964
0
VERTEX
8
1
10
17.985649
20
8.835194
42
-0.069542
0
VERTEX
8
1
10
18.085098
20
8.853756
0
VERTEX
8
1
10
18.093895
20
8.857296
42
-0.293617
0
VERTEX
8
1
10
18.124260
20
8.874603
0
VERTEX
8
1
10
18.167358
20
8.872368
42
0.082648
0
VERTEX
8
1
10
18.279846
20
8.926315
42
-0.115019
0
VERTEX
8
1
10
18.357735
20
8.943069
42
0.178805
0
VERTEX
8
1
10
18.425117
20
8.983006
42
-0.086826
0
VERTEX
8
1
10
18.532623
20
9.036663
42
0.032736
0
VERTEX
8
1
10
18.697525
20
9.105701
0
VERTEX
8
1
10
18.705978
20
9.112888
42
-0.207731
0
VERTEX
8
1
10
18.811832
20
9.172356
42
0.099683
0
VERTEX
8
1
10
18.876900
20
9.217872
42
-0.163669
0
VERTEX
8
1
10
18.929840
20
9.226296
42
0.192473
0
VERTEX
8
1
10
18.967119
20
9.248377
42
-0.072919
0
VERTEX
8
1
10
19.052475
20
9.300102
42
0.119376
0
VERTEX
8
1
10
19.176857
20
9.494549
42
0.320866
0
VERTEX
8
1
10
19.144554
20
9.558704
42
-0.013234
0
VERTEX
8
1
10
19.035374
20
9.619744
42
-0.409261
0
VERTEX
8
1
10
19.039322
20
9.656422
42
0.041219
0
VERTEX
8
1
10
19.231522
20
9.858082
42
0.072057
0
VERTEX
8
1
10
19.297409
20
10.003506
42
-0.136952
0
VERTEX
8
1
10
19.382494
20
10.150875
42
-0.226473
0
VERTEX
8
1
10
19.437979
20
10.174646
42
-0.310550
0
VERTEX
8
1
10
19.460434
20
10.148987
42
0.001772
0
VERTEX
8
1
10
19.471863
20
10.062828
42
0.137755
0
VERTEX
8
1
10
19.522911
20
10.006672
42
-0.185821
0
VERTEX
8
1
10
19.540176
20
9.970665
0
VERTEX
8
1
10
19.551979
20
9.965263
42
0.071973
0
VERTEX
8
1
10
19.753983
20
10.092644
42
-0.279995
0
VERTEX
8
1
10
19.815842
20
10.129459
42
0.282770
0
VERTEX
8
1
10
19.875198
20
10.179440
42
-0.225714
0
VERTEX
8
1
10
19.947647
20
10.219921
42
0.179093
0
VERTEX
8
1
10
20.023569
20
10.268417
42
-0.342378
0
VERTEX
8
1
10
20.060623
20
10.268276
0
VERTEX
8
1
10
20.074753
20
10.257523
42
-0.242178
0
VERTEX
8
1
10
20.094238
20
10.146584
42
-0.159072
0
VERTEX
8
1
10
20.018303
20
10.095688
42
0.108943
0
VERTEX
8
1
10
19.930664
20
10.027134
42
-0.110638
0
VERTEX
8
1
10
19.784527
20
9.937858
42
0.239065
0
VERTEX
8
1
10
19.633598
20
9.739922
0
VERTEX
8
1
10
19.635529
20
9.714462
0
VERTEX
8
1
10
19.649368
20
9.697872
42
0.212079
0
VERTEX
8
1
10
19.762505
20
9.713215
42
-0.106417
0
VERTEX
8
1
10
19.902573
20
9.751869
42
0.149681
0
VERTEX
8
1
10
20.053177
20
9.849869
0
VERTEX
8
1
10
20.066406
20
9.860889
42
0.047420
0
VERTEX
8
1
10
20.214584
20
9.977856
42
0.068361
0
VERTEX
8
1
10
20.343681
20
10.085102
42
-0.145828
0
VERTEX
8
1
10
20.459824
20
10.191944
42
-0.005524
0
VERTEX
8
1
10
20.652992
20
10.360271
42
-0.080330
0
VERTEX
8
1
10
20.857582
20
10.531700
42
0.136724
0
VERTEX
8
1
10
20.992218
20
10.673164
42
-0.181641
0
VERTEX
8
1
10
21.042419
20
10.700783
42
0.066445
0
VERTEX
8
1
10
21.179565
20
10.834728
42
0.056362
0
VERTEX
8
1
10
21.264349
20
10.940505
42
-0.062426
0
VERTEX
8
1
10
21.320297
20
10.993320
0
VERTEX
8
1
10
21.344635
20
11.001022
0
VERTEX
8
1
10
21.367592
20
10.993580
0
VERTEX
8
1
10
21.375458
20
10.982967
42
-0.177599
0
VERTEX
8
1
10
21.325981
20
10.754353
42
-0.023706
0
VERTEX
8
1
10
21.282431
20
10.705459
42
0.447918
0
VERTEX
8
1
10
21.291367
20
10.689579
42
0.190680
0
VERTEX
8
1
10
21.391403
20
10.713421
42
0.082907
0
VERTEX
8
1
10
21.523270
20
10.813229
0
VERTEX
8
1
10
21.537720
20
10.824551
42
0.032174
0
VERTEX
8
1
10
21.913013
20
11.098716
42
-0.027841
0
VERTEX
8
1
10
21.980522
20
11.162018
42
0.111909
0
VERTEX
8
1
10
22.123810
20
11.255791
42
-0.059990
0
VERTEX
8
1
10
22.269554
20
11.339024
42
0.069094
0
VERTEX
8
1
10
22.441772
20
11.467651
42
-0.082253
0
VERTEX
8
1
10
22.556694
20
11.532246
0
VERTEX
8
1
10
22.616852
20
11.556847
0
VERTEX
8
1
10
22.618568
20
11.538208
0
VERTEX
8
1
10
22.609375
20
11.514706
0
VERTEX
8
1
10
22.593201
20
11.490833
42
-0.023439
0
SEQEND
0
POLYLINE
8
1
66
1
70
1
0
VERTEX
8
1
10
22.632988
20
12.000565
0
VERTEX
8
1
10
22.629974
20
11.996834
42
0.145885
0
VERTEX
8
1
10
22.575775
20
11.948517
42
0.080705
0
VERTEX
8
1
10
22.463890
20
11.855145
42
0.262065
0
VERTEX
8
1
10
22.415627
20
11.836861
42
-0.019434
0
VERTEX
8
1
10
22.298775
20
11.773777
0
VERTEX
8
1
10
22.287331
20
11.772415
0
VERTEX
8
1
10
22.282158
20
11.781246
42
-0.183737
0
VERTEX
8
1
10
22.311691
20
11.831017
0
VERTEX
8
1
10
22.321167
20
11.842018
0
VERTEX
8
1
10
22.328362
20
11.853622
42
-0.374437
0
VERTEX
8
1
10
22.348389
20
11.892509
42
0.190234
0
VERTEX
8
1
10
22.364128
20
11.919823
0
VERTEX
8
1
10
22.359138
20
11.923683
0
VERTEX
8
1
10
22.352150
20
11.925716
0
VERTEX
8
1
10
22.433723
20
12.007343
42
0.030607
0
VERTEX
8
1
10
22.568390
20
12.091595
42
0.178968
0
VERTEX
8
1
10
22.661400
20
12.149506
42
-0.077283
0
VERTEX
8
1
10
22.751106
20
12.198334
42
0.126598
0
VERTEX
8
1
10
22.806957
20
12.254283
42
-0.047357
0
VERTEX
8
1
10
22.912979
20
12.358925
42
0.065384
0
VERTEX
8
1
10
22.995056
20
12.465061
42
0.031158
0
VERTEX
8
1
10
23.153399
20
12.672576
42
-0.003821
0
VERTEX
8
1
10
23.194611
20
12.753696
0
VERTEX
8
1
10
23.200523
20
12.748096
42
-0.222433
0
VERTEX
8
1
10
23.182243
20
12.632412
42
0.299078
0
VERTEX
8
1
10
23.152824
20
12.571789
42
-0.212224
0
VERTEX
8
1
10
23.110205
20
12.522839
42
0.228943
0
VERTEX
8
1
10
23.080021
20
12.462740
42
-0.126823
0
VERTEX
8
1
10
23.063385
20
12.447124
42
0.079159
0
VERTEX
8
1
10
23.038765
20
12.385250
42
0.401445
0
VERTEX
8
1
10
23.059555
20
12.378960
0
VERTEX
8
1
10
23.072914
20
12.391323
42
0.089761
0
VERTEX
8
1
10
23.181993
20
12.483403
0
VERTEX
8
1
10
23.193756
20
12.501446
0
VERTEX
8
1
10
23.201469
20
12.508492
42
0.074632
0
VERTEX
8
1
10
23.383194
20
12.683552
0
VERTEX
8
1
10
23.398140
20
12.697762
0
VERTEX
8
1
10
23.414421
20
12.707855
0
VERTEX
8
1
10
23.420303
20
12.703602
42
-0.210666
0
VERTEX
8
1
10
23.342934
20
12.579456
42
0.054725
0
VERTEX
8
1
10
23.274971
20
12.501034
42
0.039902
0
VERTEX
8
1
10
23.139587
20
12.351807
42
-0.099198
0
VERTEX
8
1
10
23.048658
20
12.284203
42
0.002560
0
VERTEX
8
1
10
22.896423
20
12.190582
42
0.100342
0
VERTEX
8
1
10
22.767855
20
12.116076
0
VERTEX
8
1
10
22.747534
20
12.102877
0
VERTEX
8
1
10
22.726418
20
12.090992
42
0.013749
0
VERTEX
8
1
10
22.637497
20
12.008062
0
VERTEX
8
1
10
22.635185
20
12.004348
0
SEQEND
0
POLYLINE
8
1
66
1
70
1
0
VERTEX
8
1
10
24.025803
20
12.702248
42
-0.131361
0
VERTEX
8
1
10
23.974867
20
12.662866
42
0.000437
0
VERTEX
8
1
10
23.866501
20
12.578705
42
-0.047097
0
VERTEX
8
1
10
23.606163
20
12.343750
42
0.058544
0
VERTEX
8
1
10
23.368084
20
12.173626
42
-0.095986
0
VERTEX
8
1
10
23.265152
20
12.124260
42
-0.108456
0
VERTEX
8
1
10
23.162485
20
12.078352
42
0.035033
0
VERTEX
8
1
10
23.042259
20
12.000499
0
VERTEX
8
1
10
23.030149
20
11.996200
0
VERTEX
8
1
10
23.017479
20
11.994053
0
VERTEX
8
1
10
22.991642
20
11.978827
42
0.016166
0
VERTEX
8
1
10
22.860458
20
11.903064
0
VERTEX
8
1
10
22.833130
20
11.888809
42
0.034696
0
VERTEX
8
1
10
22.722614
20
11.838164
0
VERTEX
8
1
10
22.703812
20
11.831268
0
VERTEX
8
1
10
22.690712
20
11.830120
0
VERTEX
8
1
10
22.692169
20
11.837013
42
-0.084867
0
VERTEX
8
1
10
22.787865
20
11.936565
42
-0.133095
0
VERTEX
8
1
10
22.857689
20
11.999420
42
0.067333
0
VERTEX
8
1
10
22.946938
20
12.084977
0
VERTEX
8
1
10
22.958706
20
12.093657
0
VERTEX
8
1
10
22.971640
20
12.100480
42
0.032886
0
VERTEX
8
1
10
23.103910
20
12.138878
42
0.082387
0
VERTEX
8
1
10
23.154427
20
12.174316
42
0.000235
0
VERTEX
8
1
10
23.307270
20
12.262331
0
VERTEX
8
1
10
23.312191
20
12.267958
0
VERTEX
8
1
10
23.315750
20
12.274529
42
0.049905
0
VERTEX
8
1
10
23.443626
20
12.373882
42
0.057057
0
VERTEX
8
1
10
23.584007
20
12.476555
42
0.051873
0
VERTEX
8
1
10
23.706936
20
12.565870
0
VERTEX
8
1
10
23.729736
20
12.589565
42
0.058794
0
VERTEX
8
1
10
24.055405
20
12.837093
42
-0.045542
0
VERTEX
8
1
10
24.170692
20
12.911076
0
VERTEX
8
1
10
24.182396
20
12.913910
0
VERTEX
8
1
10
24.198357
20
12.906719
0
VERTEX
8
1
10
24.202873
20
12.879269
0
VERTEX
8
1
10
24.179863
20
12.842472
42
-0.016615
0
VERTEX
8
1
10
24.027643
20
12.704785
0
SEQEND
0
POLYLINE
8
1
66
1
70
1
0
VERTEX
8
1
10
13.739133
20
13.100070
42
-0.269818
0
VERTEX
8
1
10
13.722453
20
13.069249
42
0.266851
0
VERTEX
8
1
10
13.703583
20
13.015503
42
-0.236195
0
VERTEX
8
1
10
13.684479
20
12.961510
42
-0.138270
0
VERTEX
8
1
10
13.587753
20
12.829735
0
VERTEX
8
1
10
13.565125
20
12.820705
0
VERTEX
8
1
10
13.547890
20
12.826996
0
VERTEX
8
1
10
13.538696
20
12.847122
42
-0.031677
0
VERTEX
8
1
10
13.537016
20
12.975190
42
0.285163
0
VERTEX
8
1
10
13.452198
20
13.080810
42
0.483149
0
VERTEX
8
1
10
13.446175
20
13.068939
42
-0.141514
0
VERTEX
8
1
10
13.429001
20
12.986446
42
-0.166500
0
VERTEX
8
1
10
13.334511
20
12.771458
0
VERTEX
8
1
10
13.316193
20
12.757378
0
VERTEX
8
1
10
13.294907
20
12.745461
0
VERTEX
8
1
10
13.280731
20
12.750084
42
0.476066
0
VERTEX
8
1
10
13.257011
20
12.754749
42
-0.191176
0
VERTEX
8
1
10
13.178123
20
12.717674
0
VERTEX
8
1
10
13.173904
20
12.708080
0
VERTEX
8
1
10
13.171173
20
12.695553
42
0.175059
0
VERTEX
8
1
10
13.157032
20
12.580376
42
-0.215212
0
VERTEX
8
1
10
13.140152
20
12.552315
0
VERTEX
8
1
10
13.137680
20
12.542362
42
-0.147964
0
VERTEX
8
1
10
13.124695
20
12.461887
0
VERTEX
8
1
10
13.116295
20
12.454449
42
-0.086470
0
VERTEX
8
1
10
13.020340
20
12.428276
42
-0.413494
0
VERTEX
8
1
10
12.973846
20
12.466225
42
-0.041625
0
VERTEX
8
1
10
12.954903
20
12.532833
42
-0.153464
0
VERTEX
8
1
10
12.933549
20
12.630124
42
0.149669
0
VERTEX
8
1
10
12.891023
20
12.722326
42
-0.233264
0
VERTEX
8
1
10
12.882219
20
12.795344
42
0.303299
0
VERTEX
8
1
10
12.865540
20
12.833717
0
VERTEX
8
1
10
12.863182
20
12.843948
42
0.101214
0
VERTEX
8
1
10
12.843921
20
12.953046
42
-0.036693
0
VERTEX
8
1
10
12.841667
20
13.000984
42
-0.312108
0
VERTEX
8
1
10
12.824623
20
13.066418
42
0.271580
0
VERTEX
8
1
10
12.809451
20
13.092704
42
0.009462
0
VERTEX
8
1
10
12.773903
20
13.125484
42
0.041949
0
VERTEX
8
1
10
12.730961
20
13.213734
42
0.183888
0
VERTEX
8
1
10
12.686859
20
13.233902
42
-0.239503
0
VERTEX
8
1
10
12.733124
20
13.064726
42
-0.286441
0
VERTEX
8
1
10
12.699165
20
13.045151
42
-0.073413
0
VERTEX
8
1
10
12.716133
20
12.964142
42
-0.095713
0
VERTEX
8
1
10
12.737083
20
12.852268
42
-0.375716
0
VERTEX
8
1
10
12.751816
20
12.806351
42
0.355413
0
VERTEX
8
1
10
12.765762
20
12.751255
42
-0.139745
0
VERTEX
8
1
10
12.753148
20
12.602951
42
0.035887
0
VERTEX
8
1
10
12.711618
20
12.426064
0
VERTEX
8
1
10
12.700616
20
12.385709
0
VERTEX
8
1
10
12.687607
20
12.345955
42
-0.346308
0
VERTEX
8
1
10
12.617806
20
12.318045
42
0.286405
0
VERTEX
8
1
10
12.553055
20
12.281712
0
VERTEX
8
1
10
12.553879
20
12.276993
42
-0.327618
0
VERTEX
8
1
10
12.565704
20
12.219997
0
VERTEX
8
1
10
12.551872
20
12.208015
42
-0.358081
0
VERTEX
8
1
10
12.436226
20
12.265739
42
0.061301
0
VERTEX
8
1
10
12.359100
20
12.313457
0
VERTEX
8
1
10
12.351326
20
12.311039
42
0.176570
0
VERTEX
8
1
10
12.388695
20
12.112156
42
-0.034358
0
VERTEX
8
1
10
12.448204
20
11.949390
42
-0.208207
0
VERTEX
8
1
10
12.481552
20
11.863766
42
-0.179199
0
VERTEX
8
1
10
12.495519
20
11.781451
42
-0.199944
0
VERTEX
8
1
10
12.471550
20
11.691338
42
-0.376643
0
VERTEX
8
1
10
12.392108
20
11.701485
42
0.020808
0
VERTEX
8
1
10
12.278275
20
11.770387
42
-0.060734
0
VERTEX
8
1
10
12.126383
20
11.901424
42
0.055997
0
VERTEX
8
1
10
12.059250
20
11.947418
42
0.049598
0
VERTEX
8
1
10
11.955887
20
12.093849
42
-0.082021
0
VERTEX
8
1
10
11.882896
20
12.221558
42
-0.062089
0
VERTEX
8
1
10
11.831696
20
12.296059
42
0.072110
0
VERTEX
8
1
10
11.774654
20
12.448693
42
-0.109261
0
VERTEX
8
1
10
11.763275
20
12.534554
42
-0.045283
0
VERTEX
8
1
10
11.727196
20
12.692089
0
VERTEX
8
1
10
11.722389
20
12.708401
42
-0.080023
0
VERTEX
8
1
10
11.689865
20
12.801811
42
-0.009319
0
VERTEX
8
1
10
11.694620
20
13.026740
42
0.120950
0
VERTEX
8
1
10
11.662041
20
13.129679
42
-0.094782
0
VERTEX
8
1
10
11.617072
20
13.299175
42
0.132892
0
VERTEX
8
1
10
11.572166
20
13.383991
0
VERTEX
8
1
10
11.564285
20
13.378483
42
0.200019
0
VERTEX
8
1
10
11.562386
20
13.210083
0
VERTEX
8
1
10
11.563248
20
13.199886
42
0.106625
0
VERTEX
8
1
10
11.599075
20
12.954033
42
0.073209
0
VERTEX
8
1
10
11.616600
20
12.765156
42
0.116719
0
VERTEX
8
1
10
11.639664
20
12.643053
42
-0.101579
0
VERTEX
8
1
10
11.655579
20
12.519661
0
VERTEX
8
1
10
11.670148
20
12.473921
42
0.058267
0
VERTEX
8
1
10
11.746829
20
12.306019
42
-0.052500
0
VERTEX
8
1
10
11.767426
20
12.233551
42
-0.008342
0
VERTEX
8
1
10
11.829582
20
12.118439
42
0.585702
0
VERTEX
8
1
10
11.818642
20
12.095295
42
0.024241
0
VERTEX
8
1
10
11.851379
20
12.059971
42
-0.053546
0
VERTEX
8
1
10
11.868446
20
11.990868
42
-0.015783
0
VERTEX
8
1
10
11.943942
20
11.847333
42
0.284097
0
VERTEX
8
1
10
11.926168
20
11.819241
42
0.182072
0
VERTEX
8
1
10
11.937708
20
11.763764
42
-0.266184
0
VERTEX
8
1
10
11.917854
20
11.685970
42
-0.083179
0
VERTEX
8
1
10
11.895180
20
11.654301
42
0.117468
0
VERTEX
8
1
10
11.893715
20
11.604225
42
-0.112609
0
VERTEX
8
1
10
11.819221
20
11.550705
0
VERTEX
8
1
10
11.892281
20
11.569004
42
0.236175
0
VERTEX
8
1
10
11.883481
20
11.586783
42
0.220347
0
VERTEX
8
1
10
11.905892
20
11.595145
42
-0.236358
0
VERTEX
8
1
10
11.951072
20
11.604383
42
0.222226
0
VERTEX
8
1
10
12.032635
20
11.631865
42
-0.087875
0
VERTEX
8
1
10
12.071884
20
11.645187
42
-0.130676
0
VERTEX
8
1
10
12.094055
20
11.518757
0
VERTEX
8
1
10
12.095879
20
11.507492
42
0.077369
0
VERTEX
8
1
10
12.156227
20
11.406811
42
-0.035827
0
VERTEX
8
1
10
12.235191
20
11.354710
42
-0.078094
0
VERTEX
8
1
10
12.293102
20
11.239016
42
-0.436080
0
VERTEX
8
1
10
12.236687
20
11.181809
42
-0.196207
0
VERTEX
8
1
10
12.101898
20
11.206435
42
0.042750
0
VERTEX
8
1
10
12.003342
20
11.248405
42
0.095363
0
VERTEX
8
1
10
11.806740
20
11.323235
42
0.067704
0
VERTEX
8
1
10
11.717331
20
11.367313
42
0.249362
0
VERTEX
8
1
10
11.619461
20
11.431841
42
-0.151760
0
VERTEX
8
1
10
11.394443
20
11.580221
42
-0.012522
0
VERTEX
8
1
10
11.312004
20
11.680424
0
VERTEX
8
1
10
11.293869
20
11.696354
42
-0.321622
0
VERTEX
8
1
10
11.271386
20
11.748816
42
0.273704
0
VERTEX
8
1
10
11.256703
20
11.775021
42
0.040304
0
VERTEX
8
1
10
11.171364
20
11.907257
0
VERTEX
8
1
10
11.163567
20
11.932079
42
0.096232
0
VERTEX
8
1
10
11.103559
20
12.048294
0
VERTEX
8
1
10
11.090574
20
12.071806
0
VERTEX
8
1
10
11.079407
20
12.096233
42
0.080725
0
VERTEX
8
1
10
10.994573
20
12.258498
42
-0.178432
0
VERTEX
8
1
10
10.980340
20
12.333856
42
0.211125
0
VERTEX
8
1
10
10.930282
20
12.446229
42
-0.124910
0
VERTEX
8
1
10
10.885565
20
12.551952
42
0.137205
0
VERTEX
8
1
10
10.836249
20
12.638435
42
-0.118889
0
VERTEX
8
1
10
10.805624
20
12.720451
42
0.130914
0
VERTEX
8
1
10
10.756330
20
12.793733
42
-0.191369
0
VERTEX
8
1
10
10.738999
20
12.872885
42
0.149779
0
VERTEX
8
1
10
10.709450
20
12.955944
0
VERTEX
8
1
10
10.706772
20
12.964390
42
-0.050750
0
VERTEX
8
1
10
10.708551
20
13.132407
42
0.218698
0
VERTEX
8
1
10
10.691475
20
13.162251
42
-0.095920
0
VERTEX
8
1
10
10.664207
20
13.298626
42
-0.518887
0
VERTEX
8
1
10
10.659561
20
13.352280
42
0.522341
0
VERTEX
8
1
10
10.655006
20
13.400387
0
VERTEX
8
1
10
10.651665
20
13.407490
42
0.292329
0
VERTEX
8
1
10
10.619446
20
13.449085
0
VERTEX
8
1
10
10.612766
20
13.427926
42
0.104263
0
VERTEX
8
1
10
10.593429
20
13.290181
42
0.040972
0
VERTEX
8
1
10
10.609324
20
13.131516
0
VERTEX
8
1
10
10.612367
20
13.088653
42
-0.015463
0
VERTEX
8
1
10
10.610279
20
12.912042
42
0.094136
0
VERTEX
8
1
10
10.631508
20
12.831772
42
0.144453
0
VERTEX
8
1
10
10.648720
20
12.723103
0
VERTEX
8
1
10
10.657814
20
12.698856
42
-0.005766
0
VERTEX
8
1
10
10.675056
20
12.566174
42
-0.003352
0
VERTEX
8
1
10
10.740531
20
12.409428
42
-0.032683
0
VERTEX
8
1
10
10.863385
20
12.186068
0
VERTEX
8
1
10
10.879813
20
12.158263
0
VERTEX
8
1
10
10.897751
20
12.131409
42
-0.186950
0
VERTEX
8
1
10
10.962685
20
12.025745
0
VERTEX
8
1
10
10.967216
20
12.014679
42
-0.056894
0
VERTEX
8
1
10
11.029610
20
11.892902
42
-0.105778
0
VERTEX
8
1
10
11.108536
20
11.727966
0
VERTEX
8
1
10
11.117371
20
11.705395
42
-0.018292
0
VERTEX
8
1
10
11.289962
20
11.400837
42
-0.099472
0
VERTEX
8
1
10
11.304579
20
11.330955
42
0.154506
0
VERTEX
8
1
10
11.337110
20
11.279263
42
-0.198518
0
VERTEX
8
1
10
11.343575
20
11.239559
0
VERTEX
8
1
10
11.351679
20
11.227907
42
-0.171915
0
VERTEX
8
1
10
11.382429
20
11.140329
42
-0.029001
0
VERTEX
8
1
10
11.376214
20
11.041264
42
-0.171436
0
VERTEX
8
1
10
11.330162
20
10.978951
0
VERTEX
8
1
10
11.314751
20
10.964954
0
VERTEX
8
1
10
11.325760
20
10.965897
0
VERTEX
8
1
10
11.343178
20
10.983303
42
0.227298
0
VERTEX
8
1
10
11.435347
20
10.975931
0
VERTEX
8
1
10
11.452563
20
10.981436
42
0.367002
0
VERTEX
8
1
10
11.482153
20
11.012589
42
-0.306808
0
VERTEX
8
1
10
11.522627
20
11.048227
42
0.198307
0
VERTEX
8
1
10
11.548059
20
11.076228
42
-0.115095
0
VERTEX
8
1
10
11.590850
20
11.128307
42
0.262210
0
VERTEX
8
1
10
11.598688
20
11.179262
42
-0.340359
0
VERTEX
8
1
10
11.622902
20
11.236504
0
VERTEX
8
1
10
11.631305
20
11.246230
0
VERTEX
8
1
10
11.638924
20
11.256580
0
VERTEX
8
1
10
11.651535
20
11.251322
42
0.033462
0
VERTEX
8
1
10
11.726513
20
11.217316
42
-0.127702
0
VERTEX
8
1
10
11.793682
20
11.165471
42
0.098343
0
VERTEX
8
1
10
11.886002
20
11.094154
42
-0.031329
0
VERTEX
8
1
10
12.073227
20
10.920361
42
0.042876
0
VERTEX
8
1
10
12.175552
20
10.799469
42
0.112510
0
VERTEX
8
1
10
12.249908
20
10.690891
42
-0.409177
0
VERTEX
8
1
10
12.297250
20
10.641644
0
VERTEX
8
1
10
12.307884
20
10.614262
42
-0.677909
0
VERTEX
8
1
10
12.278454
20
10.563258
42
-0.113766
0
VERTEX
8
1
10
12.240936
20
10.568092
42
0.005120
0
VERTEX
8
1
10
12.097549
20
10.632645
42
1.095347
0
VERTEX
8
1
10
12.082356
20
10.606245
42
-0.263540
0
VERTEX
8
1
10
12.092357
20
10.542931
42
0.245700
0
VERTEX
8
1
10
12.124763
20
10.448158
42
-0.147231
0
VERTEX
8
1
10
12.150068
20
10.387344
42
0.126334
0
VERTEX
8
1
10
12.180455
20
10.330907
42
-0.257932
0
VERTEX
8
1
10
12.182991
20
10.223692
42
0.036502
0
VERTEX
8
1
10
12.158890
20
10.153950
42
-0.099691
0
VERTEX
8
1
10
12.098567
20
10.138147
42
0.337941
0
VERTEX
8
1
10
12.070755
20
10.095291
42
0.013268
0
VERTEX
8
1
10
12.077870
20
9.930957
42
-0.209160
0
VERTEX
8
1
10
12.044342
20
9.879009
42
-0.043617
0
VERTEX
8
1
10
11.976970
20
9.761836
42
-0.331288
0
VERTEX
8
1
10
11.927551
20
9.758850
42
0.103193
0
VERTEX
8
1
10
11.811783
20
9.797207
0
VERTEX
8
1
10
11.801844
20
9.804272
42
0.312790
0
VERTEX
8
1
10
11.739841
20
9.805717
0
VERTEX
8
1
10
11.726317
20
9.799749
0
VERTEX
8
1
10
11.713020
20
9.793289
42
0.179499
0
VERTEX
8
1
10
11.712438
20
9.732299
42
0.046965
0
VERTEX
8
1
10
11.786179
20
9.577301
42
0.069099
0
VERTEX
8
1
10
11.976288
20
9.386667
42
0.099268
0
VERTEX
8
1
10
12.015778
20
9.372597
0
VERTEX
8
1
10
12.018263
20
9.365726
42
0.135536
0
VERTEX
8
1
10
12.042187
20
9.319893
0
VERTEX
8
1
10
12.049726
20
9.306537
0
VERTEX
8
1
10
12.056175
20
9.292622
42
0.341796
0
VERTEX
8
1
10
12.073804
20
9.338257
42
-0.118873
0
VERTEX
8
1
10
12.089490
20
9.426394
42
0.092275
0
VERTEX
8
1
10
12.088593
20
9.535824
42
-0.173586
0
VERTEX
8
1
10
12.111824
20
9.594082
42
-0.333353
0
VERTEX
8
1
10
12.132996
20
9.644840
0
VERTEX
8
1
10
12.152412
20
9.646305
42
-0.142622
0
VERTEX
8
1
10
12.203506
20
9.589157
0
VERTEX
8
1
10
12.225912
20
9.541116
42
0.032637
0
VERTEX
8
1
10
12.314354
20
9.375885
42
0.542219
0
VERTEX
8
1
10
12.369999
20
9.380337
42
0.174059
0
VERTEX
8
1
10
12.431404
20
9.514400
42
0.131379
0
VERTEX
8
1
10
12.458469
20
9.648330
42
-0.053568
0
VERTEX
8
1
10
12.484482
20
9.822979
42
0.095703
0
VERTEX
8
1
10
12.520088
20
9.939323
42
0.012243
0
VERTEX
8
1
10
12.545410
20
10.020977
42
0.159605
0
VERTEX
8
1
10
12.573006
20
10.063675
42
-0.154015
0
VERTEX
8
1
10
12.740189
20
10.401165
42
-0.181770
0
VERTEX
8
1
10
12.811811
20
10.436182
42
-0.384372
0
VERTEX
8
1
10
12.856511
20
10.389426
0
VERTEX
8
1
10
12.859772
20
10.369520
42
-0.096143
0
VERTEX
8
1
10
12.856229
20
10.229770
42
0.006240
0
VERTEX
8
1
10
12.826606
20
10.155902
42
0.111487
0
VERTEX
8
1
10
12.827677
20
10.103041
42
-0.209582
0
VERTEX
8
1
10
12.801484
20
10.053701
42
0.182460
0
VERTEX
8
1
10
12.748436
20
9.893829
42
0.317834
0
VERTEX
8
1
10
12.754646
20
9.762883
42
-0.067922
0
VERTEX
8
1
10
12.774986
20
9.707108
42
0.083592
0
VERTEX
8
1
10
12.848022
20
9.816119
42
-0.030189
0
VERTEX
8
1
10
12.956262
20
9.992969
42
-0.056070
0
VERTEX
8
1
10
13.007782
20
10.041718
42
-0.064631
0
VERTEX
8
1
10
13.133723
20
10.202139
42
0.013872
0
VERTEX
8
1
10
13.262001
20
10.357368
0
VERTEX
8
1
10
13.272265
20
10.379848
42
-0.125888
0
VERTEX
8
1
10
13.337459
20
10.461451
42
0.128691
0
VERTEX
8
1
10
13.370660
20
10.520853
42
-0.148192
0
VERTEX
8
1
10
13.436424
20
10.601710
42
0.111607
0
VERTEX
8
1
10
13.501556
20
10.681240
42
-0.017571
0
VERTEX
8
1
10
13.638954
20
10.819023
42
0.069937
0
VERTEX
8
1
10
13.721669
20
11.025810
42
-0.076270
0
VERTEX
8
1
10
13.811028
20
11.183044
42
-0.306901
0
VERTEX
8
1
10
13.876755
20
11.223606
0
VERTEX
8
1
10
13.893440
20
11.225258
42
-0.355564
0
VERTEX
8
1
10
13.933861
20
11.206947
42
-0.104922
0
VERTEX
8
1
10
13.936157
20
11.060226
42
0.220588
0
VERTEX
8
1
10
13.922832
20
10.980757
42
-0.180997
0
VERTEX
8
1
10
13.890511
20
10.906731
42
-0.013927
0
VERTEX
8
1
10
13.777810
20
10.643238
0
VERTEX
8
1
10
13.762680
20
10.604763
42
0.150682
0
VERTEX
8
1
10
13.731422
20
10.498234
0
VERTEX
8
1
10
13.729004
20
10.485840
42
-0.078448
0
VERTEX
8
1
10
13.677856
20
10.409660
0
VERTEX
8
1
10
13.671562
20
10.398029
0
VERTEX
8
1
10
13.663544
20
10.371393
42
-0.124586
0
VERTEX
8
1
10
13.598747
20
10.267723
42
0.151601
0
VERTEX
8
1
10
13.553882
20
10.148007
42
-0.171718
0
VERTEX
8
1
10
13.513084
20
10.088501
42
0.079893
0
VERTEX
8
1
10
13.430754
20
9.945741
42
-0.040340
0
VERTEX
8
1
10
13.373245
20
9.853413
42
0.019451
0
VERTEX
8
1
10
13.331940
20
9.730145
0
VERTEX
8
1
10
13.324867
20
9.719006
42
0.155988
0
VERTEX
8
1
10
13.269327
20
9.615416
42
0.251728
0
VERTEX
8
1
10
13.281693
20
9.343632
42
-0.240589
0
VERTEX
8
1
10
13.323166
20
9.227033
42
0.139088
0
VERTEX
8
1
10
13.364493
20
9.098577
42
-0.076377
0
VERTEX
8
1
10
13.413399
20
8.940777
42
0.421178
0
VERTEX
8
1
10
13.467339
20
8.900902
0
VERTEX
8
1
10
13.482224
20
8.900791
42
0.375428
0
VERTEX
8
1
10
13.580910
20
8.878853
42
-0.048110
0
VERTEX
8
1
10
13.717285
20
8.944321
42
-0.146754
0
VERTEX
8
1
10
13.777535
20
9.058123
42
0.041778
0
VERTEX
8
1
10
13.829803
20
9.138435
42
-0.171087
0
VERTEX
8
1
10
13.833405
20
9.171669
42
0.230471
0
VERTEX
8
1
10
13.863309
20
9.212447
42
-0.099019
0
VERTEX
8
1
10
13.931932
20
9.286489
42
-0.162227
0
VERTEX
8
1
10
14.008759
20
9.343884
42
0.184058
0
VERTEX
8
1
10
14.072159
20
9.428112
42
0.074536
0
VERTEX
8
1
10
14.113831
20
9.471077
42
-0.069409
0
VERTEX
8
1
10
14.160454
20
9.599136
0
VERTEX
8
1
10
14.166344
20
9.615997
42
-0.084348
0
VERTEX
8
1
10
14.215405
20
9.760731
42
0.089651
0
VERTEX
8
1
10
14.236629
20
9.862705
42
-0.110216
0
VERTEX
8
1
10
14.277451
20
9.985645
42
-0.034604
0
VERTEX
8
1
10
14.477405
20
10.237948
42
0.084480
0
VERTEX
8
1
10
14.514389
20
10.309258
42
0.090007
0
VERTEX
8
1
10
14.560081
20
10.398785
42
-0.130789
0
VERTEX
8
1
10
14.575226
20
10.479908
42
0.249975
0
VERTEX
8
1
10
14.556841
20
10.570518
42
-0.210616
0
VERTEX
8
1
10
14.553440
20
10.662415
42
0.103981
0
VERTEX
8
1
10
14.558365
20
10.745895
42
-0.159148
0
VERTEX
8
1
10
14.542065
20
10.903706
42
0.099058
0
VERTEX
8
1
10
14.525264
20
11.008344
42
-0.233932
0
VERTEX
8
1
10
14.555679
20
11.080070
42
0.383781
0
VERTEX
8
1
10
14.567142
20
11.173326
42
-0.270955
0
VERTEX
8
1
10
14.572082
20
11.237551
42
-0.025325
0
VERTEX
8
1
10
14.607635
20
11.305542
42
-0.087132
0
VERTEX
8
1
10
14.670172
20
11.452269
42
0.112754
0
VERTEX
8
1
10
14.709167
20
11.615322
0
VERTEX
8
1
10
14.713409
20
11.630379
42
0.155911
0
VERTEX
8
1
10
14.740674
20
11.743338
0
VERTEX
8
1
10
14.742835
20
11.755943
42
0.047303
0
VERTEX
8
1
10
14.771174
20
11.842948
0
VERTEX
8
1
10
14.781269
20
11.874404
0
VERTEX
8
1
10
14.791824
20
11.905708
0
VERTEX
8
1
10
14.794205
20
11.921955
42
-0.230253
0
VERTEX
8
1
10
14.839330
20
12.021877
42
0.266279
0
VERTEX
8
1
10
14.871712
20
12.150631
42
-0.139678
0
VERTEX
8
1
10
14.924828
20
12.402023
42
-0.010777
0
VERTEX
8
1
10
15.045906
20
12.554913
42
-0.027168
0
VERTEX
8
1
10
15.168008
20
12.756255
42
0.089174
0
VERTEX
8
1
10
15.206787
20
12.869442
0
VERTEX
8
1
10
15.212250
20
12.885357
42
-0.047616
0
VERTEX
8
1
10
15.373756
20
13.141514
42
0.243698
0
VERTEX
8
1
10
15.416089
20
13.216453
42
-0.159433
0
VERTEX
8
1
10
15.462677
20
13.276256
42
0.001973
0
VERTEX
8
1
10
15.562280
20
13.444244
0
VERTEX
8
1
10
15.547035
20
13.451881
0
VERTEX
8
1
10
15.525406
20
13.449318
0
VERTEX
8
1
10
15.502808
20
13.440422
42
0.080052
0
VERTEX
8
1
10
15.325905
20
13.293701
42
-0.009097
0
VERTEX
8
1
10
15.234138
20
13.200661
0
VERTEX
8
1
10
15.225052
20
13.194664
42
0.200750
0
VERTEX
8
1
10
15.158020
20
13.137051
42
-0.205822
0
VERTEX
8
1
10
15.092384
20
13.073597
42
0.153101
0
VERTEX
8
1
10
15.040909
20
13.008095
42
0.068923
0
VERTEX
8
1
10
14.963562
20
12.913540
0
VERTEX
8
1
10
14.955406
20
12.905907
42
0.076239
0
VERTEX
8
1
10
14.780079
20
12.760705
42
-0.039565
0
VERTEX
8
1
10
14.692101
20
12.691273
0
VERTEX
8
1
10
14.672768
20
12.703209
0
VERTEX
8
1
10
14.653656
20
12.713882
42
-0.264526
0
VERTEX
8
1
10
14.573999
20
12.822326
0
VERTEX
8
1
10
14.567906
20
12.849144
42
-0.026472
0
VERTEX
8
1
10
14.556871
20
12.958478
42
-0.264992
0
VERTEX
8
1
10
14.585866
20
13.010941
42
0.215467
0
VERTEX
8
1
10
14.603027
20
13.071022
42
-0.036606
0
VERTEX
8
1
10
14.599342
20
13.218337
42
0.387691
0
VERTEX
8
1
10
14.554260
20
13.254631
0
VERTEX
8
1
10
14.549294
20
13.249336
42
-0.063283
0
VERTEX
8
1
10
14.519577
20
13.150642
42
0.104683
0
VERTEX
8
1
10
14.468819
20
13.077686
42
0.062713
0
VERTEX
8
1
10
14.358879
20
12.944958
42
-0.260776
0
VERTEX
8
1
10
14.305651
20
12.858262
42
0.017657
0
VERTEX
8
1
10
14.210487
20
12.761852
0
VERTEX
8
1
10
14.191788
20
12.748852
42
-0.168470
0
VERTEX
8
1
10
14.073647
20
12.743755
42
-0.226571
0
VERTEX
8
1
10
14.084438
20
12.859019
42
0.057027
0
VERTEX
8
1
10
14.123809
20
12.957027
42
0.474139
0
VERTEX
8
1
10
14.074417
20
12.993584
42
0.224738
0
VERTEX
8
1
10
14.046044
20
12.934834
42
-0.229950
0
VERTEX
8
1
10
13.985920
20
12.864865
42
0.098489
0
VERTEX
8
1
10
13.901958
20
12.773511
42
-0.084018
0
VERTEX
8
1
10
13.855049
20
12.734718
0
VERTEX
8
1
10
13.842583
20
12.733696
42
-0.144728
0
VERTEX
8
1
10
13.755524
20
12.906471
42
0.222705
0
VERTEX
8
1
10
13.742821
20
12.966927
42
0.237225
0
VERTEX
8
1
10
13.748075
20
13.061591
42
-0.050604
0
SEQEND
0
POLYLINE
8
1
66
1
70
1
0
VERTEX
8
1
10
15.695363
20
1.816223
42
-0.175576
0
VERTEX
8
1
10
15.650697
20
1.850001
0
VERTEX
8
1
10
15.620495
20
1.880824
42
0.045908
0
VERTEX
8
1
10
15.473443
20
2.009220
42
-0.070490
0
VERTEX
8
1
10
15.375072
20
2.114081
42
-0.104116
0
VERTEX
8
1
10
15.361338
20
2.152550
42
-0.355151
0
VERTEX
8
1
10
15.376526
20
2.163055
42
-0.163838
0
VERTEX
8
1
10
15.478481
20
2.145758
42
0.108091
0
VERTEX
8
1
10
15.582291
20
2.128403
0
VERTEX
8
1
10
15.625100
20
2.118376
0
VERTEX
8
1
10
15.668168
20
2.109527
42
-0.009618
0
VERTEX
8
1
10
15.852226
20
2.074478
42
0.175503
0
VERTEX
8
1
10
15.908669
20
2.065407
42
0.429912
0
VERTEX
8
1
10
15.906906
20
2.103737
42
-0.150430
0
VERTEX
8
1
10
15.870004
20
2.189288
42
-0.409092
0
VERTEX
8
1
10
15.892876
20
2.200626
42
-0.159719
0
VERTEX
8
1
10
15.960999
20
2.170361
42
0.167368
0
VERTEX
8
1
10
16.021103
20
2.160553
0
VERTEX
8
1
10
16.027916
20
2.159054
42
0.092223
0
VERTEX
8
1
10
16.246994
20
2.084965
42
-0.047453
0
VERTEX
8
1
10
16.424530
20
2.016403
42
0.186071
0
VERTEX
8
1
10
16.493790
20
2.019051
42
-0.075956
0
VERTEX
8
1
10
16.518160
20
2.096085
42
-0.279564
0
VERTEX
8
1
10
16.556374
20
2.108826
42
0.032687
0
VERTEX
8
1
10
16.978699
20
1.934303
42
-0.003797
0
VERTEX
8
1
10
17.090302
20
1.888790
42
-0.055860
0
VERTEX
8
1
10
17.178329
20
1.864840
42
0.480871
0
VERTEX
8
1
10
17.220589
20
1.909218
42
-0.194751
0
VERTEX
8
1
10
17.250977
20
2.022003
0
VERTEX
8
1
10
17.259521
20
2.024647
42
0.028887
0
VERTEX
8
1
10
17.443146
20
1.931700
42
0.445325
0
VERTEX
8
1
10
17.498932
20
1.979904
0
VERTEX
8
1
10
17.502022
20
2.006767
42
-0.551929
0
VERTEX
8
1
10
17.538383
20
2.024292
42
-0.057471
0
VERTEX
8
1
10
17.671555
20
1.933197
42
0.179127
0
VERTEX
8
1
10
17.819183
20
1.940231
42
-0.027308
0
VERTEX
8
1
10
17.864693
20
1.945545
42
0.454498
0
VERTEX
8
1
10
17.867172
20
1.989178
0
VERTEX
8
1
10
17.859306
20
2.002575
42
-0.566800
0
VERTEX
8
1
10
17.870598
20
2.049524
42
-0.243978
0
VERTEX
8
1
10
17.958176
20
2.057823
42
0.103769
0
VERTEX
8
1
10
18.069267
20
2.047314
0
VERTEX
8
1
10
18.076653
20
2.045532
42
0.189222
0
VERTEX
8
1
10
18.169632
20
2.029095
42
0.053132
0
VERTEX
8
1
10
18.296928
20
2.029999
42
-0.163040
0
VERTEX
8
1
10
18.399498
20
2.043949
42
0.480314
0
VERTEX
8
1
10
18.468573
20
2.142273
0
VERTEX
8
1
10
18.464653
20
2.159882
0
VERTEX
8
1
10
18.458733
20
2.176922
42
-0.315766
0
VERTEX
8
1
10
18.522079
20
2.152740
42
0.133536
0
VERTEX
8
1
10
18.608208
20
2.094288
42
-0.312004
0
VERTEX
8
1
10
18.623734
20
2.053181
42
-0.112848
0
VERTEX
8
1
10
18.581657
20
2.044502
0
VERTEX
8
1
10
18.575218
20
2.039368
0
VERTEX
8
1
10
18.580750
20
2.031719
0
VERTEX
8
1
10
18.589508
20
2.026054
42
0.063054
0
VERTEX
8
1
10
18.724823
20
1.995686
42
-0.325958
0
VERTEX
8
1
10
18.782333
20
1.979942
42
0.202832
0
VERTEX
8
1
10
18.844078
20
1.993011
42
-0.128309
0
VERTEX
8
1
10
19.166237
20
1.963520
0
VERTEX
8
1
10
19.188522
20
1.958847
0
VERTEX
8
1
10
19.188278
20
1.955658
42
-0.099467
0
VERTEX
8
1
10
19.124498
20
1.911695
42
0.224473
0
VERTEX
8
1
10
19.066017
20
1.899731
0
VERTEX
8
1
10
19.061134
20
1.900497
0
VERTEX
8
1
10
19.049309
20
1.908813
42
0.098190
0
VERTEX
8
1
10
18.971947
20
1.895889
42
-0.204805
0
VERTEX
8
1
10
18.907494
20
1.909145
42
0.216761
0
VERTEX
8
1
10
18.878067
20
1.900793
42
-0.179054
0
VERTEX
8
1
10
18.825447
20
1.896137
0
VERTEX
8
1
10
18.818794
20
1.895149
42
-0.304083
0
VERTEX
8
1
10
18.722290
20
1.891048
42
0.076893
0
VERTEX
8
1
10
18.631302
20
1.892372
42
-0.114296
0
VERTEX
8
1
10
18.534958
20
1.910992
42
0.008565
0
VERTEX
8
1
10
18.321388
20
1.911736
42
0.032105
0
VERTEX
8
1
10
18.205292
20
1.932281
42
0.026454
0
VERTEX
8
1
10
18.130051
20
1.910469
42
0.340210
0
VERTEX
8
1
10
18.107521
20
1.904724
0
VERTEX
8
1
10
18.114059
20
1.897709
42
-0.047588
0
VERTEX
8
1
10
18.351097
20
1.818481
0
VERTEX
8
1
10
18.370995
20
1.804535
0
VERTEX
8
1
10
18.381485
20
1.789299
0
VERTEX
8
1
10
18.377907
20
1.773296
0
VERTEX
8
1
10
18.363800
20
1.761978
0
VERTEX
8
1
10
18.349747
20
1.758244
42
-0.045975
0
VERTEX
8
1
10
18.211449
20
1.768780
42
0.215385
0
VERTEX
8
1
10
18.085289
20
1.765484
42
-0.081787
0
VERTEX
8
1
10
17.999331
20
1.762122
42
-0.011911
0
VERTEX
8
1
10
17.813522
20
1.762970
42
0.196676
0
VERTEX
8
1
10
17.754822
20
1.784927
42
-0.045932
0
VERTEX
8
1
10
17.564011
20
1.806965
42
0.070711
0
VERTEX
8
1
10
17.417753
20
1.857686
42
0.633660
0
VERTEX
8
1
10
17.409157
20
1.813682
42
0.181706
0
VERTEX
8
1
10
17.459312
20
1.784321
42
-0.119454
0
VERTEX
8
1
10
17.554352
20
1.719669
42
-0.655392
0
VERTEX
8
1
10
17.534592
20
1.695469
0
VERTEX
8
1
10
17.521950
20
1.699009
42
0.056615
0
VERTEX
8
1
10
17.305695
20
1.769325
42
0.126585
0
VERTEX
8
1
10
17.212067
20
1.794727
42
-0.337192
0
VERTEX
8
1
10
17.136734
20
1.782505
42
0.081872
0
VERTEX
8
1
10
17.014053
20
1.817120
0
VERTEX
8
1
10
16.965359
20
1.838112
42
-0.043312
0
VERTEX
8
1
10
16.792236
20
1.929836
42
0.151712
0
VERTEX
8
1
10
16.701950
20
1.946102
42
-0.085917
0
VERTEX
8
1
10
16.628914
20
1.961502
42
-0.079842
0
VERTEX
8
1
10
16.467392
20
1.979614
42
0.063779
0
VERTEX
8
1
10
16.305735
20
1.972918
42
-0.145392
0
VERTEX
8
1
10
16.226791
20
1.993870
42
0.391177
0
VERTEX
8
1
10
16.210632
20
1.982098
42
-0.540172
0
VERTEX
8
1
10
16.178925
20
1.991123
42
0.136667
0
VERTEX
8
1
10
16.073940
20
1.994245
42
0.453554
0
VERTEX
8
1
10
16.073311
20
1.965065
42
-0.038949
0
VERTEX
8
1
10
16.144585
20
1.905140
0
VERTEX
8
1
10
16.128471
20
1.894329
42
-0.057338
0
VERTEX
8
1
10
15.983253
20
1.898758
0
VERTEX
8
1
10
15.947067
20
1.899387
0
VERTEX
8
1
10
15.912079
20
1.895252
0
VERTEX
8
1
10
15.900345
20
1.887230
0
VERTEX
8
1
10
15.902901
20
1.880894
42
0.134777
0
VERTEX
8
1
10
15.971367
20
1.846149
42
0.011166
0
VERTEX
8
1
10
16.124630
20
1.750129
42
-0.174075
0
VERTEX
8
1
10
16.149208
20
1.707283
0
VERTEX
8
1
10
16.145180
20
1.698551
0
VERTEX
8
1
10
16.135361
20
1.696625
0
VERTEX
8
1
10
16.121925
20
1.699234
42
0.132786
0
VERTEX
8
1
10
16.023232
20
1.713394
42
0.080308
0
VERTEX
8
1
10
15.926689
20
1.729855
0
VERTEX
8
1
10
15.911980
20
1.733246
42
0.044379
0
VERTEX
8
1
10
15.714941
20
1.805655
42
0.130340
0
SEQEND
0
ENDSEC
0
EOF
