0
SECTION
2
HEADER
9
$EXTMIN
10
0.862185
20
1.800232
9
$EXTMAX
10
93.993965
20
57.443962
0
ENDSEC
0
SECTION
2
TABLES
0
TABLE
2
LTYPE
70
1
0
LTYPE
2
0
70
0
3
Solid Line
72
65
73
0
40
0.0
0
ENDTAB
0
TABLE
2
LAYER
70
1
0
LAYER
2
1
70
0
62
7
6
0
0
ENDTAB
0
ENDSEC
0
SECTION
2
BLOCKS
0
ENDSEC
0
SECTION
2
ENTITIES
0
POLYLINE
8
1
66
1
70
1
0
VERTEX
8
1
10
85.011208
20
47.981079
42
0.062944
0
VERTEX
8
1
10
85.177170
20
47.534981
42
-0.035146
0
VERTEX
8
1
10
85.296410
20
47.218655
42
-0.100802
0
VERTEX
8
1
10
85.297424
20
47.089355
0
VERTEX
8
1
10
85.297356
20
47.069336
0
VERTEX
8
1
10
85.298622
20
47.049355
42
-0.230990
0
VERTEX
8
1
10
85.261444
20
46.893822
42
-0.012315
0
VERTEX
8
1
10
85.163780
20
46.818573
42
0.152432
0
VERTEX
8
1
10
85.073921
20
46.669640
0
VERTEX
8
1
10
85.074692
20
46.661682
0
VERTEX
8
1
10
85.084114
20
46.650589
42
-0.007086
0
VERTEX
8
1
10
85.364388
20
46.347282
42
-0.038911
0
VERTEX
8
1
10
85.340401
20
45.888397
42
0.112157
0
VERTEX
8
1
10
85.371033
20
45.791618
0
VERTEX
8
1
10
85.378883
20
45.785965
42
-0.083040
0
VERTEX
8
1
10
85.652733
20
45.767334
0
VERTEX
8
1
10
85.684532
20
45.755646
42
-0.311228
0
VERTEX
8
1
10
85.784813
20
45.620087
42
0.005337
0
VERTEX
8
1
10
85.863922
20
45.226761
42
0.027173
0
VERTEX
8
1
10
85.971054
20
44.512459
42
0.042473
0
VERTEX
8
1
10
86.106789
20
44.135849
42
-0.041350
0
VERTEX
8
1
10
86.135872
20
44.031654
0
VERTEX
8
1
10
86.142532
20
44.028999
0
VERTEX
8
1
10
87.068672
20
44.240692
0
VERTEX
8
1
10
87.070778
20
44.253914
0
VERTEX
8
1
10
87.009827
20
46.774151
42
-0.002492
0
VERTEX
8
1
10
87.161324
20
47.101776
42
0.115877
0
VERTEX
8
1
10
87.100731
20
47.192200
42
0.045441
0
VERTEX
8
1
10
86.989304
20
47.293839
0
VERTEX
8
1
10
86.989311
20
47.595673
42
-0.185805
0
VERTEX
8
1
10
87.073463
20
47.723858
42
0.000637
0
VERTEX
8
1
10
87.343430
20
47.950813
42
0.008682
0
VERTEX
8
1
10
87.534744
20
48.223419
0
VERTEX
8
1
10
87.534012
20
48.230202
42
0.088289
0
VERTEX
8
1
10
87.387772
20
48.397476
42
-0.003897
0
VERTEX
8
1
10
87.315971
20
49.221779
0
VERTEX
8
1
10
87.305611
20
49.228371
42
0.004742
0
VERTEX
8
1
10
86.752731
20
49.044785
42
0.004243
0
VERTEX
8
1
10
85.338280
20
48.621544
42
0.020979
0
VERTEX
8
1
10
85.003044
20
48.491898
0
VERTEX
8
1
10
84.955856
20
48.475784
0
VERTEX
8
1
10
84.908089
20
48.461494
0
VERTEX
8
1
10
84.896614
20
48.454308
42
0.005290
0
SEQEND
0
POLYLINE
8
1
66
1
70
1
0
VERTEX
8
1
10
88.972733
20
40.761078
42
0.114078
0
VERTEX
8
1
10
88.973106
20
40.886562
42
0.316930
0
VERTEX
8
1
10
88.938660
20
40.901276
0
VERTEX
8
1
10
88.918457
20
40.895844
42
0.087757
0
VERTEX
8
1
10
88.687050
20
40.710983
42
-0.025446
0
VERTEX
8
1
10
88.549400
20
40.588329
42
-0.120964
0
VERTEX
8
1
10
88.508781
20
40.575157
0
VERTEX
8
1
10
88.497665
20
40.581657
0
VERTEX
8
1
10
88.490120
20
40.596390
42
-0.128224
0
VERTEX
8
1
10
88.524353
20
40.805550
42
0.081779
0
VERTEX
8
1
10
88.542618
20
40.923321
42
0.395463
0
VERTEX
8
1
10
88.502785
20
40.945084
0
VERTEX
8
1
10
88.476768
20
40.939575
0
VERTEX
8
1
10
88.443649
20
40.927292
42
0.044579
0
VERTEX
8
1
10
88.077820
20
40.710716
42
-0.050120
0
VERTEX
8
1
10
87.930779
20
40.638100
42
0.008513
0
VERTEX
8
1
10
87.545662
20
40.446957
42
0.120089
0
VERTEX
8
1
10
87.566399
20
40.469368
42
0.038657
0
VERTEX
8
1
10
87.406311
20
40.372513
42
-0.046858
0
VERTEX
8
1
10
86.879074
20
40.105904
42
-0.278342
0
VERTEX
8
1
10
86.660667
20
40.162598
0
VERTEX
8
1
10
86.656555
20
40.167358
0
VERTEX
8
1
10
86.348236
20
40.179695
42
-0.067458
0
VERTEX
8
1
10
86.195969
20
40.519756
0
VERTEX
8
1
10
86.193497
20
40.539894
42
-0.244627
0
VERTEX
8
1
10
86.242287
20
40.673840
42
0.056359
0
VERTEX
8
1
10
86.339149
20
40.833546
42
0.153709
0
VERTEX
8
1
10
86.340202
20
40.918678
42
-0.017184
0
VERTEX
8
1
10
86.273087
20
41.190617
42
-0.126261
0
VERTEX
8
1
10
86.287582
20
41.290092
42
0.086782
0
VERTEX
8
1
10
86.289055
20
41.344971
42
0.030524
0
VERTEX
8
1
10
86.183716
20
41.887028
42
-0.027357
0
VERTEX
8
1
10
86.107307
20
42.370155
42
-0.017061
0
VERTEX
8
1
10
86.009880
20
43.307434
0
VERTEX
8
1
10
86.008842
20
43.362709
42
0.058507
0
VERTEX
8
1
10
86.009056
20
43.649223
42
-0.023649
0
VERTEX
8
1
10
86.007736
20
43.936668
42
0.178629
0
VERTEX
8
1
10
85.987785
20
44.095764
42
-0.012859
0
VERTEX
8
1
10
85.877777
20
44.377495
42
-0.038396
0
VERTEX
8
1
10
85.752464
20
45.096764
0
VERTEX
8
1
10
85.740082
20
45.209389
42
0.001354
0
VERTEX
8
1
10
85.653709
20
45.631714
0
VERTEX
8
1
10
85.647629
20
45.636459
0
VERTEX
8
1
10
85.638618
20
45.641029
42
0.104118
0
VERTEX
8
1
10
85.369179
20
45.659576
0
VERTEX
8
1
10
85.316475
20
45.653557
42
-0.249813
0
VERTEX
8
1
10
85.224983
20
45.979931
42
0.034400
0
VERTEX
8
1
10
85.239189
20
46.286575
0
VERTEX
8
1
10
85.236382
20
46.302902
42
0.004686
0
VERTEX
8
1
10
84.975586
20
46.584259
42
-0.260629
0
VERTEX
8
1
10
84.963562
20
46.739456
42
-0.168742
0
VERTEX
8
1
10
85.170189
20
46.978317
42
0.228263
0
VERTEX
8
1
10
85.175690
20
47.019600
42
-0.062602
0
VERTEX
8
1
10
85.178253
20
47.164871
42
0.081588
0
VERTEX
8
1
10
85.153549
20
47.258022
42
0.034834
0
VERTEX
8
1
10
85.007790
20
47.601009
42
-0.049947
0
VERTEX
8
1
10
84.886642
20
47.963528
42
-0.004966
0
VERTEX
8
1
10
84.782349
20
48.393703
0
VERTEX
8
1
10
84.771202
20
48.429771
42
0.034468
0
VERTEX
8
1
10
84.409233
20
48.351852
42
0.061563
0
VERTEX
8
1
10
84.098061
20
48.191402
42
-0.029463
0
VERTEX
8
1
10
83.814293
20
48.040676
42
-0.085954
0
VERTEX
8
1
10
83.633636
20
48.005692
0
VERTEX
8
1
10
83.589859
20
48.011551
42
0.094060
0
VERTEX
8
1
10
83.362030
20
48.030952
42
0.025853
0
VERTEX
8
1
10
82.688896
20
47.934334
42
-0.075451
0
VERTEX
8
1
10
82.602135
20
47.933113
0
VERTEX
8
1
10
82.578995
20
47.920197
0
VERTEX
8
1
10
82.545486
20
47.894524
42
0.054079
0
VERTEX
8
1
10
81.929993
20
47.202087
42
0.055259
0
VERTEX
8
1
10
81.814171
20
46.982998
42
-0.032007
0
VERTEX
8
1
10
81.414978
20
46.250572
42
-0.045028
0
VERTEX
8
1
10
81.200935
20
45.990524
42
0.045378
0
VERTEX
8
1
10
80.914650
20
45.630653
42
0.104322
0
VERTEX
8
1
10
80.875183
20
45.510231
0
VERTEX
8
1
10
80.878731
20
45.489220
42
0.190864
0
VERTEX
8
1
10
80.983063
20
45.391869
42
0.056090
0
VERTEX
8
1
10
81.139626
20
45.336243
42
-0.068508
0
VERTEX
8
1
10
81.265388
20
45.185417
42
-0.082793
0
VERTEX
8
1
10
81.297867
20
44.985649
42
0.060200
0
VERTEX
8
1
10
81.319756
20
44.874496
42
0.094661
0
VERTEX
8
1
10
81.418480
20
44.758610
42
-0.311628
0
VERTEX
8
1
10
81.422043
20
44.673119
42
-0.135571
0
VERTEX
8
1
10
81.247963
20
44.447731
42
0.068226
0
VERTEX
8
1
10
80.717018
20
44.064861
42
0.078299
0
VERTEX
8
1
10
80.639122
20
43.944916
42
-0.035283
0
VERTEX
8
1
10
80.417084
20
43.586304
42
0.050065
0
VERTEX
8
1
10
79.904915
20
43.627869
42
0.100366
0
VERTEX
8
1
10
79.801315
20
43.595612
0
VERTEX
8
1
10
79.786453
20
43.577744
42
-0.049475
0
VERTEX
8
1
10
79.655350
20
43.402458
42
-0.246477
0
VERTEX
8
1
10
79.511635
20
43.368004
0
VERTEX
8
1
10
79.477432
20
43.373749
42
-0.024829
0
VERTEX
8
1
10
78.912750
20
43.530418
42
0.101480
0
VERTEX
8
1
10
78.435204
20
43.559639
42
0.076058
0
VERTEX
8
1
10
78.219810
20
43.484081
42
-0.050055
0
VERTEX
8
1
10
77.617714
20
43.292168
42
0.056727
0
VERTEX
8
1
10
77.361885
20
43.192978
42
0.226703
0
VERTEX
8
1
10
77.292648
20
43.085930
42
0.151588
0
VERTEX
8
1
10
77.337509
20
42.742683
42
0.065745
0
VERTEX
8
1
10
77.497223
20
42.539864
42
-0.054496
0
VERTEX
8
1
10
77.730377
20
42.214577
42
-0.161749
0
VERTEX
8
1
10
77.731354
20
42.148125
42
-0.019636
0
VERTEX
8
1
10
77.583099
20
41.751755
42
-0.035009
0
VERTEX
8
1
10
77.152802
20
41.312515
0
VERTEX
8
1
10
77.119766
20
41.287727
42
0.072325
0
VERTEX
8
1
10
76.889633
20
41.115417
42
0.013631
0
VERTEX
8
1
10
76.677246
20
40.905228
0
VERTEX
8
1
10
76.682823
20
40.874130
42
-0.011987
0
VERTEX
8
1
10
76.794930
20
40.358620
0
VERTEX
8
1
10
76.827637
20
40.330284
0
VERTEX
8
1
10
77.067329
20
40.377914
42
0.003146
0
VERTEX
8
1
10
82.126503
20
41.485291
0
VERTEX
8
1
10
83.374680
20
41.764267
0
VERTEX
8
1
10
83.944588
20
41.374229
42
0.042253
0
VERTEX
8
1
10
84.067825
20
40.977554
42
0.165387
0
VERTEX
8
1
10
84.162338
20
40.889153
42
0.014622
0
VERTEX
8
1
10
84.418976
20
40.768990
42
0.073332
0
VERTEX
8
1
10
84.682289
20
40.732201
0
VERTEX
8
1
10
84.791954
20
40.731956
0
VERTEX
8
1
10
84.741760
20
40.620743
42
-0.013295
0
VERTEX
8
1
10
85.717903
20
40.235832
42
-0.022794
0
VERTEX
8
1
10
86.098976
20
40.004539
42
-0.098078
0
VERTEX
8
1
10
86.180344
20
39.907768
42
-0.197896
0
VERTEX
8
1
10
86.178101
20
39.811695
42
0.003996
0
VERTEX
8
1
10
86.091881
20
39.534615
42
-0.004531
0
VERTEX
8
1
10
86.074608
20
39.207947
42
0.097644
0
VERTEX
8
1
10
85.930420
20
39.135262
42
-0.067404
0
VERTEX
8
1
10
85.993279
20
39.146446
42
-0.033985
0
VERTEX
8
1
10
86.348557
20
39.114285
42
0.078173
0
VERTEX
8
1
10
86.513817
20
39.125916
42
0.075434
0
VERTEX
8
1
10
86.871666
20
39.227448
0
VERTEX
8
1
10
86.914375
20
39.254967
42
-0.006230
0
VERTEX
8
1
10
87.403816
20
39.501991
42
0.033288
0
VERTEX
8
1
10
87.595551
20
39.622108
42
-0.010016
0
VERTEX
8
1
10
88.678146
20
40.259911
0
VERTEX
8
1
10
88.699478
20
40.278000
42
0.085160
0
VERTEX
8
1
10
88.970497
20
40.702995
42
0.116839
0
VERTEX
8
1
10
88.971481
20
40.745361
0
SEQEND
0
POLYLINE
8
1
66
1
70
1
0
VERTEX
8
1
10
87.438179
20
49.448364
42
-0.052346
0
VERTEX
8
1
10
87.443680
20
49.291828
42
-0.098080
0
VERTEX
8
1
10
87.437126
20
49.285099
42
0.005100
0
VERTEX
8
1
10
87.504486
20
48.490875
0
VERTEX
8
1
10
87.511795
20
48.453934
42
-0.121616
0
VERTEX
8
1
10
87.659332
20
48.250591
42
-0.240196
0
VERTEX
8
1
10
87.632851
20
48.145477
42
-0.002822
0
VERTEX
8
1
10
87.443657
20
47.875053
42
-0.026857
0
VERTEX
8
1
10
87.186485
20
47.659729
42
0.038436
0
VERTEX
8
1
10
87.114304
20
47.585358
0
VERTEX
8
1
10
87.114304
20
47.353210
42
-0.110505
0
VERTEX
8
1
10
87.276428
20
47.152851
42
-0.181139
0
VERTEX
8
1
10
87.277504
20
47.052650
42
0.007786
0
VERTEX
8
1
10
87.135506
20
46.746910
0
VERTEX
8
1
10
87.195427
20
44.270050
0
VERTEX
8
1
10
87.208374
20
44.272629
0
VERTEX
8
1
10
88.952110
20
44.671188
0
VERTEX
8
1
10
88.960579
20
44.676712
42
-0.012480
0
VERTEX
8
1
10
89.625114
20
45.374687
42
-0.144581
0
VERTEX
8
1
10
89.723030
20
45.516659
42
0.011844
0
VERTEX
8
1
10
89.760086
20
45.555695
0
VERTEX
8
1
10
89.082436
20
46.162003
0
VERTEX
8
1
10
88.992928
20
46.385937
42
-0.007995
0
VERTEX
8
1
10
87.810310
20
49.865196
0
VERTEX
8
1
10
87.799706
20
49.900307
42
0.091988
0
VERTEX
8
1
10
87.756401
20
49.871292
0
VERTEX
8
1
10
87.742363
20
49.864204
42
-0.033273
0
VERTEX
8
1
10
87.524757
20
49.835869
42
0.130345
0
VERTEX
8
1
10
87.444603
20
49.793800
0
VERTEX
8
1
10
87.435158
20
49.778130
0
VERTEX
8
1
10
87.429642
20
49.759285
42
0.057971
0
SEQEND
0
POLYLINE
8
1
66
1
70
1
0
VERTEX
8
1
10
93.865044
20
50.323952
42
0.058021
0
VERTEX
8
1
10
93.986412
20
50.536049
42
0.261480
0
VERTEX
8
1
10
93.958160
20
50.680885
42
0.065127
0
VERTEX
8
1
10
93.526428
20
51.162571
42
0.052430
0
VERTEX
8
1
10
93.452965
20
51.206818
0
VERTEX
8
1
10
93.430618
20
51.211235
42
0.215572
0
VERTEX
8
1
10
93.313988
20
51.131813
42
-0.102343
0
VERTEX
8
1
10
93.239037
20
51.077881
42
-0.285413
0
VERTEX
8
1
10
93.171288
20
51.106232
42
-0.096008
0
VERTEX
8
1
10
93.042252
20
51.345337
42
0.059992
0
VERTEX
8
1
10
92.999458
20
51.421478
42
-0.135664
0
VERTEX
8
1
10
92.980545
20
51.530632
42
0.032153
0
VERTEX
8
1
10
92.981102
20
51.762932
0
VERTEX
8
1
10
92.974724
20
51.800232
42
0.328410
0
VERTEX
8
1
10
92.827690
20
51.948723
42
0.116378
0
VERTEX
8
1
10
92.533371
20
51.935474
42
-0.071535
0
VERTEX
8
1
10
92.409500
20
51.927391
42
-0.239096
0
VERTEX
8
1
10
92.345749
20
51.979149
42
-0.051192
0
VERTEX
8
1
10
92.180611
20
52.300869
42
-0.020607
0
VERTEX
8
1
10
92.157288
20
52.412804
42
0.008557
0
VERTEX
8
1
10
91.870171
20
53.396210
0
VERTEX
8
1
10
91.658333
20
54.092430
42
0.070324
0
VERTEX
8
1
10
91.411308
20
54.657108
42
0.107445
0
VERTEX
8
1
10
91.295990
20
54.764580
42
0.055059
0
VERTEX
8
1
10
90.661095
20
55.086540
42
0.065049
0
VERTEX
8
1
10
90.546867
20
55.103477
0
VERTEX
8
1
10
90.520531
20
55.097595
42
0.120439
0
VERTEX
8
1
10
90.266449
20
54.910458
42
0.010658
0
VERTEX
8
1
10
90.194389
20
54.831932
42
-0.045000
0
VERTEX
8
1
10
90.015556
20
54.564743
42
-0.117428
0
VERTEX
8
1
10
89.928551
20
54.514114
0
VERTEX
8
1
10
89.904350
20
54.513695
42
-0.132127
0
VERTEX
8
1
10
89.546547
20
54.703033
42
-0.107640
0
VERTEX
8
1
10
89.489235
20
54.799648
42
0.097296
0
VERTEX
8
1
10
89.440659
20
54.871086
42
0.275942
0
VERTEX
8
1
10
89.374031
20
54.862534
42
0.162507
0
VERTEX
8
1
10
89.116531
20
54.552902
42
0.028659
0
VERTEX
8
1
10
88.987923
20
54.181808
42
0.023510
0
VERTEX
8
1
10
88.733444
20
53.258415
42
0.056541
0
VERTEX
8
1
10
88.714699
20
52.957642
42
-0.020629
0
VERTEX
8
1
10
88.709785
20
52.447899
42
-0.166685
0
VERTEX
8
1
10
88.603653
20
52.200638
42
0.061118
0
VERTEX
8
1
10
88.543304
20
52.088501
42
0.186406
0
VERTEX
8
1
10
88.571465
20
51.923187
42
-0.001104
0
VERTEX
8
1
10
88.689522
20
51.716225
42
-0.116983
0
VERTEX
8
1
10
88.714348
20
51.566483
42
-0.061028
0
VERTEX
8
1
10
88.677597
20
51.145012
42
-0.067656
0
VERTEX
8
1
10
88.447197
20
50.749092
42
0.015115
0
VERTEX
8
1
10
88.334267
20
50.629837
42
0.163088
0
VERTEX
8
1
10
88.276901
20
50.452682
42
-0.037172
0
VERTEX
8
1
10
88.256500
20
50.207561
42
-0.237910
0
VERTEX
8
1
10
88.068672
20
49.991661
42
-0.043539
0
VERTEX
8
1
10
87.920937
20
49.938438
0
VERTEX
8
1
10
87.930901
20
49.897110
0
VERTEX
8
1
10
87.953606
20
49.823112
0
VERTEX
8
1
10
88.080666
20
49.429310
42
0.005455
0
VERTEX
8
1
10
88.983391
20
46.786819
0
VERTEX
8
1
10
89.110085
20
46.429520
0
VERTEX
8
1
10
89.187622
20
46.235619
0
VERTEX
8
1
10
89.834671
20
45.656685
0
VERTEX
8
1
10
89.841034
20
45.651192
42
0.165949
0
VERTEX
8
1
10
89.876549
20
45.800079
42
-0.036237
0
VERTEX
8
1
10
89.924400
20
46.094364
42
0.067964
0
VERTEX
8
1
10
89.928673
20
46.293671
42
-0.248188
0
VERTEX
8
1
10
90.075264
20
46.616432
42
0.134586
0
VERTEX
8
1
10
90.183830
20
46.764656
42
0.274795
0
VERTEX
8
1
10
90.156021
20
46.837555
42
-0.025592
0
VERTEX
8
1
10
89.978912
20
46.963921
0
VERTEX
8
1
10
89.966492
20
46.977436
42
-0.476033
0
VERTEX
8
1
10
89.972847
20
47.074577
42
-0.070102
0
VERTEX
8
1
10
90.323204
20
47.267822
0
VERTEX
8
1
10
90.336922
20
47.269310
0
VERTEX
8
1
10
90.352417
20
47.266670
42
-0.057321
0
VERTEX
8
1
10
90.509514
20
47.176586
42
0.161918
0
VERTEX
8
1
10
90.621910
20
47.152641
0
VERTEX
8
1
10
90.640717
20
47.160446
42
0.107129
0
VERTEX
8
1
10
90.745102
20
47.268951
42
0.201302
0
VERTEX
8
1
10
90.704964
20
47.430923
42
-0.060054
0
VERTEX
8
1
10
90.662704
20
47.528728
42
-0.325700
0
VERTEX
8
1
10
90.699791
20
47.596626
42
-0.250536
0
VERTEX
8
1
10
90.935509
20
47.601864
42
0.443314
0
VERTEX
8
1
10
91.027596
20
47.653187
42
0.101313
0
VERTEX
8
1
10
91.042320
20
47.754913
42
-0.314168
0
VERTEX
8
1
10
91.116722
20
47.866333
42
-0.095428
0
VERTEX
8
1
10
91.271347
20
47.916283
42
-0.068624
0
VERTEX
8
1
10
91.482407
20
47.954845
42
0.363110
0
VERTEX
8
1
10
91.503151
20
47.995583
0
VERTEX
8
1
10
91.503128
20
48.012230
42
-0.034755
0
VERTEX
8
1
10
91.481834
20
48.906136
42
-0.048421
0
VERTEX
8
1
10
91.516716
20
49.077553
0
VERTEX
8
1
10
91.535271
20
49.110710
0
VERTEX
8
1
10
91.557961
20
49.126831
42
-0.167228
0
VERTEX
8
1
10
91.693138
20
49.079521
42
-0.162756
0
VERTEX
8
1
10
91.906898
20
48.812759
42
0.283004
0
VERTEX
8
1
10
92.112473
20
48.703960
42
0.406514
0
VERTEX
8
1
10
92.139458
20
48.748093
42
-0.027987
0
VERTEX
8
1
10
92.125420
20
48.915565
42
-0.536296
0
VERTEX
8
1
10
92.175270
20
48.948883
42
-0.064268
0
VERTEX
8
1
10
92.341904
20
48.856819
0
VERTEX
8
1
10
92.357338
20
48.848915
42
0.399450
0
VERTEX
8
1
10
92.465332
20
48.867676
42
0.087623
0
VERTEX
8
1
10
92.601669
20
49.064987
42
-0.136222
0
VERTEX
8
1
10
92.654663
20
49.101402
42
-0.096118
0
VERTEX
8
1
10
92.546295
20
49.173195
42
-0.075851
0
VERTEX
8
1
10
92.343300
20
49.406723
0
VERTEX
8
1
10
92.334648
20
49.428879
42
-0.540460
0
VERTEX
8
1
10
92.356010
20
49.464249
42
-0.219848
0
VERTEX
8
1
10
92.560555
20
49.354515
0
VERTEX
8
1
10
92.587418
20
49.323090
42
0.314937
0
VERTEX
8
1
10
92.731346
20
49.269287
42
0.089923
0
VERTEX
8
1
10
92.917427
20
49.322334
42
-0.123558
0
VERTEX
8
1
10
92.834282
20
49.567883
42
-0.345399
0
VERTEX
8
1
10
92.927246
20
49.682320
42
-0.038294
0
VERTEX
8
1
10
93.293266
20
49.735176
42
0.190766
0
VERTEX
8
1
10
93.486198
20
49.826477
0
VERTEX
8
1
10
93.529465
20
49.868572
42
0.074753
0
VERTEX
8
1
10
93.845413
20
50.293423
0
SEQEND
0
POLYLINE
8
1
66
1
70
1
0
VERTEX
8
1
10
90.221703
20
43.758514
42
0.102621
0
VERTEX
8
1
10
90.053581
20
43.895142
0
VERTEX
8
1
10
90.034050
20
43.901787
42
-0.031911
0
VERTEX
8
1
10
89.835686
20
43.931656
42
-0.340326
0
VERTEX
8
1
10
89.750809
20
44.072689
42
-0.133474
0
VERTEX
8
1
10
89.802994
20
44.235939
42
-0.045512
0
VERTEX
8
1
10
90.014259
20
44.510658
42
0.003773
0
VERTEX
8
1
10
90.123299
20
44.648300
42
-0.013361
0
VERTEX
8
1
10
90.247215
20
44.763634
0
VERTEX
8
1
10
90.257538
20
44.776314
42
0.637165
0
VERTEX
8
1
10
90.242973
20
44.824417
42
0.160459
0
VERTEX
8
1
10
89.968887
20
44.807144
42
-0.033640
0
VERTEX
8
1
10
89.812027
20
44.757759
42
-0.243338
0
VERTEX
8
1
10
89.788757
20
44.771423
42
0.027444
0
VERTEX
8
1
10
89.687782
20
44.828533
42
-0.257967
0
VERTEX
8
1
10
89.638725
20
44.931923
42
0.053940
0
VERTEX
8
1
10
89.628326
20
45.201248
42
0.007523
0
VERTEX
8
1
10
89.022087
20
44.559013
0
VERTEX
8
1
10
86.130066
20
43.897934
42
0.015195
0
VERTEX
8
1
10
86.141724
20
43.473686
42
-0.038011
0
VERTEX
8
1
10
86.132477
20
43.353630
0
VERTEX
8
1
10
86.136261
20
43.258537
42
0.010188
0
VERTEX
8
1
10
86.205994
20
42.584663
42
0.009223
0
VERTEX
8
1
10
87.800858
20
42.910919
0
VERTEX
8
1
10
87.840714
20
42.921680
0
VERTEX
8
1
10
87.880318
20
42.933350
0
VERTEX
8
1
10
87.890427
20
42.953575
0
VERTEX
8
1
10
87.920258
20
42.950752
0
VERTEX
8
1
10
88.652412
20
43.216858
0
VERTEX
8
1
10
88.653305
20
43.216881
42
-0.012168
0
VERTEX
8
1
10
89.141029
20
41.667267
0
VERTEX
8
1
10
89.149147
20
41.635513
0
VERTEX
8
1
10
89.157013
20
41.603691
0
VERTEX
8
1
10
89.173759
20
41.604713
42
0.124466
0
VERTEX
8
1
10
89.404037
20
41.783924
0
VERTEX
8
1
10
89.443115
20
41.829311
42
-0.037656
0
VERTEX
8
1
10
89.598541
20
41.990860
42
0.181994
0
VERTEX
8
1
10
89.614960
20
42.142784
42
-0.105021
0
VERTEX
8
1
10
89.627068
20
42.250511
42
-0.260809
0
VERTEX
8
1
10
89.699036
20
42.293541
42
-0.082029
0
VERTEX
8
1
10
89.958031
20
42.281349
42
0.119908
0
VERTEX
8
1
10
90.053482
20
42.300858
42
0.202937
0
VERTEX
8
1
10
90.782661
20
42.960449
0
VERTEX
8
1
10
90.780785
20
42.986870
0
VERTEX
8
1
10
90.770180
20
43.020386
0
VERTEX
8
1
10
90.751923
20
43.059982
42
0.046490
0
VERTEX
8
1
10
90.403603
20
43.538029
42
-0.000569
0
SEQEND
0
POLYLINE
8
1
66
1
70
1
0
VERTEX
8
1
10
88.882530
20
41.458069
42
0.036845
0
VERTEX
8
1
10
89.045502
20
41.534462
42
0.017817
0
VERTEX
8
1
10
88.871155
20
42.137871
42
0.004438
0
VERTEX
8
1
10
88.575104
20
43.055733
0
VERTEX
8
1
10
88.012505
20
42.851158
0
VERTEX
8
1
10
88.009323
20
42.849739
0
VERTEX
8
1
10
88.052391
20
42.696014
0
VERTEX
8
1
10
88.093765
20
42.541824
42
-0.002567
0
VERTEX
8
1
10
88.388130
20
41.323494
0
VERTEX
8
1
10
88.405312
20
41.322037
42
-0.008997
0
VERTEX
8
1
10
88.681862
20
41.389503
42
0.024837
0
SEQEND
0
POLYLINE
8
1
66
1
70
1
0
VERTEX
8
1
10
87.847252
20
42.794235
0
VERTEX
8
1
10
87.804924
20
42.783798
42
-0.010107
0
VERTEX
8
1
10
86.230621
20
42.462143
0
VERTEX
8
1
10
86.224098
20
42.437347
42
0.036112
0
VERTEX
8
1
10
86.364952
20
41.651375
42
-0.033583
0
VERTEX
8
1
10
86.415085
20
41.313248
42
-0.101072
0
VERTEX
8
1
10
86.397598
20
41.227341
0
VERTEX
8
1
10
86.398743
20
41.201099
42
0.061688
0
VERTEX
8
1
10
86.445854
20
41.018986
42
-0.091170
0
VERTEX
8
1
10
86.467850
20
40.835640
42
-0.126295
0
VERTEX
8
1
10
86.340942
20
40.599934
42
0.030128
0
VERTEX
8
1
10
86.315819
20
40.562485
0
VERTEX
8
1
10
86.321732
20
40.533707
42
0.062616
0
VERTEX
8
1
10
86.406769
20
40.331791
0
VERTEX
8
1
10
86.422882
20
40.301811
0
VERTEX
8
1
10
86.700966
20
40.290688
0
VERTEX
8
1
10
86.705345
20
40.291931
42
-0.046623
0
VERTEX
8
1
10
87.037292
20
40.629868
42
-0.060659
0
VERTEX
8
1
10
87.285553
20
40.776558
42
0.008847
0
VERTEX
8
1
10
87.693260
20
41.003616
42
-0.014082
0
VERTEX
8
1
10
88.013588
20
41.133301
42
0.047224
0
VERTEX
8
1
10
88.270096
20
41.272079
0
VERTEX
8
1
10
88.262833
20
41.310341
42
0.008531
0
VERTEX
8
1
10
87.903503
20
42.767197
0
VERTEX
8
1
10
87.890488
20
42.805870
0
SEQEND
0
POLYLINE
8
1
66
1
70
1
0
VERTEX
8
1
10
85.367195
20
33.567116
42
0.097413
0
VERTEX
8
1
10
85.521759
20
33.762444
0
VERTEX
8
1
10
85.532372
20
33.777031
42
0.174549
0
VERTEX
8
1
10
85.652992
20
34.034588
42
0.124553
0
VERTEX
8
1
10
85.623825
20
34.142365
42
0.044320
0
VERTEX
8
1
10
85.532547
20
34.327553
42
0.371312
0
VERTEX
8
1
10
85.440239
20
34.343727
0
VERTEX
8
1
10
85.416878
20
34.331314
42
-0.199254
0
VERTEX
8
1
10
85.070625
20
34.255272
42
-0.107436
0
VERTEX
8
1
10
84.950073
20
34.327965
0
VERTEX
8
1
10
84.930557
20
34.343117
0
VERTEX
8
1
10
84.923332
20
34.343353
42
-0.284863
0
VERTEX
8
1
10
84.359268
20
34.570557
42
-0.087024
0
VERTEX
8
1
10
84.266365
20
34.738197
42
-0.008185
0
VERTEX
8
1
10
83.985748
20
35.816628
42
0.026564
0
VERTEX
8
1
10
83.925774
20
36.074265
42
0.002309
0
VERTEX
8
1
10
83.775681
20
36.652252
0
VERTEX
8
1
10
83.753555
20
36.686264
0
VERTEX
8
1
10
83.723145
20
36.676117
42
-0.021407
0
VERTEX
8
1
10
83.010223
20
36.502689
42
-0.007212
0
VERTEX
8
1
10
79.615814
20
35.843826
42
-0.000967
0
VERTEX
8
1
10
78.324905
20
35.608322
0
VERTEX
8
1
10
78.225121
20
35.582138
42
0.044742
0
VERTEX
8
1
10
78.312401
20
34.671455
0
VERTEX
8
1
10
78.321518
20
34.638947
0
VERTEX
8
1
10
78.328156
20
34.632759
42
0.102599
0
VERTEX
8
1
10
78.476120
20
34.685013
0
VERTEX
8
1
10
78.617867
20
35.166939
42
-0.047018
0
VERTEX
8
1
10
79.066170
20
35.234306
42
0.186645
0
VERTEX
8
1
10
79.109535
20
35.294750
42
0.089243
0
VERTEX
8
1
10
79.159752
20
35.497704
0
VERTEX
8
1
10
79.166473
20
35.575638
42
0.035449
0
VERTEX
8
1
10
79.473541
20
35.537613
0
VERTEX
8
1
10
79.834053
20
35.537621
0
VERTEX
8
1
10
79.838234
20
35.538490
42
0.109971
0
VERTEX
8
1
10
79.906235
20
35.625183
42
-0.091600
0
VERTEX
8
1
10
80.066124
20
35.838081
42
-0.239000
0
VERTEX
8
1
10
80.404495
20
35.867962
42
-0.063357
0
VERTEX
8
1
10
80.663666
20
35.749405
0
VERTEX
8
1
10
80.695374
20
35.724777
42
-0.073767
0
VERTEX
8
1
10
80.980721
20
35.370956
0
VERTEX
8
1
10
81.314560
20
35.370956
0
VERTEX
8
1
10
81.314972
20
35.370705
42
-0.045795
0
VERTEX
8
1
10
81.523193
20
34.923286
42
0.283013
0
VERTEX
8
1
10
81.584747
20
34.896454
42
-0.148480
0
VERTEX
8
1
10
82.042480
20
34.756687
42
-0.099360
0
VERTEX
8
1
10
82.189751
20
34.587326
0
VERTEX
8
1
10
82.225090
20
34.527985
42
-0.181244
0
VERTEX
8
1
10
82.212997
20
34.302208
42
-0.075301
0
VERTEX
8
1
10
82.057587
20
34.008152
42
0.026218
0
VERTEX
8
1
10
81.968575
20
33.852386
42
0.287385
0
VERTEX
8
1
10
81.994675
20
33.764793
0
VERTEX
8
1
10
82.007027
20
33.751091
42
0.014603
0
VERTEX
8
1
10
82.193390
20
33.596424
42
-0.029222
0
VERTEX
8
1
10
82.216415
20
33.570328
42
0.091017
0
VERTEX
8
1
10
82.355377
20
33.596230
42
-0.047372
0
VERTEX
8
1
10
82.671936
20
33.675758
42
-0.110225
0
VERTEX
8
1
10
82.849144
20
33.644661
42
-0.082307
0
VERTEX
8
1
10
83.368866
20
33.339943
42
0.080023
0
VERTEX
8
1
10
83.633667
20
33.287399
42
-0.085548
0
VERTEX
8
1
10
83.641121
20
33.669422
42
0.129508
0
VERTEX
8
1
10
83.622177
20
33.814873
42
0.124642
0
VERTEX
8
1
10
83.547188
20
33.896091
42
0.043229
0
VERTEX
8
1
10
83.344002
20
34.032730
42
-0.102381
0
VERTEX
8
1
10
83.177071
20
34.202461
42
-0.086315
0
VERTEX
8
1
10
83.021965
20
34.491093
42
-0.147272
0
VERTEX
8
1
10
83.029892
20
34.682964
42
0.057844
0
VERTEX
8
1
10
83.057800
20
34.908443
42
0.220009
0
VERTEX
8
1
10
83.000969
20
35.000423
42
-0.197061
0
VERTEX
8
1
10
82.952965
20
35.124477
42
-0.072117
0
VERTEX
8
1
10
82.960571
20
35.338707
42
0.058667
0
VERTEX
8
1
10
82.932297
20
35.497501
42
-0.241377
0
VERTEX
8
1
10
82.980865
20
35.642372
42
0.022143
0
VERTEX
8
1
10
83.178024
20
35.876728
42
0.051157
0
VERTEX
8
1
10
83.236137
20
35.989014
42
-0.074274
0
VERTEX
8
1
10
83.317467
20
36.094627
42
-0.023479
0
VERTEX
8
1
10
83.508385
20
36.281616
42
-0.024210
0
VERTEX
8
1
10
83.542534
20
36.322899
42
-0.315520
0
VERTEX
8
1
10
83.705551
20
36.282700
42
-0.271723
0
VERTEX
8
1
10
83.708191
20
36.223007
0
VERTEX
8
1
10
83.697701
20
36.201859
42
0.001573
0
VERTEX
8
1
10
83.517227
20
35.928513
42
0.057032
0
VERTEX
8
1
10
83.466164
20
35.801544
42
-0.132226
0
VERTEX
8
1
10
83.359558
20
35.667160
42
0.104824
0
VERTEX
8
1
10
83.294228
20
35.580830
42
0.246714
0
VERTEX
8
1
10
83.310211
20
35.511101
0
VERTEX
8
1
10
83.330421
20
35.490250
0
VERTEX
8
1
10
83.356911
20
35.472008
42
0.017319
0
VERTEX
8
1
10
83.564995
20
35.385578
42
-0.164622
0
VERTEX
8
1
10
83.599129
20
35.347572
0
VERTEX
8
1
10
83.595413
20
35.329514
0
VERTEX
8
1
10
83.579369
20
35.308876
0
VERTEX
8
1
10
83.549301
20
35.285194
42
-0.028297
0
VERTEX
8
1
10
83.286072
20
35.142719
42
0.117104
0
VERTEX
8
1
10
83.233818
20
35.093109
42
0.307857
0
VERTEX
8
1
10
83.251701
20
35.029602
0
VERTEX
8
1
10
83.287910
20
34.987732
0
VERTEX
8
1
10
83.299568
20
35.019989
42
0.040755
0
VERTEX
8
1
10
83.407524
20
34.792152
0
VERTEX
8
1
10
83.356209
20
34.810509
42
-0.129594
0
VERTEX
8
1
10
83.424088
20
34.665276
0
VERTEX
8
1
10
83.422798
20
34.655666
42
0.238654
0
VERTEX
8
1
10
83.424278
20
34.550262
42
0.055943
0
VERTEX
8
1
10
83.609802
20
34.248802
42
-0.045874
0
VERTEX
8
1
10
83.720070
20
33.967995
42
0.047564
0
VERTEX
8
1
10
83.760521
20
33.886734
0
VERTEX
8
1
10
83.765121
20
33.870361
0
VERTEX
8
1
10
83.768608
20
33.851822
0
VERTEX
8
1
10
83.774940
20
33.809494
42
0.253773
0
VERTEX
8
1
10
83.930618
20
33.586639
42
0.032151
0
VERTEX
8
1
10
84.638718
20
33.243324
42
0.005173
0
VERTEX
8
1
10
84.734535
20
33.211090
42
-0.301537
0
VERTEX
8
1
10
84.881828
20
32.926544
42
0.017529
0
VERTEX
8
1
10
84.812363
20
32.646744
42
-0.122880
0
VERTEX
8
1
10
84.693565
20
32.451923
42
0.083075
0
VERTEX
8
1
10
84.523636
20
32.156105
0
VERTEX
8
1
10
84.517487
20
32.131210
42
0.038555
0
VERTEX
8
1
10
84.502022
20
31.704773
42
0.156400
0
VERTEX
8
1
10
84.644424
20
31.439041
42
0.284776
0
VERTEX
8
1
10
84.683052
20
31.437317
42
0.131095
0
VERTEX
8
1
10
84.815750
20
31.488894
42
0.224008
0
VERTEX
8
1
10
84.851074
20
31.581444
42
0.040016
0
VERTEX
8
1
10
84.803543
20
31.797661
42
-0.208614
0
VERTEX
8
1
10
84.851120
20
32.054977
42
-0.014169
0
VERTEX
8
1
10
85.031570
20
32.312309
42
0.090129
0
VERTEX
8
1
10
85.107338
20
32.493202
42
-0.003059
0
VERTEX
8
1
10
85.147270
20
32.597931
42
0.103649
0
VERTEX
8
1
10
85.114433
20
32.967865
42
-0.194999
0
VERTEX
8
1
10
85.159019
20
33.179146
42
0.149390
0
VERTEX
8
1
10
85.201729
20
33.343781
42
-0.154696
0
VERTEX
8
1
10
85.249977
20
33.441719
42
-0.024716
0
SEQEND
0
POLYLINE
8
1
66
1
70
1
0
VERTEX
8
1
10
63.628094
20
14.096962
42
-0.071229
0
VERTEX
8
1
10
63.747143
20
13.961716
42
-0.065689
0
VERTEX
8
1
10
63.766254
20
13.825721
0
VERTEX
8
1
10
63.766705
20
13.812416
0
VERTEX
8
1
10
63.773006
20
13.812149
42
0.064425
0
VERTEX
8
1
10
63.985424
20
13.917076
42
0.013985
0
VERTEX
8
1
10
64.648811
20
14.305526
42
-0.229031
0
VERTEX
8
1
10
64.958977
20
14.385059
42
-0.144279
0
VERTEX
8
1
10
65.380836
20
14.183937
0
VERTEX
8
1
10
65.388985
20
14.180809
0
VERTEX
8
1
10
65.399681
20
14.180061
42
0.092618
0
VERTEX
8
1
10
65.599983
20
14.262423
42
-0.009091
0
VERTEX
8
1
10
65.671310
20
14.299133
0
VERTEX
8
1
10
65.672203
20
14.339958
0
VERTEX
8
1
10
65.669037
20
14.405029
42
0.015362
0
VERTEX
8
1
10
65.467224
20
15.965531
42
-0.005069
0
VERTEX
8
1
10
65.331360
20
16.947763
0
VERTEX
8
1
10
65.328850
20
16.982244
0
VERTEX
8
1
10
65.327232
20
17.016743
42
-0.003391
0
VERTEX
8
1
10
65.406937
20
22.855415
0
VERTEX
8
1
10
65.417839
20
23.224167
0
VERTEX
8
1
10
65.428978
20
23.479942
0
VERTEX
8
1
10
65.439499
20
23.598534
42
0.398058
0
VERTEX
8
1
10
65.311287
20
23.825907
42
0.087764
0
VERTEX
8
1
10
65.180595
20
23.856270
0
VERTEX
8
1
10
61.887394
20
23.694313
0
VERTEX
8
1
10
61.866474
20
23.688988
42
-0.087131
0
VERTEX
8
1
10
61.789974
20
23.323418
42
-0.409417
0
VERTEX
8
1
10
61.624607
20
23.251511
42
0.520153
0
VERTEX
8
1
10
61.454014
20
23.147934
42
0.074365
0
VERTEX
8
1
10
61.455784
20
23.010872
42
-0.053629
0
VERTEX
8
1
10
61.447330
20
22.527870
42
-0.306197
0
VERTEX
8
1
10
61.259434
20
22.333176
0
VERTEX
8
1
10
61.248035
20
22.328102
42
0.040867
0
VERTEX
8
1
10
60.968071
20
22.003944
42
-0.353252
0
VERTEX
8
1
10
60.782177
20
21.597557
42
0.239048
0
VERTEX
8
1
10
60.655937
20
21.433044
42
0.199419
0
VERTEX
8
1
10
60.709293
20
21.291931
42
-0.046525
0
VERTEX
8
1
10
60.530102
20
20.865555
42
-0.019869
0
VERTEX
8
1
10
60.382748
20
20.640602
0
VERTEX
8
1
10
60.382957
20
20.630638
42
0.042409
0
VERTEX
8
1
10
60.590427
20
20.318680
42
-0.333314
0
VERTEX
8
1
10
60.591713
20
20.150307
42
0.125555
0
VERTEX
8
1
10
60.552956
20
20.017288
42
-0.066167
0
VERTEX
8
1
10
60.510418
20
19.747400
0
VERTEX
8
1
10
60.497295
20
19.708847
42
0.104660
0
VERTEX
8
1
10
60.497883
20
19.422253
42
-0.013236
0
VERTEX
8
1
10
60.506752
20
19.336647
42
-0.081262
0
VERTEX
8
1
10
60.689186
20
19.079613
42
-0.146431
0
VERTEX
8
1
10
60.696823
20
18.871422
42
0.096970
0
VERTEX
8
1
10
60.675583
20
18.581627
42
0.515946
0
VERTEX
8
1
10
60.708752
20
18.568138
42
0.087856
0
VERTEX
8
1
10
60.793129
20
18.606102
0
VERTEX
8
1
10
60.913807
20
18.692184
42
-0.025173
0
VERTEX
8
1
10
60.841053
20
18.212616
42
-0.060374
0
VERTEX
8
1
10
61.017670
20
18.113863
42
-0.209780
0
VERTEX
8
1
10
61.129047
20
17.877663
42
-0.276722
0
VERTEX
8
1
10
61.005100
20
17.709551
42
-0.083134
0
VERTEX
8
1
10
60.830391
20
17.648926
0
VERTEX
8
1
10
60.881248
20
17.572632
42
-0.374139
0
VERTEX
8
1
10
60.869259
20
17.346893
42
-0.072684
0
VERTEX
8
1
10
60.748501
20
17.244919
0
VERTEX
8
1
10
60.673954
20
17.196838
42
0.143024
0
VERTEX
8
1
10
60.500385
20
17.033218
0
VERTEX
8
1
10
60.476864
20
16.994209
0
VERTEX
8
1
10
60.455357
20
16.954056
42
0.013696
0
VERTEX
8
1
10
60.137459
20
16.412092
0
VERTEX
8
1
10
60.127110
20
16.389832
0
VERTEX
8
1
10
60.128361
20
16.386932
42
-0.453141
0
VERTEX
8
1
10
60.202759
20
16.278618
42
-0.065016
0
VERTEX
8
1
10
60.021568
20
15.734924
0
VERTEX
8
1
10
60.014721
20
15.709801
42
0.077749
0
VERTEX
8
1
10
60.024384
20
15.339087
42
0.013145
0
VERTEX
8
1
10
60.047504
20
15.197250
0
VERTEX
8
1
10
60.114887
20
15.187252
42
-0.007613
0
VERTEX
8
1
10
62.760334
20
15.395692
42
-0.015826
0
VERTEX
8
1
10
63.218739
20
15.402817
0
VERTEX
8
1
10
63.268177
20
15.396348
42
-0.452270
0
VERTEX
8
1
10
63.404285
20
15.179343
42
-0.076978
0
VERTEX
8
1
10
63.332249
20
14.971603
42
0.040468
0
VERTEX
8
1
10
63.201694
20
14.662641
42
0.186679
0
VERTEX
8
1
10
63.220791
20
14.551918
0
VERTEX
8
1
10
63.238895
20
14.518204
42
0.062791
0
VERTEX
8
1
10
63.518185
20
14.201012
0
SEQEND
0
POLYLINE
8
1
66
1
70
1
0
VERTEX
8
1
10
62.787304
20
26.704269
42
-0.317756
0
VERTEX
8
1
10
62.861675
20
26.934372
0
VERTEX
8
1
10
62.884548
20
26.953072
42
0.004497
0
VERTEX
8
1
10
63.256847
20
27.211067
0
VERTEX
8
1
10
63.261440
20
27.218369
42
0.113274
0
VERTEX
8
1
10
63.296276
20
27.495573
42
0.057089
0
VERTEX
8
1
10
63.236492
20
27.880730
42
-0.141396
0
VERTEX
8
1
10
62.966320
20
27.921295
0
VERTEX
8
1
10
62.600109
20
28.287521
42
0.064326
0
VERTEX
8
1
10
62.636707
20
28.771072
42
0.071872
0
VERTEX
8
1
10
62.504650
20
29.214935
42
0.034498
0
VERTEX
8
1
10
61.984386
20
29.644661
42
0.010447
0
VERTEX
8
1
10
61.489605
20
29.912296
42
-0.069911
0
VERTEX
8
1
10
61.326450
20
30.035553
42
-0.079211
0
VERTEX
8
1
10
61.060337
20
30.545485
42
-0.156188
0
VERTEX
8
1
10
61.073414
20
30.744637
42
-0.022565
0
VERTEX
8
1
10
61.285198
20
31.261534
0
VERTEX
8
1
10
61.313648
20
31.330338
42
0.193765
0
VERTEX
8
1
10
61.315006
20
31.489014
42
0.123086
0
VERTEX
8
1
10
61.229012
20
31.690563
0
VERTEX
8
1
10
61.218689
20
31.699608
42
-0.003832
0
VERTEX
8
1
10
60.951870
20
31.883980
42
0.104375
0
VERTEX
8
1
10
60.725124
20
31.824959
42
-0.201454
0
VERTEX
8
1
10
60.387390
20
31.878601
0
VERTEX
8
1
10
60.328983
20
32.345490
42
0.114709
0
VERTEX
8
1
10
60.065983
20
32.711037
42
0.044598
0
VERTEX
8
1
10
60.000500
20
32.752609
0
VERTEX
8
1
10
59.487846
20
33.008987
42
-0.008340
0
VERTEX
8
1
10
59.038609
20
33.597610
42
-0.101900
0
VERTEX
8
1
10
58.965397
20
33.799858
42
-0.086338
0
VERTEX
8
1
10
58.951225
20
34.246506
42
-0.004930
0
VERTEX
8
1
10
58.991524
20
34.625671
0
VERTEX
8
1
10
58.989677
20
34.629082
0
VERTEX
8
1
10
58.782249
20
34.940231
42
0.154632
0
VERTEX
8
1
10
58.573978
20
35.070305
42
0.054548
0
VERTEX
8
1
10
58.414658
20
35.104309
0
VERTEX
8
1
10
58.261627
20
35.095970
0
VERTEX
8
1
10
57.970284
20
35.075256
42
-0.008898
0
VERTEX
8
1
10
55.182369
20
34.967110
42
-0.002029
0
VERTEX
8
1
10
52.471256
20
34.911491
42
-0.126695
0
VERTEX
8
1
10
52.477844
20
34.791206
42
0.063397
0
VERTEX
8
1
10
52.531441
20
34.652588
42
0.017405
0
VERTEX
8
1
10
52.655533
20
34.413719
0
VERTEX
8
1
10
52.667637
20
34.402397
42
-0.105705
0
VERTEX
8
1
10
52.900867
20
34.181576
42
-0.085043
0
VERTEX
8
1
10
52.929428
20
34.101952
42
0.002577
0
VERTEX
8
1
10
53.022636
20
33.752945
0
VERTEX
8
1
10
53.043457
20
33.735313
42
-0.050964
0
VERTEX
8
1
10
53.548103
20
33.462570
0
VERTEX
8
1
10
53.686722
20
33.220131
0
VERTEX
8
1
10
53.686108
20
33.218765
0
VERTEX
8
1
10
53.479931
20
32.953499
0
VERTEX
8
1
10
53.479935
20
32.837242
0
VERTEX
8
1
10
53.481529
20
32.834961
42
-0.121136
0
VERTEX
8
1
10
53.694794
20
32.539658
0
VERTEX
8
1
10
53.700603
20
32.516823
42
0.047263
0
VERTEX
8
1
10
53.784397
20
32.173603
42
0.096084
0
VERTEX
8
1
10
53.828060
20
32.117966
42
-0.012980
0
VERTEX
8
1
10
54.312592
20
31.844749
0
VERTEX
8
1
10
54.396397
20
27.458847
42
0.027160
0
VERTEX
8
1
10
54.459473
20
26.556595
0
VERTEX
8
1
10
54.578438
20
26.542521
42
0.005830
0
VERTEX
8
1
10
60.316055
20
26.773235
42
0.006288
0
VERTEX
8
1
10
61.063580
20
26.829994
0
VERTEX
8
1
10
61.227077
20
26.849792
0
VERTEX
8
1
10
61.314342
20
26.867752
42
-0.260749
0
VERTEX
8
1
10
61.889027
20
26.720100
0
VERTEX
8
1
10
61.909061
20
26.697083
42
-0.357515
0
VERTEX
8
1
10
61.931957
20
26.450310
42
0.040732
0
VERTEX
8
1
10
61.859173
20
26.226870
42
-0.147326
0
VERTEX
8
1
10
61.752003
20
26.084435
0
VERTEX
8
1
10
61.743046
20
26.074333
42
0.108875
0
VERTEX
8
1
10
61.676655
20
25.873108
0
VERTEX
8
1
10
61.660030
20
25.770599
0
VERTEX
8
1
10
61.738304
20
25.769211
42
0.020178
0
VERTEX
8
1
10
62.325478
20
25.799263
0
VERTEX
8
1
10
62.416851
20
25.806381
0
VERTEX
8
1
10
62.463299
20
25.814369
42
-0.089291
0
VERTEX
8
1
10
62.516830
20
26.264292
42
-0.100404
0
VERTEX
8
1
10
62.591694
20
26.381958
42
0.025385
0
VERTEX
8
1
10
62.787727
20
26.608572
42
0.260030
0
VERTEX
8
1
10
62.790325
20
26.691620
0
SEQEND
0
POLYLINE
8
1
66
1
70
1
0
VERTEX
8
1
10
47.549934
20
27.588978
42
0.000493
0
VERTEX
8
1
10
54.270290
20
27.510550
0
VERTEX
8
1
10
54.188961
20
31.771614
0
VERTEX
8
1
10
54.183521
20
31.775253
42
0.003205
0
VERTEX
8
1
10
53.754375
20
32.017029
42
-0.154724
0
VERTEX
8
1
10
53.649242
20
32.176544
42
-0.032258
0
VERTEX
8
1
10
53.575447
20
32.502312
42
0.113476
0
VERTEX
8
1
10
53.480080
20
32.656258
42
0.042903
0
VERTEX
8
1
10
53.355049
20
32.779655
0
VERTEX
8
1
10
53.354935
20
32.996391
0
VERTEX
8
1
10
53.536842
20
33.230453
0
VERTEX
8
1
10
53.453594
20
33.376160
42
0.047503
0
VERTEX
8
1
10
52.968246
20
33.631542
42
-0.007057
0
VERTEX
8
1
10
50.442699
20
33.635639
42
-0.002510
0
VERTEX
8
1
10
42.503437
20
33.770760
0
VERTEX
8
1
10
42.456429
20
33.768951
0
VERTEX
8
1
10
42.314869
20
27.682114
0
VERTEX
8
1
10
42.345749
20
27.673378
0
VERTEX
8
1
10
42.485939
20
27.669479
42
0.002897
0
SEQEND
0
POLYLINE
8
1
66
1
70
1
0
VERTEX
8
1
10
29.858284
20
45.545609
0
VERTEX
8
1
10
29.702080
20
44.608383
0
VERTEX
8
1
10
28.923906
20
39.467293
0
VERTEX
8
1
10
28.707771
20
37.387047
0
VERTEX
8
1
10
28.718418
20
37.384857
42
0.014899
0
VERTEX
8
1
10
32.037094
20
36.883591
42
0.021778
0
VERTEX
8
1
10
39.310040
20
36.293583
0
VERTEX
8
1
10
39.419155
20
36.314362
42
0.004909
0
VERTEX
8
1
10
39.588360
20
38.581463
42
0.000896
0
VERTEX
8
1
10
39.987389
20
44.491753
0
VERTEX
8
1
10
39.973995
20
44.525688
42
-0.008831
0
VERTEX
8
1
10
38.699066
20
44.635559
42
-0.002363
0
SEQEND
0
POLYLINE
8
1
66
1
70
1
0
VERTEX
8
1
10
74.211716
20
32.716240
42
-0.008899
0
VERTEX
8
1
10
74.200752
20
32.567902
0
VERTEX
8
1
10
74.021492
20
32.239235
0
VERTEX
8
1
10
73.785545
20
32.055702
0
VERTEX
8
1
10
73.783112
20
32.038582
42
0.044010
0
VERTEX
8
1
10
73.796646
20
31.541828
42
0.084815
0
VERTEX
8
1
10
73.834450
20
31.442978
42
0.020079
0
VERTEX
8
1
10
74.084442
20
31.030685
0
VERTEX
8
1
10
74.296028
20
30.581474
0
VERTEX
8
1
10
74.841400
20
30.399651
0
VERTEX
8
1
10
74.831581
20
30.381653
0
VERTEX
8
1
10
75.120155
20
30.165100
42
0.028025
0
VERTEX
8
1
10
75.501343
20
29.919807
42
0.174057
0
VERTEX
8
1
10
75.577156
20
29.952003
42
0.045143
0
VERTEX
8
1
10
75.851479
20
30.220209
42
-0.239392
0
VERTEX
8
1
10
75.990501
20
30.249039
42
-0.043371
0
VERTEX
8
1
10
76.234268
20
30.159277
42
0.053836
0
VERTEX
8
1
10
76.286674
20
30.145897
42
0.083202
0
VERTEX
8
1
10
76.602364
20
30.328232
42
0.042998
0
VERTEX
8
1
10
76.727638
20
30.486477
42
-0.165628
0
VERTEX
8
1
10
76.980377
20
30.638039
42
0.068888
0
VERTEX
8
1
10
77.460793
20
30.841522
0
VERTEX
8
1
10
77.471146
20
30.855629
42
-0.050222
0
VERTEX
8
1
10
77.537628
20
31.208794
0
VERTEX
8
1
10
77.568176
20
31.338570
42
-0.051308
0
VERTEX
8
1
10
77.671097
20
31.658562
0
VERTEX
8
1
10
77.685921
20
31.685059
42
0.143776
0
VERTEX
8
1
10
77.765221
20
31.870682
42
-0.028033
0
VERTEX
8
1
10
77.864334
20
32.251572
42
0.015872
0
VERTEX
8
1
10
78.125603
20
33.308670
0
VERTEX
8
1
10
78.132111
20
33.353134
0
VERTEX
8
1
10
78.132980
20
33.372055
42
-0.616661
0
VERTEX
8
1
10
78.254189
20
33.433319
42
-0.085746
0
VERTEX
8
1
10
78.388634
20
33.296654
0
VERTEX
8
1
10
78.428482
20
33.244720
0
VERTEX
8
1
10
78.473572
20
33.182510
42
0.068822
0
VERTEX
8
1
10
78.804054
20
33.252552
42
0.196363
0
VERTEX
8
1
10
78.858269
20
33.319855
42
0.095724
0
VERTEX
8
1
10
78.882721
20
33.460831
0
VERTEX
8
1
10
79.029060
20
33.782852
42
-0.318813
0
VERTEX
8
1
10
79.235397
20
33.869965
42
0.191102
0
VERTEX
8
1
10
79.306351
20
33.885201
42
0.050941
0
VERTEX
8
1
10
79.413208
20
33.952179
0
VERTEX
8
1
10
79.441788
20
34.265511
42
-0.085681
0
VERTEX
8
1
10
79.741333
20
34.370712
0
VERTEX
8
1
10
79.750282
20
34.375076
0
VERTEX
8
1
10
79.756485
20
34.382622
42
0.114881
0
VERTEX
8
1
10
79.838715
20
34.636177
42
0.037193
0
VERTEX
8
1
10
79.885880
20
35.095673
42
-0.102907
0
VERTEX
8
1
10
79.961380
20
35.365974
0
VERTEX
8
1
10
79.979034
20
35.392258
42
-0.449178
0
VERTEX
8
1
10
80.196182
20
35.421463
42
-0.074791
0
VERTEX
8
1
10
80.293663
20
35.328960
42
0.209545
0
VERTEX
8
1
10
80.348045
20
35.314720
42
-0.130631
0
VERTEX
8
1
10
80.506203
20
35.234818
42
0.075869
0
VERTEX
8
1
10
80.796425
20
35.057755
42
0.104125
0
VERTEX
8
1
10
80.948868
20
35.038857
42
0.380314
0
VERTEX
8
1
10
80.967354
20
35.074699
42
0.113243
0
VERTEX
8
1
10
80.896126
20
35.268867
42
0.075190
0
VERTEX
8
1
10
80.610825
20
35.632931
0
VERTEX
8
1
10
80.588860
20
35.649426
42
0.101986
0
VERTEX
8
1
10
80.270432
20
35.768925
42
0.190176
0
VERTEX
8
1
10
80.127312
20
35.726662
42
0.069126
0
VERTEX
8
1
10
80.001984
20
35.540062
42
-0.129965
0
VERTEX
8
1
10
79.884491
20
35.422562
42
-0.102121
0
VERTEX
8
1
10
79.832085
20
35.412621
0
VERTEX
8
1
10
79.482697
20
35.412621
42
-0.038648
0
VERTEX
8
1
10
79.278183
20
35.431236
42
-0.118597
0
VERTEX
8
1
10
79.177612
20
35.166119
42
-0.254260
0
VERTEX
8
1
10
79.028831
20
35.106384
42
0.038299
0
VERTEX
8
1
10
78.716644
20
35.059830
0
VERTEX
8
1
10
78.581314
20
34.599953
42
-0.129622
0
VERTEX
8
1
10
78.314491
20
34.507965
42
-0.342288
0
VERTEX
8
1
10
78.205193
20
34.595924
42
-0.045535
0
VERTEX
8
1
10
78.149086
20
34.887878
42
-0.030910
0
VERTEX
8
1
10
78.099548
20
35.548134
0
VERTEX
8
1
10
78.012306
20
35.551987
42
-0.001101
0
VERTEX
8
1
10
76.392532
20
35.263531
0
VERTEX
8
1
10
76.116600
20
37.194664
42
0.154817
0
VERTEX
8
1
10
75.981003
20
37.091976
42
0.136352
0
VERTEX
8
1
10
75.979088
20
37.068947
42
0.009017
0
VERTEX
8
1
10
76.070648
20
36.575722
42
-0.043884
0
VERTEX
8
1
10
76.090302
20
35.995995
0
VERTEX
8
1
10
76.083145
20
35.931679
42
-0.131782
0
VERTEX
8
1
10
76.031296
20
35.792145
42
0.123975
0
VERTEX
8
1
10
75.923790
20
35.243729
42
-0.065765
0
VERTEX
8
1
10
75.865089
20
34.870461
42
-0.109278
0
VERTEX
8
1
10
75.748260
20
34.723461
42
-0.050703
0
VERTEX
8
1
10
75.433426
20
34.479324
42
0.030713
0
VERTEX
8
1
10
74.946198
20
34.210121
42
0.172009
0
VERTEX
8
1
10
74.751038
20
33.934753
42
0.074941
0
VERTEX
8
1
10
74.687622
20
33.592098
42
-0.032940
0
VERTEX
8
1
10
74.663506
20
33.372562
42
-0.223814
0
VERTEX
8
1
10
74.595131
20
33.298622
42
-0.263444
0
VERTEX
8
1
10
74.507408
20
33.322105
42
0.038971
0
VERTEX
8
1
10
74.359856
20
33.430256
42
0.436856
0
VERTEX
8
1
10
74.343987
20
33.415459
42
0.021171
0
VERTEX
8
1
10
74.199211
20
32.994370
42
0.124494
0
VERTEX
8
1
10
74.206543
20
32.938782
42
-0.053634
0
SEQEND
0
POLYLINE
8
1
66
1
70
1
0
VERTEX
8
1
10
52.341736
20
34.907951
42
0.032393
0
VERTEX
8
1
10
52.276772
20
35.061531
42
-0.015272
0
VERTEX
8
1
10
52.104568
20
35.523170
42
-0.042253
0
VERTEX
8
1
10
52.067886
20
35.831520
42
-0.015023
0
VERTEX
8
1
10
52.048622
20
36.267769
42
0.069659
0
VERTEX
8
1
10
51.972870
20
36.497566
42
0.026859
0
VERTEX
8
1
10
51.717285
20
36.986900
42
0.017933
0
VERTEX
8
1
10
51.632423
20
37.716511
42
0.066475
0
VERTEX
8
1
10
51.575569
20
37.867668
42
0.022331
0
VERTEX
8
1
10
51.414288
20
38.173943
0
VERTEX
8
1
10
51.277306
20
38.776367
42
0.042873
0
VERTEX
8
1
10
51.070313
20
38.949463
42
-0.017523
0
VERTEX
8
1
10
50.684868
20
39.311394
42
0.044449
0
VERTEX
8
1
10
50.293167
20
39.419846
42
-0.069230
0
VERTEX
8
1
10
49.899178
20
39.601536
0
VERTEX
8
1
10
49.870487
20
39.618412
0
VERTEX
8
1
10
49.841927
20
39.635506
0
VERTEX
8
1
10
49.112137
20
39.661583
0
VERTEX
8
1
10
49.110992
20
39.661293
0
VERTEX
8
1
10
48.875896
20
39.396812
0
VERTEX
8
1
10
48.875210
20
39.396667
0
VERTEX
8
1
10
48.512859
20
39.594307
42
0.118839
0
VERTEX
8
1
10
48.200596
20
39.837196
42
0.050346
0
VERTEX
8
1
10
47.891750
20
39.957642
0
VERTEX
8
1
10
47.754169
20
39.962471
42
-0.019337
0
VERTEX
8
1
10
45.252975
20
39.967819
42
-0.010583
0
VERTEX
8
1
10
40.219032
20
40.238804
0
VERTEX
8
1
10
39.895920
20
40.262497
0
VERTEX
8
1
10
39.825130
20
40.196632
42
-0.003578
0
VERTEX
8
1
10
39.542923
20
36.281975
0
VERTEX
8
1
10
42.501606
20
36.033104
0
VERTEX
8
1
10
42.509048
20
36.031746
0
VERTEX
8
1
10
42.459530
20
33.902534
0
VERTEX
8
1
10
42.488380
20
33.896114
42
0.003021
0
VERTEX
8
1
10
51.374714
20
33.752064
42
0.003683
0
VERTEX
8
1
10
52.718555
20
33.753788
0
VERTEX
8
1
10
52.891273
20
33.759735
42
0.005197
0
VERTEX
8
1
10
52.794983
20
34.115143
42
0.108917
0
VERTEX
8
1
10
52.656879
20
34.256229
42
0.026011
0
VERTEX
8
1
10
52.565468
20
34.319321
42
-0.055291
0
VERTEX
8
1
10
52.355747
20
34.762924
42
-0.115868
0
VERTEX
8
1
10
52.359413
20
34.837364
42
0.072423
0
SEQEND
0
POLYLINE
8
1
66
1
70
1
0
VERTEX
8
1
10
54.894798
20
20.402634
0
VERTEX
8
1
10
55.289494
20
20.427322
0
VERTEX
8
1
10
55.535614
20
20.321838
0
VERTEX
8
1
10
55.535805
20
20.315712
0
VERTEX
8
1
10
55.526020
20
19.210518
0
VERTEX
8
1
10
55.662666
20
19.209276
42
0.004528
0
VERTEX
8
1
10
60.075943
20
19.340397
42
0.007931
0
VERTEX
8
1
10
60.379330
20
19.360497
42
-0.059848
0
VERTEX
8
1
10
60.362541
20
19.667023
42
-0.027916
0
VERTEX
8
1
10
60.409271
20
19.854507
42
0.028273
0
VERTEX
8
1
10
60.432564
20
20.064217
42
-0.100230
0
VERTEX
8
1
10
60.494148
20
20.233124
42
0.091643
0
VERTEX
8
1
10
60.451599
20
20.297638
42
-0.051516
0
VERTEX
8
1
10
60.233223
20
20.648254
0
VERTEX
8
1
10
60.271854
20
20.699322
42
0.082022
0
VERTEX
8
1
10
60.568741
20
21.266899
0
VERTEX
8
1
10
60.568253
20
21.277985
42
-0.313347
0
VERTEX
8
1
10
60.594162
20
21.597374
42
-0.126740
0
VERTEX
8
1
10
60.737595
20
21.717535
42
0.363943
0
VERTEX
8
1
10
60.842533
20
21.991196
42
-0.222091
0
VERTEX
8
1
10
60.880268
20
22.096924
42
-0.034797
0
VERTEX
8
1
10
61.197109
20
22.454300
42
0.429361
0
VERTEX
8
1
10
61.326389
20
22.560028
0
VERTEX
8
1
10
61.330357
20
22.584343
42
0.041748
0
VERTEX
8
1
10
61.323952
20
23.118187
42
-0.216120
0
VERTEX
8
1
10
61.426868
20
23.337591
42
-0.249966
0
VERTEX
8
1
10
61.669411
20
23.368509
42
0.268212
0
VERTEX
8
1
10
61.683125
20
23.389061
42
0.092361
0
VERTEX
8
1
10
61.743824
20
23.780617
42
0.098057
0
VERTEX
8
1
10
61.969952
20
24.057182
42
0.354134
0
VERTEX
8
1
10
61.958485
20
24.107834
42
0.025719
0
VERTEX
8
1
10
61.833057
20
24.224998
42
-0.394788
0
VERTEX
8
1
10
61.804886
20
24.421005
42
-0.048478
0
VERTEX
8
1
10
62.080578
20
24.701012
42
0.066230
0
VERTEX
8
1
10
62.099445
20
24.998352
42
-0.330413
0
VERTEX
8
1
10
62.195423
20
25.235947
42
0.055595
0
VERTEX
8
1
10
62.370205
20
25.359596
42
0.154191
0
VERTEX
8
1
10
62.438099
20
25.507309
42
0.018694
0
VERTEX
8
1
10
62.461437
20
25.680748
0
VERTEX
8
1
10
62.454197
20
25.684097
42
-0.024137
0
VERTEX
8
1
10
61.642048
20
25.644430
42
-0.098655
0
VERTEX
8
1
10
61.549370
20
25.666981
42
-0.381624
0
VERTEX
8
1
10
61.531116
20
25.762459
42
-0.029994
0
VERTEX
8
1
10
61.591282
20
26.054514
42
-0.138989
0
VERTEX
8
1
10
61.699963
20
26.204048
42
0.137978
0
VERTEX
8
1
10
61.758137
20
26.324089
42
-0.075330
0
VERTEX
8
1
10
61.840343
20
26.546593
42
0.215071
0
VERTEX
8
1
10
61.805836
20
26.625740
42
0.255699
0
VERTEX
8
1
10
61.371357
20
26.752823
0
VERTEX
8
1
10
61.299969
20
26.736305
0
VERTEX
8
1
10
61.113125
20
26.710932
42
-0.011825
0
VERTEX
8
1
10
59.530880
20
26.606474
42
-0.004250
0
VERTEX
8
1
10
54.647453
20
26.419622
0
VERTEX
8
1
10
54.499500
20
26.402344
0
VERTEX
8
1
10
54.514263
20
26.322960
42
-0.010967
0
VERTEX
8
1
10
54.757465
20
24.507774
0
VERTEX
8
1
10
54.893669
20
20.425232
0
SEQEND
0
POLYLINE
8
1
66
1
70
1
0
VERTEX
8
1
10
30.954460
20
32.285297
42
-0.000739
0
VERTEX
8
1
10
31.566509
20
36.817398
42
-0.014171
0
VERTEX
8
1
10
28.571699
20
37.285881
0
VERTEX
8
1
10
28.793550
20
39.422226
0
VERTEX
8
1
10
28.791943
20
39.422943
0
VERTEX
8
1
10
24.353298
20
40.126625
0
VERTEX
8
1
10
24.347353
20
40.107296
42
0.006368
0
VERTEX
8
1
10
24.086065
20
38.706532
42
0.003521
0
VERTEX
8
1
10
22.635321
20
30.300268
0
VERTEX
8
1
10
22.619619
20
30.198145
0
VERTEX
8
1
10
22.604280
20
30.095964
0
VERTEX
8
1
10
22.605076
20
30.047478
42
0.017503
0
VERTEX
8
1
10
25.620272
20
29.409227
42
0.017149
0
VERTEX
8
1
10
30.274401
20
28.735310
0
VERTEX
8
1
10
30.499716
20
28.718214
42
-0.007541
0
VERTEX
8
1
10
30.670513
20
30.125067
42
-0.001048
0
SEQEND
0
POLYLINE
8
1
66
1
70
1
0
VERTEX
8
1
10
45.482445
20
26.507294
0
VERTEX
8
1
10
45.315746
20
22.478119
42
-0.091354
0
VERTEX
8
1
10
45.589924
20
22.403717
42
-0.162124
0
VERTEX
8
1
10
45.774014
20
22.183580
42
-0.004243
0
VERTEX
8
1
10
46.059521
20
22.002007
42
0.131044
0
VERTEX
8
1
10
46.115398
20
22.058586
42
0.053720
0
VERTEX
8
1
10
46.184429
20
22.176460
0
VERTEX
8
1
10
46.395340
20
22.176491
42
0.010236
0
VERTEX
8
1
10
46.704285
20
21.727768
42
-0.043329
0
VERTEX
8
1
10
47.042984
20
21.660713
42
0.038992
0
VERTEX
8
1
10
47.435394
20
21.619881
42
-0.174542
0
VERTEX
8
1
10
47.591354
20
21.522871
42
0.002571
0
VERTEX
8
1
10
47.720654
20
21.366768
42
0.164812
0
VERTEX
8
1
10
47.779629
20
21.360359
42
0.143102
0
VERTEX
8
1
10
48.001396
20
21.437462
42
-0.138022
0
VERTEX
8
1
10
48.208191
20
21.481949
42
-0.259477
0
VERTEX
8
1
10
48.453568
20
21.373634
42
-0.036787
0
VERTEX
8
1
10
48.494541
20
21.319740
0
VERTEX
8
1
10
48.674381
20
21.139893
42
-0.115065
0
VERTEX
8
1
10
48.813358
20
20.902103
0
VERTEX
8
1
10
48.821178
20
20.883287
0
VERTEX
8
1
10
48.829197
20
20.864555
42
0.112416
0
VERTEX
8
1
10
49.022053
20
20.872589
42
0.046085
0
VERTEX
8
1
10
49.359459
20
21.057724
42
-0.281151
0
VERTEX
8
1
10
49.494606
20
21.044350
42
-0.082114
0
VERTEX
8
1
10
49.695972
20
20.860577
42
-0.011844
0
VERTEX
8
1
10
49.767796
20
20.776268
0
VERTEX
8
1
10
49.773354
20
20.774239
42
0.011168
0
VERTEX
8
1
10
49.995670
20
20.873764
42
-0.454701
0
VERTEX
8
1
10
50.139336
20
20.785881
42
-0.048562
0
VERTEX
8
1
10
50.163391
20
20.621490
42
-0.051673
0
VERTEX
8
1
10
50.337387
20
20.880985
42
-0.028230
0
VERTEX
8
1
10
50.504253
20
21.064255
42
-0.380582
0
VERTEX
8
1
10
50.681263
20
21.049553
42
-0.115393
0
VERTEX
8
1
10
50.811024
20
20.844788
0
VERTEX
8
1
10
50.817253
20
20.842194
42
-0.342714
0
VERTEX
8
1
10
51.186607
20
20.881805
42
-0.099593
0
VERTEX
8
1
10
51.476807
20
20.620956
0
VERTEX
8
1
10
51.681580
20
20.620956
42
0.060127
0
VERTEX
8
1
10
51.968349
20
20.782791
42
-0.215364
0
VERTEX
8
1
10
52.201172
20
20.875399
42
-0.035624
0
VERTEX
8
1
10
52.278286
20
20.871941
0
VERTEX
8
1
10
52.559158
20
20.923004
42
-0.074771
0
VERTEX
8
1
10
52.869591
20
21.090429
42
-0.309941
0
VERTEX
8
1
10
53.035709
20
21.028727
42
0.018810
0
VERTEX
8
1
10
53.157082
20
20.868195
42
0.366202
0
VERTEX
8
1
10
53.176903
20
20.874680
42
-0.072841
0
VERTEX
8
1
10
53.328075
20
21.019588
42
-0.184802
0
VERTEX
8
1
10
53.571461
20
21.063232
42
-0.105017
0
VERTEX
8
1
10
53.925434
20
20.941406
42
-0.028057
0
VERTEX
8
1
10
54.615868
20
20.501633
0
VERTEX
8
1
10
54.768280
20
20.433876
0
VERTEX
8
1
10
54.632858
20
24.497437
42
0.009668
0
VERTEX
8
1
10
54.389374
20
26.319889
42
0.056375
0
VERTEX
8
1
10
54.347118
20
26.489777
42
-0.035603
0
VERTEX
8
1
10
54.297199
20
26.922211
42
-0.007401
0
VERTEX
8
1
10
54.273842
20
27.381479
0
VERTEX
8
1
10
54.112236
20
27.387171
42
-0.001826
0
VERTEX
8
1
10
42.946625
20
27.533792
0
VERTEX
8
1
10
42.629192
20
27.541162
0
VERTEX
8
1
10
42.311787
20
27.549379
0
VERTEX
8
1
10
42.311714
20
27.546310
0
VERTEX
8
1
10
40.644978
20
27.685112
0
VERTEX
8
1
10
40.620342
20
26.701797
0
SEQEND
0
POLYLINE
8
1
66
1
70
1
0
VERTEX
8
1
10
68.721153
20
31.294380
42
-0.117324
0
VERTEX
8
1
10
68.587662
20
31.060467
42
-0.265219
0
VERTEX
8
1
10
68.393486
20
31.019943
42
0.081532
0
VERTEX
8
1
10
68.343163
20
30.764862
42
-0.151692
0
VERTEX
8
1
10
68.237686
20
30.516340
42
-0.240104
0
VERTEX
8
1
10
68.083130
20
30.467300
0
VERTEX
8
1
10
68.041580
20
30.474831
42
-0.107172
0
VERTEX
8
1
10
67.618484
20
30.712662
42
-0.071142
0
VERTEX
8
1
10
67.517677
20
30.620972
42
0.249204
0
VERTEX
8
1
10
67.448463
20
30.560562
42
0.062506
0
VERTEX
8
1
10
67.397255
20
30.336296
42
-0.158920
0
VERTEX
8
1
10
67.307297
20
30.127615
42
-0.165779
0
VERTEX
8
1
10
67.151657
20
30.047127
42
0.076978
0
VERTEX
8
1
10
66.785126
20
30.263359
0
VERTEX
8
1
10
66.753830
20
30.271980
42
0.310920
0
VERTEX
8
1
10
66.686775
20
30.252144
42
0.073104
0
VERTEX
8
1
10
66.645805
20
30.194664
42
0.010920
0
VERTEX
8
1
10
66.510147
20
29.876320
0
VERTEX
8
1
10
66.499397
20
29.858959
0
VERTEX
8
1
10
66.487160
20
29.842615
42
-0.460954
0
VERTEX
8
1
10
66.278786
20
29.821465
42
-0.085298
0
VERTEX
8
1
10
66.189980
20
29.912682
0
VERTEX
8
1
10
66.179596
20
29.921471
42
0.014610
0
VERTEX
8
1
10
65.822807
20
30.001390
42
0.324553
0
VERTEX
8
1
10
65.778564
20
29.971649
42
-0.056665
0
VERTEX
8
1
10
65.702499
20
29.835838
42
-0.262179
0
VERTEX
8
1
10
65.599518
20
29.808525
42
-0.076888
0
VERTEX
8
1
10
65.407791
20
29.898590
42
0.055249
0
VERTEX
8
1
10
65.252563
20
29.973129
42
0.204965
0
VERTEX
8
1
10
65.166695
20
29.948875
42
0.100482
0
VERTEX
8
1
10
65.007721
20
29.764130
0
VERTEX
8
1
10
65.007721
20
29.746071
42
0.111552
0
VERTEX
8
1
10
64.792862
20
29.556496
42
0.169989
0
VERTEX
8
1
10
64.786079
20
29.504387
42
0.193785
0
VERTEX
8
1
10
64.916641
20
29.186081
42
-0.142329
0
VERTEX
8
1
10
64.995949
20
29.031342
42
-0.349145
0
VERTEX
8
1
10
64.896866
20
28.893600
42
-0.155737
0
VERTEX
8
1
10
64.670959
20
28.879274
42
0.245501
0
VERTEX
8
1
10
64.573235
20
28.847450
42
-0.152915
0
VERTEX
8
1
10
64.457771
20
28.791496
42
0.157987
0
VERTEX
8
1
10
64.462410
20
28.555832
42
-0.045878
0
VERTEX
8
1
10
64.519440
20
28.316879
42
-0.152048
0
VERTEX
8
1
10
64.486900
20
28.196304
42
-0.131126
0
VERTEX
8
1
10
64.394035
20
28.068007
42
-0.275784
0
VERTEX
8
1
10
64.222633
20
28.070740
42
0.113413
0
VERTEX
8
1
10
63.964058
20
28.152115
42
-0.072878
0
VERTEX
8
1
10
63.763729
20
28.219971
42
-0.078433
0
VERTEX
8
1
10
63.649204
20
28.327812
42
0.063955
0
VERTEX
8
1
10
63.439098
20
28.123970
42
0.036269
0
VERTEX
8
1
10
63.346569
20
27.962189
42
-0.066319
0
VERTEX
8
1
10
63.423000
20
27.426575
42
-0.064729
0
VERTEX
8
1
10
63.393391
20
27.211027
42
-0.068473
0
VERTEX
8
1
10
63.351109
20
27.124748
42
-0.004050
0
VERTEX
8
1
10
63.161495
20
26.991417
42
0.017129
0
VERTEX
8
1
10
64.855888
20
27.083853
42
0.017731
0
VERTEX
8
1
10
65.072052
20
27.115829
0
VERTEX
8
1
10
65.118187
20
27.129326
0
VERTEX
8
1
10
65.130638
20
27.175425
42
0.063741
0
VERTEX
8
1
10
65.160667
20
27.533360
42
0.006982
0
VERTEX
8
1
10
71.527496
20
28.080717
0
VERTEX
8
1
10
72.270309
20
28.160225
0
VERTEX
8
1
10
72.425293
20
28.177559
0
VERTEX
8
1
10
72.422997
20
28.179291
0
VERTEX
8
1
10
72.439896
20
28.198372
42
-0.082273
0
VERTEX
8
1
10
72.672493
20
28.332794
42
-0.017709
0
VERTEX
8
1
10
73.155495
20
28.511040
42
0.098713
0
VERTEX
8
1
10
73.231415
20
28.646553
42
-0.123738
0
VERTEX
8
1
10
73.381828
20
28.862663
42
-0.092633
0
VERTEX
8
1
10
73.521103
20
28.926140
42
0.074348
0
VERTEX
8
1
10
73.689758
20
29.006348
42
0.250433
0
VERTEX
8
1
10
73.695091
20
29.056923
42
-0.209399
0
VERTEX
8
1
10
73.748093
20
29.362265
42
-0.128715
0
VERTEX
8
1
10
73.969612
20
29.579010
42
0.098237
0
VERTEX
8
1
10
74.330185
20
29.883858
42
-0.007081
0
VERTEX
8
1
10
74.467705
20
30.035637
42
0.038155
0
VERTEX
8
1
10
74.658119
20
30.329018
0
VERTEX
8
1
10
74.207382
20
30.479263
0
VERTEX
8
1
10
74.204453
20
30.482346
0
VERTEX
8
1
10
73.974266
20
30.971474
42
-0.035963
0
VERTEX
8
1
10
73.693703
20
31.449532
42
-0.083888
0
VERTEX
8
1
10
73.665085
20
31.596214
42
-0.042077
0
VERTEX
8
1
10
73.657593
20
32.029205
0
VERTEX
8
1
10
73.654411
20
32.059891
42
0.045696
0
VERTEX
8
1
10
73.285553
20
32.299461
42
-0.207871
0
VERTEX
8
1
10
73.125298
20
32.380188
42
0.102227
0
VERTEX
8
1
10
72.931496
20
32.535454
42
0.063507
0
VERTEX
8
1
10
72.782608
20
32.606606
42
0.054370
0
VERTEX
8
1
10
72.563034
20
32.459881
42
0.008878
0
VERTEX
8
1
10
72.448509
20
32.370049
42
0.045025
0
VERTEX
8
1
10
72.144485
20
32.549431
0
VERTEX
8
1
10
72.130661
20
32.546036
42
0.028772
0
VERTEX
8
1
10
71.599297
20
32.225937
0
VERTEX
8
1
10
71.315788
20
32.566139
0
VERTEX
8
1
10
71.307793
20
32.567543
42
-0.052428
0
VERTEX
8
1
10
71.010063
20
32.496193
42
-0.218454
0
VERTEX
8
1
10
70.876190
20
32.557831
42
-0.034716
0
VERTEX
8
1
10
70.711090
20
32.756012
0
VERTEX
8
1
10
70.663620
20
32.806515
42
0.021002
0
VERTEX
8
1
10
70.397751
20
33.048065
0
VERTEX
8
1
10
69.924675
20
32.980484
0
VERTEX
8
1
10
69.921989
20
32.974991
42
0.015437
0
VERTEX
8
1
10
70.048698
20
32.682480
0
VERTEX
8
1
10
69.629379
20
32.292984
42
-0.075235
0
VERTEX
8
1
10
69.382774
20
32.067451
42
-0.274161
0
VERTEX
8
1
10
69.178581
20
32.077126
42
-0.024403
0
VERTEX
8
1
10
69.051918
20
32.154587
0
VERTEX
8
1
10
69.049232
20
32.149147
42
0.059212
0
VERTEX
8
1
10
69.095604
20
31.794823
42
-0.080317
0
VERTEX
8
1
10
68.809769
20
31.494377
42
0.079990
0
VERTEX
8
1
10
68.737206
20
31.442657
42
-0.065346
0
SEQEND
0
POLYLINE
8
1
66
1
70
1
0
VERTEX
8
1
10
40.469757
20
27.825243
42
0.000080
0
VERTEX
8
1
10
42.189686
20
27.681780
0
VERTEX
8
1
10
42.381359
20
35.917564
0
VERTEX
8
1
10
42.379520
20
35.917923
0
VERTEX
8
1
10
39.469429
20
36.162704
42
-0.022977
0
VERTEX
8
1
10
31.737017
20
36.795120
0
VERTEX
8
1
10
31.687731
20
36.781231
42
0.002675
0
VERTEX
8
1
10
30.674030
20
29.154003
0
VERTEX
8
1
10
30.648951
20
28.936279
0
VERTEX
8
1
10
30.625242
20
28.718405
0
VERTEX
8
1
10
30.705912
20
28.680750
42
0.001611
0
SEQEND
0
POLYLINE
8
1
66
1
70
1
0
VERTEX
8
1
10
59.204906
20
40.332962
42
0.157036
0
VERTEX
8
1
10
59.214722
20
40.485855
0
VERTEX
8
1
10
59.200459
20
40.546490
42
-0.026830
0
VERTEX
8
1
10
59.157822
20
40.768101
0
VERTEX
8
1
10
59.152962
20
40.787010
42
0.035257
0
VERTEX
8
1
10
58.968262
20
41.148872
42
-0.006198
0
VERTEX
8
1
10
58.957329
20
41.237518
42
-0.022501
0
VERTEX
8
1
10
57.697689
20
41.116661
42
-0.011809
0
VERTEX
8
1
10
54.933880
20
41.028595
42
-0.006426
0
VERTEX
8
1
10
51.182724
20
41.023327
0
VERTEX
8
1
10
51.202663
20
40.863831
42
0.091779
0
VERTEX
8
1
10
51.207321
20
40.515068
42
0.090735
0
VERTEX
8
1
10
51.295891
20
40.348427
0
VERTEX
8
1
10
51.310413
20
40.324783
42
-0.226278
0
VERTEX
8
1
10
51.343948
20
40.172287
42
-0.091354
0
VERTEX
8
1
10
51.154842
20
39.845356
42
0.039843
0
VERTEX
8
1
10
51.044613
20
39.671165
42
0.194658
0
VERTEX
8
1
10
51.046509
20
39.537811
42
-0.026058
0
VERTEX
8
1
10
51.195778
20
39.012093
42
-0.040058
0
VERTEX
8
1
10
51.390976
20
38.839966
0
VERTEX
8
1
10
51.531376
20
38.222488
42
-0.041566
0
VERTEX
8
1
10
51.746052
20
37.777596
0
VERTEX
8
1
10
51.754456
20
37.746826
0
VERTEX
8
1
10
51.760132
20
37.717751
42
-0.015293
0
VERTEX
8
1
10
51.839092
20
37.026245
42
-0.042564
0
VERTEX
8
1
10
52.148746
20
36.390945
42
-0.074729
0
VERTEX
8
1
10
52.174759
20
36.208885
42
0.030647
0
VERTEX
8
1
10
52.222679
20
35.565865
0
VERTEX
8
1
10
52.227512
20
35.548103
42
0.016618
0
VERTEX
8
1
10
52.418652
20
35.053925
0
VERTEX
8
1
10
52.424473
20
35.040840
0
VERTEX
8
1
10
52.476685
20
35.038780
42
0.007234
0
VERTEX
8
1
10
57.506863
20
35.172993
42
0.007820
0
VERTEX
8
1
10
58.389439
20
35.232300
42
-0.153504
0
VERTEX
8
1
10
58.830181
20
35.069992
42
-0.047306
0
VERTEX
8
1
10
58.883797
20
35.013077
0
VERTEX
8
1
10
59.058075
20
34.751839
0
VERTEX
8
1
10
59.061802
20
34.753670
42
0.127288
0
VERTEX
8
1
10
59.160248
20
34.993141
42
-0.018585
0
VERTEX
8
1
10
59.161442
20
35.197418
42
-0.209203
0
VERTEX
8
1
10
59.262779
20
35.353851
42
-0.005153
0
VERTEX
8
1
10
59.555748
20
35.567360
0
VERTEX
8
1
10
59.557690
20
35.571617
0
VERTEX
8
1
10
59.639420
20
35.898499
42
0.133871
0
VERTEX
8
1
10
59.780384
20
36.081741
42
0.179266
0
VERTEX
8
1
10
59.776180
20
36.117874
0
VERTEX
8
1
10
59.761269
20
36.146736
42
-0.010737
0
VERTEX
8
1
10
59.530331
20
36.563282
42
-0.044157
0
VERTEX
8
1
10
59.496178
20
36.666756
42
-0.139804
0
VERTEX
8
1
10
59.571041
20
37.009090
42
-0.170977
0
VERTEX
8
1
10
59.681728
20
37.091736
42
-0.018695
0
VERTEX
8
1
10
59.960033
20
37.136780
42
0.025152
0
VERTEX
8
1
10
60.408989
20
37.253674
42
0.300013
0
VERTEX
8
1
10
60.605225
20
37.553017
0
VERTEX
8
1
10
60.613342
20
37.563217
0
VERTEX
8
1
10
60.881653
20
37.885368
0
VERTEX
8
1
10
60.882717
20
37.888031
0
VERTEX
8
1
10
60.882713
20
38.402374
42
-0.188419
0
VERTEX
8
1
10
60.544807
20
38.711624
42
-0.003067
0
VERTEX
8
1
10
60.464195
20
38.938293
0
VERTEX
8
1
10
60.461700
20
38.942581
42
-0.120069
0
VERTEX
8
1
10
60.191078
20
38.946457
42
-0.108307
0
VERTEX
8
1
10
60.010117
20
39.214844
0
VERTEX
8
1
10
60.005867
20
39.214546
0
VERTEX
8
1
10
59.971336
20
39.386940
42
0.107147
0
VERTEX
8
1
10
59.694225
20
39.575539
0
VERTEX
8
1
10
59.677322
20
39.578705
42
-0.236531
0
VERTEX
8
1
10
59.496014
20
39.664963
42
-0.044850
0
VERTEX
8
1
10
59.365963
20
39.852715
42
0.016565
0
VERTEX
8
1
10
59.230804
20
40.037991
42
-0.242782
0
SEQEND
0
POLYLINE
8
1
66
1
70
1
0
VERTEX
8
1
10
85.025070
20
30.311668
42
0.203852
0
VERTEX
8
1
10
84.986885
20
30.572342
42
0.066447
0
VERTEX
8
1
10
84.758820
20
30.901508
42
0.160752
0
VERTEX
8
1
10
84.619247
20
30.962479
42
0.266909
0
VERTEX
8
1
10
84.360474
20
30.892448
42
0.022997
0
VERTEX
8
1
10
84.303734
20
30.795250
42
-0.276293
0
VERTEX
8
1
10
84.216415
20
30.758522
42
-0.163231
0
VERTEX
8
1
10
83.886543
20
30.896530
42
-0.223224
0
VERTEX
8
1
10
83.805267
20
31.134949
42
-0.417782
0
VERTEX
8
1
10
83.866676
20
31.169830
42
-0.071395
0
VERTEX
8
1
10
83.992592
20
31.120613
0
VERTEX
8
1
10
84.057175
20
31.085770
0
VERTEX
8
1
10
84.076485
20
31.075958
42
0.245766
0
VERTEX
8
1
10
84.196930
20
31.065147
42
0.062397
0
VERTEX
8
1
10
84.348488
20
31.175873
42
0.409110
0
VERTEX
8
1
10
84.337395
20
31.268585
42
-0.014855
0
VERTEX
8
1
10
84.157127
20
31.416382
0
VERTEX
8
1
10
84.144470
20
31.423416
42
0.055583
0
VERTEX
8
1
10
83.943626
20
31.470901
42
-0.071665
0
VERTEX
8
1
10
83.784157
20
31.534363
42
-0.087994
0
VERTEX
8
1
10
83.614616
20
31.640816
42
-0.435888
0
VERTEX
8
1
10
83.635963
20
31.721237
42
-0.254145
0
VERTEX
8
1
10
83.909218
20
31.776283
42
-0.098222
0
VERTEX
8
1
10
84.050537
20
31.714876
42
0.075281
0
VERTEX
8
1
10
84.187317
20
31.663172
42
0.393187
0
VERTEX
8
1
10
84.234863
20
31.705978
0
VERTEX
8
1
10
84.237541
20
31.736526
42
-0.060095
0
VERTEX
8
1
10
84.256065
20
31.980835
0
VERTEX
8
1
10
84.258003
20
32.007805
42
0.406403
0
VERTEX
8
1
10
84.188225
20
32.108871
0
VERTEX
8
1
10
84.155563
20
32.113853
42
-0.098734
0
VERTEX
8
1
10
83.847641
20
32.197655
0
VERTEX
8
1
10
83.612167
20
32.405426
0
VERTEX
8
1
10
83.612930
20
32.405785
42
0.127046
0
VERTEX
8
1
10
83.820175
20
32.476639
42
0.004551
0
VERTEX
8
1
10
83.902390
20
32.553673
42
0.238989
0
VERTEX
8
1
10
83.917992
20
32.628731
42
0.194641
0
VERTEX
8
1
10
83.808601
20
32.817497
42
-0.172310
0
VERTEX
8
1
10
83.644150
20
33.147377
0
VERTEX
8
1
10
83.634949
20
33.159706
42
-0.069040
0
VERTEX
8
1
10
83.320099
20
33.224892
42
-0.090440
0
VERTEX
8
1
10
83.251022
20
33.274681
42
0.085899
0
VERTEX
8
1
10
82.764732
20
33.540527
0
VERTEX
8
1
10
82.727776
20
33.548622
42
0.104464
0
VERTEX
8
1
10
82.542046
20
33.522102
42
-0.035239
0
VERTEX
8
1
10
82.250710
20
33.445976
42
-0.278201
0
VERTEX
8
1
10
82.117599
20
33.491394
0
VERTEX
8
1
10
82.108727
20
33.504066
42
0.002553
0
VERTEX
8
1
10
81.929611
20
33.650814
42
-0.131598
0
VERTEX
8
1
10
81.842125
20
33.799969
42
-0.188820
0
VERTEX
8
1
10
81.874466
20
33.944420
42
0.007401
0
VERTEX
8
1
10
82.065178
20
34.264874
42
0.092659
0
VERTEX
8
1
10
82.113655
20
34.435966
0
VERTEX
8
1
10
82.112274
20
34.461258
0
VERTEX
8
1
10
82.103493
20
34.488571
0
VERTEX
8
1
10
82.083229
20
34.521820
42
0.204727
0
VERTEX
8
1
10
81.817009
20
34.731331
42
0.086216
0
VERTEX
8
1
10
81.554405
20
34.772861
42
-0.275317
0
VERTEX
8
1
10
81.403473
20
34.883842
42
0.043842
0
VERTEX
8
1
10
81.240013
20
35.245956
0
VERTEX
8
1
10
81.049873
20
35.245956
0
VERTEX
8
1
10
81.049332
20
35.243111
42
-0.150979
0
VERTEX
8
1
10
81.085373
20
35.022194
42
-0.384925
0
VERTEX
8
1
10
80.911674
20
34.912968
42
-0.139414
0
VERTEX
8
1
10
80.596825
20
35.016754
42
-0.010514
0
VERTEX
8
1
10
80.366318
20
35.179386
42
0.147779
0
VERTEX
8
1
10
80.305473
20
35.192307
42
-0.202746
0
VERTEX
8
1
10
80.151192
20
35.300045
42
0.174922
0
VERTEX
8
1
10
80.093719
20
35.330978
42
0.176374
0
VERTEX
8
1
10
80.065536
20
35.297569
42
0.119591
0
VERTEX
8
1
10
80.006660
20
34.991608
42
-0.035605
0
VERTEX
8
1
10
79.935791
20
34.483284
42
-0.098366
0
VERTEX
8
1
10
79.839485
20
34.286781
42
-0.213774
0
VERTEX
8
1
10
79.727959
20
34.243568
42
0.067674
0
VERTEX
8
1
10
79.559593
20
34.181870
0
VERTEX
8
1
10
79.532883
20
33.888123
42
-0.113238
0
VERTEX
8
1
10
79.284302
20
33.746094
42
-0.126969
0
VERTEX
8
1
10
79.191475
20
33.751358
42
0.236280
0
VERTEX
8
1
10
79.138222
20
33.720932
0
VERTEX
8
1
10
79.007629
20
33.433609
42
-0.150412
0
VERTEX
8
1
10
78.929779
20
33.196091
42
-0.159480
0
VERTEX
8
1
10
78.805832
20
33.118759
42
-0.049856
0
VERTEX
8
1
10
78.414825
20
33.048164
42
0.024868
0
VERTEX
8
1
10
78.249779
20
33.267532
0
VERTEX
8
1
10
78.239685
20
33.240654
42
-0.016610
0
VERTEX
8
1
10
77.918602
20
31.984169
42
0.017224
0
VERTEX
8
1
10
77.879639
20
31.801701
42
-0.096923
0
VERTEX
8
1
10
77.793472
20
31.621445
42
0.066778
0
VERTEX
8
1
10
77.702606
20
31.361872
42
0.007692
0
VERTEX
8
1
10
77.623390
20
31.033592
42
0.015358
0
VERTEX
8
1
10
77.587234
20
30.770782
42
-0.075119
0
VERTEX
8
1
10
76.982841
20
30.508110
42
0.193134
0
VERTEX
8
1
10
76.787590
20
30.357849
42
-0.121807
0
VERTEX
8
1
10
76.579948
20
30.155418
42
-0.063703
0
VERTEX
8
1
10
76.312706
20
30.023415
42
-0.140708
0
VERTEX
8
1
10
76.137085
20
30.064079
42
0.069269
0
VERTEX
8
1
10
75.947746
20
30.129190
42
0.313107
0
VERTEX
8
1
10
75.922005
20
30.113098
42
-0.042681
0
VERTEX
8
1
10
75.655151
20
29.852610
42
-0.169157
0
VERTEX
8
1
10
75.484421
20
29.795767
42
-0.117583
0
VERTEX
8
1
10
75.419197
20
29.821785
42
-0.024437
0
VERTEX
8
1
10
75.048256
20
30.062813
0
VERTEX
8
1
10
74.772911
20
30.269279
0
VERTEX
8
1
10
74.768417
20
30.268059
42
-0.071561
0
VERTEX
8
1
10
74.408226
20
29.783541
0
VERTEX
8
1
10
74.348969
20
29.720219
42
-0.089216
0
VERTEX
8
1
10
74.044632
20
29.478630
0
VERTEX
8
1
10
74.014496
20
29.458916
42
0.209454
0
VERTEX
8
1
10
73.810783
20
29.176987
42
0.109325
0
VERTEX
8
1
10
73.823196
20
29.053280
42
-0.290695
0
VERTEX
8
1
10
73.755974
20
28.900452
42
-0.070814
0
VERTEX
8
1
10
73.503014
20
28.787775
42
0.188896
0
VERTEX
8
1
10
73.390259
20
28.682961
42
-0.007318
0
VERTEX
8
1
10
73.273949
20
28.454456
42
-0.171732
0
VERTEX
8
1
10
73.171249
20
28.382805
42
0.023478
0
VERTEX
8
1
10
72.706291
20
28.211403
42
0.017449
0
VERTEX
8
1
10
75.032150
20
28.542578
42
0.020215
0
VERTEX
8
1
10
75.560966
20
28.671051
0
VERTEX
8
1
10
75.645248
20
28.700211
0
VERTEX
8
1
10
75.724831
20
28.730408
0
VERTEX
8
1
10
75.725876
20
28.712828
42
0.010795
0
VERTEX
8
1
10
81.816559
20
29.666536
42
0.007723
0
VERTEX
8
1
10
85.015526
20
30.301750
0
SEQEND
0
POLYLINE
8
1
66
1
70
1
0
VERTEX
8
1
10
79.858315
20
12.417953
42
-0.464953
0
VERTEX
8
1
10
79.980995
20
12.471573
42
-0.066151
0
VERTEX
8
1
10
80.184578
20
12.353944
42
0.010894
0
VERTEX
8
1
10
80.435410
20
12.176788
42
0.024441
0
VERTEX
8
1
10
80.415405
20
12.413669
42
0.034479
0
VERTEX
8
1
10
80.404808
20
12.520401
42
0.071116
0
VERTEX
8
1
10
80.262070
20
12.702682
42
0.028655
0
VERTEX
8
1
10
79.529442
20
13.369888
42
-0.009680
0
VERTEX
8
1
10
79.201439
20
13.658493
42
-0.054025
0
VERTEX
8
1
10
79.043365
20
13.918213
42
-0.017853
0
VERTEX
8
1
10
78.637527
20
14.812210
0
VERTEX
8
1
10
78.022919
20
16.442139
0
VERTEX
8
1
10
78.018219
20
16.453995
0
VERTEX
8
1
10
77.776321
20
16.381432
42
0.061440
0
VERTEX
8
1
10
77.216179
20
16.527008
42
0.119200
0
VERTEX
8
1
10
77.056297
20
16.500114
42
0.265811
0
VERTEX
8
1
10
77.046707
20
16.471672
42
-0.023798
0
VERTEX
8
1
10
77.032013
20
16.360100
42
0.139601
0
VERTEX
8
1
10
77.073448
20
16.272095
42
-0.098945
0
VERTEX
8
1
10
77.209183
20
16.010735
42
-0.207635
0
VERTEX
8
1
10
77.154335
20
15.773842
42
-0.025210
0
VERTEX
8
1
10
76.973114
20
15.553848
42
-0.360436
0
VERTEX
8
1
10
76.822128
20
15.556630
42
-0.102121
0
VERTEX
8
1
10
76.694801
20
15.685966
42
-0.039073
0
VERTEX
8
1
10
76.553650
20
15.922890
0
VERTEX
8
1
10
76.511307
20
15.932105
42
-0.007947
0
VERTEX
8
1
10
74.654076
20
15.750038
42
0.014729
0
VERTEX
8
1
10
73.908531
20
15.703011
42
0.002150
0
VERTEX
8
1
10
72.082474
20
15.548660
0
VERTEX
8
1
10
71.693893
20
16.075935
42
0.007596
0
VERTEX
8
1
10
67.771729
20
15.723603
42
0.009415
0
VERTEX
8
1
10
67.347534
20
15.665245
0
VERTEX
8
1
10
67.264626
20
15.646652
42
0.133678
0
VERTEX
8
1
10
67.151962
20
15.571845
42
0.285761
0
VERTEX
8
1
10
67.154648
20
15.546585
42
-0.039592
0
VERTEX
8
1
10
67.208710
20
15.415169
42
0.078914
0
VERTEX
8
1
10
67.271835
20
15.339749
42
0.027672
0
VERTEX
8
1
10
67.491158
20
15.134869
42
-0.104156
0
VERTEX
8
1
10
67.628273
20
14.929993
42
-0.102096
0
VERTEX
8
1
10
67.636818
20
14.650810
42
0.021278
0
VERTEX
8
1
10
67.587440
20
14.252383
0
VERTEX
8
1
10
67.582764
20
14.235687
42
0.073104
0
VERTEX
8
1
10
67.749336
20
14.329315
42
-0.055681
0
VERTEX
8
1
10
68.098434
20
14.538134
42
-0.113053
0
VERTEX
8
1
10
68.262138
20
14.556259
42
-0.112098
0
VERTEX
8
1
10
68.403641
20
14.477263
42
0.257332
0
VERTEX
8
1
10
68.662170
20
14.443657
0
VERTEX
8
1
10
68.696991
20
14.456100
42
0.052380
0
VERTEX
8
1
10
69.100792
20
14.691150
42
-0.082474
0
VERTEX
8
1
10
69.197098
20
14.733932
42
-0.184704
0
VERTEX
8
1
10
69.328278
20
14.691933
42
-0.054965
0
VERTEX
8
1
10
69.444778
20
14.591758
42
-0.011310
0
VERTEX
8
1
10
69.650818
20
14.386490
42
0.304231
0
VERTEX
8
1
10
69.675797
20
14.382980
42
0.001829
0
VERTEX
8
1
10
69.901192
20
14.459652
42
-0.215234
0
VERTEX
8
1
10
70.165405
20
14.401497
0
VERTEX
8
1
10
70.196190
20
14.380272
42
-0.024963
0
VERTEX
8
1
10
70.413971
20
14.181198
42
-0.041078
0
VERTEX
8
1
10
70.374123
20
14.521194
42
-0.151340
0
VERTEX
8
1
10
70.438866
20
14.699030
42
-0.415840
0
VERTEX
8
1
10
70.589775
20
14.700439
42
-0.087932
0
VERTEX
8
1
10
70.725906
20
14.504975
42
0.025452
0
VERTEX
8
1
10
70.939980
20
14.126750
42
0.094617
0
VERTEX
8
1
10
71.047363
20
14.026283
42
-0.094921
0
VERTEX
8
1
10
71.306870
20
13.762398
0
VERTEX
8
1
10
71.324913
20
13.739455
42
-0.389563
0
VERTEX
8
1
10
71.323364
20
13.490238
42
0.000074
0
VERTEX
8
1
10
71.280457
20
13.428850
0
VERTEX
8
1
10
71.289474
20
13.425194
0
VERTEX
8
1
10
71.315681
20
13.421280
42
0.092551
0
VERTEX
8
1
10
71.928116
20
13.523079
42
-0.045605
0
VERTEX
8
1
10
72.267204
20
13.645302
42
0.063595
0
VERTEX
8
1
10
72.594231
20
13.788971
42
0.024059
0
VERTEX
8
1
10
72.968681
20
13.985553
42
0.116343
0
VERTEX
8
1
10
73.122215
20
14.151970
42
-0.027054
0
VERTEX
8
1
10
73.347961
20
14.481407
42
-0.120893
0
VERTEX
8
1
10
73.438972
20
14.538087
42
-0.250241
0
VERTEX
8
1
10
73.561432
20
14.493195
42
-0.057142
0
VERTEX
8
1
10
73.747475
20
14.247116
0
VERTEX
8
1
10
73.793327
20
14.218475
42
-0.065090
0
VERTEX
8
1
10
74.707352
20
13.695046
42
-0.057633
0
VERTEX
8
1
10
74.977112
20
13.418327
42
0.024157
0
VERTEX
8
1
10
75.543297
20
12.780022
42
0.143877
0
VERTEX
8
1
10
75.852509
20
12.662666
42
-0.112540
0
VERTEX
8
1
10
76.028488
20
12.586288
0
VERTEX
8
1
10
76.236771
20
12.308617
42
-0.086309
0
VERTEX
8
1
10
76.373314
20
11.992477
0
VERTEX
8
1
10
76.375710
20
11.965820
42
-0.010403
0
VERTEX
8
1
10
76.348000
20
11.280861
42
0.030387
0
VERTEX
8
1
10
76.216843
20
10.784981
42
0.096372
0
VERTEX
8
1
10
76.299416
20
10.099637
42
0.109741
0
VERTEX
8
1
10
76.359550
20
10.004433
42
0.006817
0
VERTEX
8
1
10
76.566917
20
9.857462
42
0.195236
0
VERTEX
8
1
10
76.652161
20
9.853606
42
-0.211839
0
VERTEX
8
1
10
76.729958
20
9.823489
42
0.442368
0
VERTEX
8
1
10
76.794785
20
9.843925
42
0.136753
0
VERTEX
8
1
10
76.837120
20
10.026867
42
-0.083262
0
VERTEX
8
1
10
76.869789
20
10.160390
42
-0.231715
0
VERTEX
8
1
10
76.930618
20
10.197257
42
-0.072234
0
VERTEX
8
1
10
77.066399
20
10.204859
42
-0.357675
0
VERTEX
8
1
10
77.097420
20
10.157257
42
-0.097058
0
VERTEX
8
1
10
77.067604
20
9.875557
42
-0.128316
0
VERTEX
8
1
10
76.811081
20
9.551512
42
0.150229
0
VERTEX
8
1
10
76.755341
20
9.455826
42
0.225311
0
VERTEX
8
1
10
76.792343
20
9.376457
42
0.058630
0
VERTEX
8
1
10
77.077927
20
9.188713
42
-0.264138
0
VERTEX
8
1
10
77.197197
20
9.034386
42
0.090265
0
VERTEX
8
1
10
77.368622
20
8.562157
42
0.031541
0
VERTEX
8
1
10
77.601189
20
8.308348
42
0.078168
0
VERTEX
8
1
10
77.783989
20
8.188644
42
0.240239
0
VERTEX
8
1
10
77.946129
20
8.227898
42
0.196723
0
VERTEX
8
1
10
77.972969
20
8.326797
42
-0.033335
0
VERTEX
8
1
10
77.968491
20
8.496809
0
VERTEX
8
1
10
77.971779
20
8.505070
42
-0.507782
0
VERTEX
8
1
10
78.019028
20
8.516601
42
-0.216796
0
VERTEX
8
1
10
78.159142
20
8.294510
42
-0.030932
0
VERTEX
8
1
10
78.182037
20
8.030350
42
0.079592
0
VERTEX
8
1
10
78.177872
20
7.782023
42
0.172055
0
VERTEX
8
1
10
78.259109
20
7.662979
42
0.027993
0
VERTEX
8
1
10
78.459190
20
7.537285
42
-0.107531
0
VERTEX
8
1
10
78.672928
20
7.295104
42
-0.086548
0
VERTEX
8
1
10
78.789940
20
7.005806
42
0.108428
0
VERTEX
8
1
10
79.301933
20
6.728226
42
-0.027323
0
VERTEX
8
1
10
79.734749
20
6.637146
42
-0.169313
0
VERTEX
8
1
10
79.936142
20
6.476845
42
-0.036539
0
VERTEX
8
1
10
80.094315
20
6.205282
42
0.024724
0
VERTEX
8
1
10
80.283836
20
5.897690
42
-0.093509
0
VERTEX
8
1
10
80.374496
20
5.623795
42
0.093747
0
VERTEX
8
1
10
80.478561
20
5.336682
42
0.293682
0
VERTEX
8
1
10
80.652222
20
5.284775
42
0.066829
0
VERTEX
8
1
10
80.837837
20
5.338501
42
0.035599
0
VERTEX
8
1
10
81.378334
20
5.595993
42
-0.365428
0
VERTEX
8
1
10
81.643822
20
5.559479
42
0.099643
0
VERTEX
8
1
10
81.801521
20
5.431932
0
VERTEX
8
1
10
81.826164
20
5.421229
0
VERTEX
8
1
10
81.851395
20
5.412003
0
VERTEX
8
1
10
81.858711
20
5.422821
42
0.043030
0
VERTEX
8
1
10
81.966225
20
5.732330
42
0.140335
0
VERTEX
8
1
10
81.947617
20
5.865578
42
-0.035640
0
VERTEX
8
1
10
81.831772
20
6.187133
42
-0.106977
0
VERTEX
8
1
10
81.831367
20
6.401237
42
-0.098751
0
VERTEX
8
1
10
81.916626
20
6.531067
42
0.122502
0
VERTEX
8
1
10
81.943130
20
6.604057
42
0.039235
0
VERTEX
8
1
10
81.994301
20
7.028160
42
0.001843
0
VERTEX
8
1
10
82.021599
20
8.692322
42
0.114591
0
VERTEX
8
1
10
81.971466
20
8.856575
42
0.054132
0
VERTEX
8
1
10
81.642601
20
9.343462
42
0.007481
0
VERTEX
8
1
10
81.417931
20
9.618340
0
VERTEX
8
1
10
81.374451
20
9.681000
0
VERTEX
8
1
10
81.326897
20
9.755622
42
-0.025713
0
VERTEX
8
1
10
80.751068
20
10.864449
42
0.041776
0
VERTEX
8
1
10
80.157974
20
11.735989
42
0.065992
0
VERTEX
8
1
10
80.046822
20
11.835368
42
-0.129106
0
VERTEX
8
1
10
79.957268
20
11.972685
42
-0.092740
0
VERTEX
8
1
10
79.856224
20
12.408191
0
VERTEX
8
1
10
79.857147
20
12.413098
0
SEQEND
0
POLYLINE
8
1
66
1
70
1
0
VERTEX
8
1
10
66.013596
20
14.222801
42
0.139013
0
VERTEX
8
1
10
66.209671
20
14.243093
0
VERTEX
8
1
10
66.213257
20
14.247020
0
VERTEX
8
1
10
66.215935
20
14.251610
42
-0.100894
0
VERTEX
8
1
10
66.300552
20
14.687080
0
VERTEX
8
1
10
66.313591
20
14.710358
0
VERTEX
8
1
10
66.327835
20
14.731172
42
-0.433447
0
VERTEX
8
1
10
66.510437
20
14.763863
42
-0.105205
0
VERTEX
8
1
10
66.758163
20
14.480008
0
VERTEX
8
1
10
66.775070
20
14.456013
42
0.046417
0
VERTEX
8
1
10
67.033279
20
14.195259
42
0.117963
0
VERTEX
8
1
10
67.150635
20
14.183807
42
0.114929
0
VERTEX
8
1
10
67.442238
20
14.255638
42
0.107329
0
VERTEX
8
1
10
67.465988
20
14.280220
42
-0.034454
0
VERTEX
8
1
10
67.508263
20
14.632179
42
0.091536
0
VERTEX
8
1
10
67.512146
20
14.882645
42
0.134544
0
VERTEX
8
1
10
67.364990
20
15.080994
42
-0.045059
0
VERTEX
8
1
10
67.118355
20
15.325336
42
-0.097263
0
VERTEX
8
1
10
67.068878
20
15.433838
42
-0.134047
0
VERTEX
8
1
10
67.027016
20
15.584229
42
-0.214599
0
VERTEX
8
1
10
67.092453
20
15.689339
42
-0.147493
0
VERTEX
8
1
10
67.311096
20
15.784851
0
VERTEX
8
1
10
67.356598
20
15.792893
42
-0.014170
0
VERTEX
8
1
10
68.521698
20
15.928123
42
-0.004625
0
VERTEX
8
1
10
71.588226
20
16.193863
0
VERTEX
8
1
10
71.610718
20
16.204323
42
-0.031327
0
VERTEX
8
1
10
71.361305
20
16.643265
42
-0.106788
0
VERTEX
8
1
10
71.346596
20
16.760452
42
0.022118
0
VERTEX
8
1
10
71.345337
20
17.289299
42
0.047627
0
VERTEX
8
1
10
71.321037
20
17.404266
42
0.002272
0
VERTEX
8
1
10
71.185600
20
17.841042
42
-0.046389
0
VERTEX
8
1
10
71.179390
20
18.184809
42
-0.004896
0
VERTEX
8
1
10
71.187416
20
18.358925
42
-0.147089
0
VERTEX
8
1
10
71.186394
20
18.592545
42
-0.178536
0
VERTEX
8
1
10
71.266014
20
18.681999
42
0.104490
0
VERTEX
8
1
10
71.427582
20
18.867245
0
VERTEX
8
1
10
71.429070
20
18.873283
42
0.006712
0
VERTEX
8
1
10
71.316406
20
18.919571
42
-0.303571
0
VERTEX
8
1
10
71.243904
20
19.064156
42
0.042699
0
VERTEX
8
1
10
71.220161
20
19.280716
42
-0.057588
0
VERTEX
8
1
10
70.877739
20
19.796482
42
-0.045307
0
VERTEX
8
1
10
70.828438
20
19.940025
0
VERTEX
8
1
10
70.696159
20
20.418045
42
-0.002932
0
VERTEX
8
1
10
69.821175
20
23.714708
0
VERTEX
8
1
10
69.700623
20
24.174795
0
VERTEX
8
1
10
69.671494
20
24.267809
42
-0.004501
0
VERTEX
8
1
10
65.467896
20
23.874512
42
-0.274619
0
VERTEX
8
1
10
65.563080
20
23.579651
0
VERTEX
8
1
10
65.556938
20
23.526970
0
VERTEX
8
1
10
65.549149
20
23.393326
42
0.005061
0
VERTEX
8
1
10
65.497307
20
20.993732
42
0.002336
0
VERTEX
8
1
10
65.454025
20
16.974520
42
0.008511
0
VERTEX
8
1
10
65.627495
20
15.750436
42
-0.010295
0
VERTEX
8
1
10
65.791962
20
14.444020
42
-0.030767
0
VERTEX
8
1
10
65.795166
20
14.278282
0
VERTEX
8
1
10
65.800011
20
14.272537
42
0.081224
0
SEQEND
0
POLYLINE
8
1
66
1
70
1
0
VERTEX
8
1
10
85.955002
20
39.303993
42
-0.006355
0
VERTEX
8
1
10
85.968323
20
39.553696
42
-0.012088
0
VERTEX
8
1
10
86.057442
20
39.843697
0
VERTEX
8
1
10
86.059669
20
39.855820
0
VERTEX
8
1
10
86.061073
20
39.868065
0
VERTEX
8
1
10
86.049988
20
39.881096
0
VERTEX
8
1
10
86.033760
20
39.895920
42
0.034387
0
VERTEX
8
1
10
85.706696
20
40.097649
42
0.059931
0
VERTEX
8
1
10
85.593040
20
40.155876
42
0.009998
0
VERTEX
8
1
10
84.692497
20
40.505051
42
0.022326
0
VERTEX
8
1
10
84.370148
20
39.730484
0
VERTEX
8
1
10
84.369049
20
39.712494
42
0.060030
0
VERTEX
8
1
10
84.426369
20
39.420052
42
-0.138236
0
VERTEX
8
1
10
84.398727
20
39.245651
42
0.074584
0
VERTEX
8
1
10
84.338074
20
39.018150
42
0.211420
0
VERTEX
8
1
10
84.347198
20
39.006851
42
-0.001881
0
VERTEX
8
1
10
84.490181
20
38.956978
42
-0.092602
0
VERTEX
8
1
10
84.603065
20
38.877884
0
VERTEX
8
1
10
85.048630
20
38.432327
42
-0.064898
0
VERTEX
8
1
10
85.225594
20
38.114288
42
-0.201797
0
VERTEX
8
1
10
85.199524
20
37.943840
42
-0.051674
0
VERTEX
8
1
10
85.013512
20
37.685303
42
0.047989
0
VERTEX
8
1
10
84.888924
20
37.449780
42
-0.074650
0
VERTEX
8
1
10
84.752037
20
37.249294
42
-0.188045
0
VERTEX
8
1
10
84.504601
20
37.152176
0
VERTEX
8
1
10
84.485870
20
37.143608
42
0.073501
0
VERTEX
8
1
10
84.432129
20
36.769646
42
0.106817
0
VERTEX
8
1
10
84.472801
20
36.632141
42
0.024037
0
VERTEX
8
1
10
84.677193
20
36.254585
42
-0.062893
0
VERTEX
8
1
10
84.824112
20
36.068771
42
-0.038002
0
VERTEX
8
1
10
84.847588
20
35.990730
42
0.107045
0
VERTEX
8
1
10
85.068344
20
35.983948
42
-0.238056
0
VERTEX
8
1
10
85.329369
20
35.982109
42
0.028208
0
VERTEX
8
1
10
85.504692
20
35.907593
42
-0.039859
0
VERTEX
8
1
10
85.752525
20
35.751701
0
VERTEX
8
1
10
85.756256
20
35.751862
0
VERTEX
8
1
10
85.760292
20
35.770309
0
VERTEX
8
1
10
85.771965
20
35.847431
42
-0.032869
0
VERTEX
8
1
10
85.893646
20
36.335278
42
-0.042652
0
VERTEX
8
1
10
85.980789
20
36.532066
42
0.008682
0
VERTEX
8
1
10
86.120598
20
36.831665
42
0.016199
0
VERTEX
8
1
10
86.300919
20
37.159801
42
0.090868
0
VERTEX
8
1
10
86.331940
20
37.306519
42
0.028353
0
VERTEX
8
1
10
86.317078
20
38.152466
0
VERTEX
8
1
10
86.298103
20
38.157509
0
VERTEX
8
1
10
86.279556
20
38.175583
0
VERTEX
8
1
10
86.261780
20
38.204277
42
-0.110446
0
VERTEX
8
1
10
86.191902
20
38.529858
42
0.471255
0
VERTEX
8
1
10
86.185722
20
38.566185
42
0.083466
0
VERTEX
8
1
10
85.991684
20
38.695557
42
-0.127817
0
VERTEX
8
1
10
85.873924
20
38.841400
42
-0.055340
0
VERTEX
8
1
10
85.783806
20
39.088531
42
-0.267413
0
VERTEX
8
1
10
85.851601
20
39.232246
42
-0.071027
0
VERTEX
8
1
10
85.940018
20
39.289261
0
SEQEND
0
POLYLINE
8
1
66
1
70
1
0
VERTEX
8
1
10
84.682571
20
35.942337
42
0.045053
0
VERTEX
8
1
10
84.716789
20
35.991608
42
0.165781
0
VERTEX
8
1
10
84.706535
20
36.025505
42
0.044189
0
VERTEX
8
1
10
84.576324
20
36.180351
42
-0.036095
0
VERTEX
8
1
10
84.333519
20
36.642120
42
-0.129663
0
VERTEX
8
1
10
84.313194
20
36.916821
42
-0.037551
0
VERTEX
8
1
10
84.358871
20
37.155945
42
-0.097875
0
VERTEX
8
1
10
84.061592
20
37.107006
42
0.310408
0
VERTEX
8
1
10
83.954437
20
37.022362
0
VERTEX
8
1
10
83.945541
20
36.999863
42
-0.024920
0
VERTEX
8
1
10
83.873810
20
36.777626
42
-0.007560
0
VERTEX
8
1
10
84.104324
20
35.857231
42
0.034908
0
VERTEX
8
1
10
84.139450
20
35.709473
42
0.002980
0
VERTEX
8
1
10
84.428688
20
34.616188
0
VERTEX
8
1
10
85.007927
20
34.408936
0
VERTEX
8
1
10
85.006752
20
34.405663
42
0.029124
0
VERTEX
8
1
10
85.236977
20
34.563652
0
VERTEX
8
1
10
85.256172
20
34.576035
42
0.217482
0
VERTEX
8
1
10
85.356110
20
34.698441
42
-0.017549
0
VERTEX
8
1
10
85.421890
20
34.917511
42
0.128659
0
VERTEX
8
1
10
85.349541
20
35.065186
42
0.047159
0
VERTEX
8
1
10
85.215485
20
35.214584
42
0.735972
0
VERTEX
8
1
10
85.215286
20
35.222572
42
0.097342
0
VERTEX
8
1
10
85.049866
20
35.353077
0
VERTEX
8
1
10
85.006973
20
35.382378
42
-0.063853
0
VERTEX
8
1
10
84.663071
20
35.715881
0
VERTEX
8
1
10
84.648079
20
35.740799
42
-0.332785
0
VERTEX
8
1
10
84.659370
20
35.911171
0
VERTEX
8
1
10
84.671822
20
35.928368
0
SEQEND
0
POLYLINE
8
1
66
1
70
1
0
VERTEX
8
1
10
64.435150
20
39.520020
0
VERTEX
8
1
10
60.141346
20
39.223892
42
0.090672
0
VERTEX
8
1
10
60.258587
20
39.059601
42
0.103173
0
VERTEX
8
1
10
60.456173
20
39.068008
42
-0.324837
0
VERTEX
8
1
10
60.571964
20
38.999916
42
-0.025694
0
VERTEX
8
1
10
60.650387
20
38.781414
42
0.195416
0
VERTEX
8
1
10
60.902435
20
38.531223
42
0.049761
0
VERTEX
8
1
10
61.007534
20
38.494270
0
VERTEX
8
1
10
61.007580
20
38.484207
0
VERTEX
8
1
10
61.007702
20
37.841385
0
VERTEX
8
1
10
60.729332
20
37.507332
42
-0.321517
0
VERTEX
8
1
10
60.371254
20
37.109013
42
0.000120
0
VERTEX
8
1
10
60.028496
20
37.022659
42
0.007719
0
VERTEX
8
1
10
59.708687
20
36.969440
42
0.186034
0
VERTEX
8
1
10
59.677616
20
36.942482
42
0.141901
0
VERTEX
8
1
10
59.621769
20
36.674942
42
0.069128
0
VERTEX
8
1
10
59.709423
20
36.496925
42
0.013809
0
VERTEX
8
1
10
59.890587
20
36.172245
42
-0.262141
0
VERTEX
8
1
10
59.869198
20
35.974689
42
-0.083364
0
VERTEX
8
1
10
59.751152
20
35.830070
0
VERTEX
8
1
10
59.666824
20
35.493111
42
0.012104
0
VERTEX
8
1
10
59.312073
20
35.231457
42
0.235112
0
VERTEX
8
1
10
59.282440
20
35.131531
42
-0.034793
0
VERTEX
8
1
10
59.280266
20
34.944267
42
-0.117420
0
VERTEX
8
1
10
59.115982
20
34.613701
42
0.015332
0
VERTEX
8
1
10
59.063358
20
34.066559
42
0.088593
0
VERTEX
8
1
10
59.127865
20
33.690704
0
VERTEX
8
1
10
59.137806
20
33.673943
42
0.010913
0
VERTEX
8
1
10
59.572495
20
33.106361
0
VERTEX
8
1
10
60.064835
20
32.860069
0
VERTEX
8
1
10
60.116154
20
32.828918
0
VERTEX
8
1
10
60.164192
20
32.792007
42
-0.105306
0
VERTEX
8
1
10
60.450455
20
32.380600
0
VERTEX
8
1
10
60.502720
20
31.963387
42
0.166871
0
VERTEX
8
1
10
60.684711
20
31.943237
42
-0.115094
0
VERTEX
8
1
10
60.993004
20
32.009850
42
0.000423
0
VERTEX
8
1
10
61.309772
20
31.786121
0
VERTEX
8
1
10
61.327900
20
31.768265
42
-0.106198
0
VERTEX
8
1
10
61.432190
20
31.541231
0
VERTEX
8
1
10
61.439968
20
31.504333
42
-0.175130
0
VERTEX
8
1
10
61.435741
20
31.301971
42
-0.024017
0
VERTEX
8
1
10
61.316219
20
31.027119
42
0.013600
0
VERTEX
8
1
10
61.185337
20
30.683401
42
0.158200
0
VERTEX
8
1
10
61.188030
20
30.551094
42
0.071986
0
VERTEX
8
1
10
61.429241
20
30.107452
0
VERTEX
8
1
10
61.442837
20
30.094360
0
VERTEX
8
1
10
61.457935
20
30.082207
42
0.034878
0
VERTEX
8
1
10
61.836773
20
29.869820
42
-0.065110
0
VERTEX
8
1
10
62.257320
20
29.595970
42
-0.015126
0
VERTEX
8
1
10
62.608021
20
29.290199
42
-0.070994
0
VERTEX
8
1
10
62.760624
20
28.788155
42
-0.058893
0
VERTEX
8
1
10
62.734791
20
28.329491
0
VERTEX
8
1
10
63.034847
20
28.029427
42
0.142584
0
VERTEX
8
1
10
63.224239
20
28.007454
42
0.057252
0
VERTEX
8
1
10
63.263721
20
28.078352
42
-0.112327
0
VERTEX
8
1
10
63.539272
20
28.399025
42
-0.134231
0
VERTEX
8
1
10
63.646694
20
28.464508
42
-0.279232
0
VERTEX
8
1
10
63.745571
20
28.408737
42
0.206966
0
VERTEX
8
1
10
63.919605
20
28.291458
42
-0.021002
0
VERTEX
8
1
10
64.177391
20
28.231178
42
-0.024365
0
VERTEX
8
1
10
64.305450
20
28.170397
42
0.320273
0
VERTEX
8
1
10
64.338127
20
28.185608
42
0.057205
0
VERTEX
8
1
10
64.393539
20
28.295372
42
0.097511
0
VERTEX
8
1
10
64.367485
20
28.433929
42
-0.080002
0
VERTEX
8
1
10
64.316177
20
28.713120
42
-0.086883
0
VERTEX
8
1
10
64.368523
20
28.908506
42
-0.401107
0
VERTEX
8
1
10
64.462364
20
28.921722
42
-0.014199
0
VERTEX
8
1
10
64.558167
20
28.984756
42
-0.172538
0
VERTEX
8
1
10
64.725601
20
28.997032
42
0.188614
0
VERTEX
8
1
10
64.871567
20
29.021591
0
VERTEX
8
1
10
64.871063
20
29.026497
0
VERTEX
8
1
10
64.869041
20
29.032974
42
0.051325
0
VERTEX
8
1
10
64.764313
20
29.176414
42
-0.161341
0
VERTEX
8
1
10
64.660904
20
29.541359
0
VERTEX
8
1
10
64.665138
20
29.567360
42
-0.154743
0
VERTEX
8
1
10
64.822685
20
29.769831
42
-0.019343
0
VERTEX
8
1
10
64.880730
20
29.813034
42
0.059124
0
VERTEX
8
1
10
64.849426
20
30.081306
0
VERTEX
8
1
10
64.846092
20
30.110878
42
-0.074568
0
VERTEX
8
1
10
64.911285
20
30.597084
0
VERTEX
8
1
10
64.938072
20
30.706528
42
-0.186845
0
VERTEX
8
1
10
65.033127
20
30.875107
42
0.036228
0
VERTEX
8
1
10
65.190437
20
31.042114
42
0.170679
0
VERTEX
8
1
10
65.215988
20
31.147652
42
-0.142193
0
VERTEX
8
1
10
65.411453
20
31.732979
42
0.081429
0
VERTEX
8
1
10
65.494736
20
31.968903
42
-0.021731
0
VERTEX
8
1
10
65.528915
20
32.064354
42
0.112710
0
VERTEX
8
1
10
65.490891
20
32.174026
42
0.033581
0
VERTEX
8
1
10
65.208092
20
32.591190
42
-0.217412
0
VERTEX
8
1
10
65.170990
20
32.833801
42
-0.095137
0
VERTEX
8
1
10
65.319023
20
33.176132
0
VERTEX
8
1
10
65.324760
20
33.207253
0
VERTEX
8
1
10
65.001839
20
38.535484
42
0.140469
0
VERTEX
8
1
10
64.860191
20
38.723198
42
0.001346
0
VERTEX
8
1
10
64.626297
20
38.919746
0
VERTEX
8
1
10
64.591980
20
38.953018
42
-0.203169
0
VERTEX
8
1
10
64.451019
20
39.287003
42
-0.029368
0
VERTEX
8
1
10
64.452248
20
39.507561
0
SEQEND
0
POLYLINE
8
1
66
1
70
1
0
VERTEX
8
1
10
63.641247
20
13.807861
42
0.032116
0
VERTEX
8
1
10
63.630802
20
13.913338
42
0.044184
0
VERTEX
8
1
10
63.485973
20
14.059418
42
-0.045712
0
VERTEX
8
1
10
63.159061
20
14.409878
42
-0.106647
0
VERTEX
8
1
10
63.077652
20
14.597595
42
-0.126780
0
VERTEX
8
1
10
63.099194
20
14.754631
42
-0.015554
0
VERTEX
8
1
10
63.258484
20
15.113592
42
0.098946
0
VERTEX
8
1
10
63.283756
20
15.241775
42
0.343845
0
VERTEX
8
1
10
63.233784
20
15.275917
0
VERTEX
8
1
10
63.163540
20
15.281090
0
VERTEX
8
1
10
63.044163
20
15.280586
42
0.011273
0
VERTEX
8
1
10
61.614964
20
15.190008
42
0.003320
0
VERTEX
8
1
10
59.951702
20
15.046715
42
-0.062005
0
VERTEX
8
1
10
59.881096
20
15.658865
42
-0.093960
0
VERTEX
8
1
10
59.929787
20
15.834824
42
0.053906
0
VERTEX
8
1
10
60.069088
20
16.249161
0
VERTEX
8
1
10
60.068371
20
16.261770
42
-0.500745
0
VERTEX
8
1
10
59.990753
20
16.374146
42
-0.071140
0
VERTEX
8
1
10
60.072529
20
16.556915
42
0.000168
0
VERTEX
8
1
10
60.433739
20
17.158155
42
-0.108332
0
VERTEX
8
1
10
60.571114
20
17.279442
42
0.072221
0
VERTEX
8
1
10
60.779991
20
17.435701
42
0.368980
0
VERTEX
8
1
10
60.783932
20
17.493156
0
VERTEX
8
1
10
60.611244
20
17.752281
0
VERTEX
8
1
10
60.612080
20
17.752586
0
VERTEX
8
1
10
60.717937
20
17.759651
42
0.116012
0
VERTEX
8
1
10
60.966335
20
17.831367
42
0.428939
0
VERTEX
8
1
10
60.995289
20
17.931900
42
0.233270
0
VERTEX
8
1
10
60.813492
20
18.085844
42
-0.128332
0
VERTEX
8
1
10
60.725990
20
18.155907
42
-0.212959
0
VERTEX
8
1
10
60.723747
20
18.265297
42
0.015921
0
VERTEX
8
1
10
60.755836
20
18.448837
0
VERTEX
8
1
10
60.748993
20
18.449257
42
-0.497718
0
VERTEX
8
1
10
60.550602
20
18.573769
42
-0.098675
0
VERTEX
8
1
10
60.573944
20
18.884674
42
0.109796
0
VERTEX
8
1
10
60.575138
20
19.028168
42
0.093545
0
VERTEX
8
1
10
60.431244
20
19.232552
0
VERTEX
8
1
10
60.410053
20
19.239365
42
-0.015421
0
VERTEX
8
1
10
60.238297
20
19.225004
42
-0.006825
0
VERTEX
8
1
10
58.210152
20
19.150171
42
-0.001322
0
VERTEX
8
1
10
55.564720
20
19.082018
0
VERTEX
8
1
10
55.524826
20
19.075073
0
VERTEX
8
1
10
55.507999
20
17.173805
0
VERTEX
8
1
10
55.889179
20
16.901421
42
0.000576
0
VERTEX
8
1
10
56.018116
20
16.409599
42
-0.110677
0
VERTEX
8
1
10
56.014179
20
16.261185
42
-0.299859
0
VERTEX
8
1
10
56.257999
20
15.879082
42
0.209616
0
VERTEX
8
1
10
56.382977
20
15.645483
42
0.009067
0
VERTEX
8
1
10
56.448280
20
15.588448
42
-0.110306
0
VERTEX
8
1
10
56.510925
20
15.442299
42
-0.042468
0
VERTEX
8
1
10
56.591389
20
14.717104
42
0.001677
0
VERTEX
8
1
10
56.388557
20
14.043473
42
0.003471
0
VERTEX
8
1
10
56.308239
20
13.399817
42
-0.027040
0
VERTEX
8
1
10
56.220131
20
12.961143
42
0.056939
0
VERTEX
8
1
10
56.121601
20
12.580833
42
-0.038739
0
VERTEX
8
1
10
56.072956
20
12.383301
0
VERTEX
8
1
10
56.075279
20
12.378654
42
-0.018718
0
VERTEX
8
1
10
57.254974
20
12.453699
42
-0.035929
0
VERTEX
8
1
10
57.499062
20
12.436661
0
VERTEX
8
1
10
57.543358
20
12.425270
42
0.042876
0
VERTEX
8
1
10
58.150150
20
12.264435
0
VERTEX
8
1
10
58.318535
20
12.230865
42
-0.073096
0
VERTEX
8
1
10
58.495384
20
12.149857
42
0.041629
0
VERTEX
8
1
10
58.859013
20
11.961401
42
0.171184
0
VERTEX
8
1
10
58.949970
20
11.956652
0
VERTEX
8
1
10
58.952930
20
11.959478
42
0.017996
0
VERTEX
8
1
10
59.117252
20
12.201493
42
-0.117121
0
VERTEX
8
1
10
59.221756
20
12.301516
0
VERTEX
8
1
10
59.230190
20
12.305565
42
0.074880
0
VERTEX
8
1
10
59.286247
20
12.570831
0
VERTEX
8
1
10
59.290691
20
12.601273
0
VERTEX
8
1
10
59.296398
20
12.629829
42
-0.329825
0
VERTEX
8
1
10
59.443390
20
12.776932
42
-0.264439
0
VERTEX
8
1
10
59.837421
20
12.666443
0
VERTEX
8
1
10
59.867393
20
12.637718
42
-0.017490
0
VERTEX
8
1
10
60.071285
20
12.390219
42
0.153375
0
VERTEX
8
1
10
60.123245
20
12.361824
42
-0.046407
0
VERTEX
8
1
10
60.478718
20
12.166485
42
0.055761
0
VERTEX
8
1
10
60.652382
20
12.088859
42
-0.135542
0
VERTEX
8
1
10
60.814938
20
11.960262
42
-0.324979
0
VERTEX
8
1
10
60.794144
20
11.789688
42
0.272634
0
VERTEX
8
1
10
60.753166
20
11.582298
0
VERTEX
8
1
10
60.759911
20
11.576050
0
VERTEX
8
1
10
60.769665
20
11.569748
42
0.071069
0
VERTEX
8
1
10
61.015301
20
11.495209
0
VERTEX
8
1
10
61.031765
20
11.497299
42
-0.423334
0
VERTEX
8
1
10
61.266762
20
11.662840
42
-0.084301
0
VERTEX
8
1
10
61.348774
20
11.636871
42
-0.040326
0
VERTEX
8
1
10
61.826252
20
11.387131
42
0.213162
0
VERTEX
8
1
10
61.884693
20
11.645386
42
-0.298957
0
VERTEX
8
1
10
61.969524
20
11.783607
42
-0.084829
0
VERTEX
8
1
10
62.309940
20
11.874652
42
-0.149339
0
VERTEX
8
1
10
62.464603
20
11.826187
42
0.010704
0
VERTEX
8
1
10
62.563732
20
11.805710
42
-0.237466
0
VERTEX
8
1
10
62.652637
20
11.710320
42
-0.006796
0
VERTEX
8
1
10
62.695824
20
11.517252
0
VERTEX
8
1
10
62.701584
20
11.503020
0
VERTEX
8
1
10
62.708515
20
11.489319
42
-0.077558
0
VERTEX
8
1
10
62.910347
20
11.675749
42
0.062599
0
VERTEX
8
1
10
63.033199
20
11.798645
42
-0.050527
0
VERTEX
8
1
10
62.732399
20
12.118032
42
-0.162279
0
VERTEX
8
1
10
62.707756
20
12.221960
42
-0.381079
0
VERTEX
8
1
10
62.816334
20
12.293419
42
-0.055816
0
VERTEX
8
1
10
62.945118
20
12.272041
42
-0.072334
0
VERTEX
8
1
10
63.275707
20
12.171641
42
-0.105587
0
VERTEX
8
1
10
63.360188
20
12.091812
0
VERTEX
8
1
10
63.383366
20
12.073098
42
0.020938
0
VERTEX
8
1
10
64.056801
20
11.675611
42
0.003287
0
VERTEX
8
1
10
64.415146
20
11.479043
0
VERTEX
8
1
10
64.463066
20
11.473907
42
0.104211
0
VERTEX
8
1
10
64.651672
20
11.635366
42
0.577833
0
VERTEX
8
1
10
64.639687
20
11.668922
42
0.095336
0
VERTEX
8
1
10
64.147827
20
11.859673
0
VERTEX
8
1
10
64.108902
20
11.869812
42
-0.089634
0
VERTEX
8
1
10
63.589611
20
12.168121
42
-0.117760
0
VERTEX
8
1
10
63.500660
20
12.282448
42
-0.127791
0
VERTEX
8
1
10
63.496426
20
12.373451
42
0.002178
0
VERTEX
8
1
10
63.454235
20
12.529101
42
-0.380522
0
VERTEX
8
1
10
63.570347
20
12.693954
0
VERTEX
8
1
10
63.584629
20
12.698883
42
0.050861
0
VERTEX
8
1
10
63.886944
20
12.797817
42
0.291396
0
VERTEX
8
1
10
64.005333
20
13.024226
42
0.196089
0
VERTEX
8
1
10
63.882969
20
13.297379
0
VERTEX
8
1
10
63.874004
20
13.301201
0
VERTEX
8
1
10
63.868633
20
13.298416
42
0.003403
0
VERTEX
8
1
10
63.671589
20
13.141508
42
-0.178518
0
VERTEX
8
1
10
63.542809
20
13.115030
42
-0.191989
0
VERTEX
8
1
10
63.467892
20
13.173866
42
-0.101400
0
VERTEX
8
1
10
63.402729
20
13.289284
42
-0.194017
0
VERTEX
8
1
10
63.430355
20
13.414925
42
-0.018972
0
VERTEX
8
1
10
63.585770
20
13.643647
42
0.048609
0
VERTEX
8
1
10
63.627850
20
13.732758
0
VERTEX
8
1
10
63.619892
20
13.756630
0
VERTEX
8
1
10
63.635235
20
13.761818
42
0.068105
0
SEQEND
0
POLYLINE
8
1
66
1
70
1
0
VERTEX
8
1
10
80.715355
20
21.681122
42
0.105320
0
VERTEX
8
1
10
80.967201
20
21.787437
42
0.093911
0
VERTEX
8
1
10
81.111877
20
22.059334
42
-0.016145
0
VERTEX
8
1
10
81.154572
20
22.753506
42
-0.138404
0
VERTEX
8
1
10
81.350151
20
23.195778
42
-0.030127
0
VERTEX
8
1
10
81.849182
20
23.745171
0
VERTEX
8
1
10
81.858032
20
23.762367
0
VERTEX
8
1
10
79.517891
20
25.378754
0
VERTEX
8
1
10
79.500763
20
25.379890
42
0.058528
0
VERTEX
8
1
10
79.058693
20
25.268425
42
-0.104777
0
VERTEX
8
1
10
78.853485
20
25.208496
42
-0.030662
0
VERTEX
8
1
10
77.859627
20
25.162621
0
VERTEX
8
1
10
77.525558
20
25.580208
0
VERTEX
8
1
10
77.520363
20
25.584610
42
0.023502
0
VERTEX
8
1
10
76.485558
20
25.728590
0
VERTEX
8
1
10
76.453918
20
25.728359
0
VERTEX
8
1
10
76.422340
20
25.726456
42
-0.091690
0
VERTEX
8
1
10
76.270676
20
25.684456
42
-0.016435
0
VERTEX
8
1
10
75.363335
20
25.585199
0
VERTEX
8
1
10
75.287384
20
25.577652
42
0.010416
0
VERTEX
8
1
10
74.463470
20
25.219879
42
0.008588
0
VERTEX
8
1
10
73.855743
20
24.885588
42
0.085771
0
VERTEX
8
1
10
73.780067
20
24.794821
42
0.057286
0
VERTEX
8
1
10
73.581047
20
24.411201
0
VERTEX
8
1
10
73.554230
20
24.345634
0
VERTEX
8
1
10
73.569542
20
24.326263
42
-0.027154
0
VERTEX
8
1
10
74.201752
20
23.938408
42
-0.074451
0
VERTEX
8
1
10
74.810417
20
23.248611
42
0.066419
0
VERTEX
8
1
10
74.956177
20
23.105331
42
0.042476
0
VERTEX
8
1
10
75.744644
20
22.602875
42
-0.023131
0
VERTEX
8
1
10
75.873405
20
22.222565
42
0.293282
0
VERTEX
8
1
10
75.972214
20
22.156792
42
0.015068
0
VERTEX
8
1
10
76.145370
20
22.153831
42
-0.154810
0
VERTEX
8
1
10
76.234207
20
22.118423
0
VERTEX
8
1
10
76.277763
20
22.086510
0
VERTEX
8
1
10
76.330460
20
22.044884
42
-0.017886
0
VERTEX
8
1
10
77.147728
20
21.304771
42
-0.138062
0
VERTEX
8
1
10
77.406044
20
20.778694
42
0.084131
0
VERTEX
8
1
10
77.622185
20
20.383354
42
0.148096
0
VERTEX
8
1
10
77.709557
20
20.350393
42
-0.333960
0
VERTEX
8
1
10
78.027924
20
19.968884
42
0.133652
0
VERTEX
8
1
10
78.086372
20
19.813637
42
-0.010543
0
VERTEX
8
1
10
78.217072
20
19.567904
42
0.035032
0
VERTEX
8
1
10
78.278374
20
19.479477
42
0.100565
0
VERTEX
8
1
10
78.422340
20
19.420784
42
0.027988
0
VERTEX
8
1
10
78.648567
20
19.374321
42
-0.045168
0
VERTEX
8
1
10
78.841675
20
19.566458
42
0.114752
0
VERTEX
8
1
10
78.879814
20
19.629402
0
VERTEX
8
1
10
78.877968
20
19.646858
0
VERTEX
8
1
10
78.871063
20
19.665710
42
0.035057
0
VERTEX
8
1
10
78.750122
20
19.827080
42
-0.165791
0
VERTEX
8
1
10
78.743065
20
19.871117
0
VERTEX
8
1
10
78.752342
20
19.881073
0
VERTEX
8
1
10
78.769379
20
19.888138
42
-0.051225
0
VERTEX
8
1
10
79.018387
20
19.883774
42
0.131651
0
VERTEX
8
1
10
79.153175
20
19.913879
42
0.132390
0
VERTEX
8
1
10
79.207283
20
19.980083
42
0.018839
0
VERTEX
8
1
10
79.269394
20
20.089081
42
0.178606
0
VERTEX
8
1
10
79.242630
20
20.260544
42
0.044716
0
VERTEX
8
1
10
79.142967
20
20.350372
42
-0.317396
0
VERTEX
8
1
10
79.145638
20
20.384506
42
-0.104762
0
VERTEX
8
1
10
79.250908
20
20.449074
42
-0.048901
0
VERTEX
8
1
10
79.623672
20
20.567032
42
0.231477
0
VERTEX
8
1
10
79.845116
20
20.743523
42
-0.075632
0
VERTEX
8
1
10
79.986313
20
20.901573
0
VERTEX
8
1
10
80.057259
20
20.961861
0
VERTEX
8
1
10
80.078880
20
20.981033
0
VERTEX
8
1
10
80.098976
20
21.000208
42
0.279008
0
VERTEX
8
1
10
80.166420
20
21.194092
0
VERTEX
8
1
10
80.160416
20
21.230232
42
-0.037184
0
VERTEX
8
1
10
80.108109
20
21.509903
0
VERTEX
8
1
10
80.108307
20
21.545792
42
-0.382074
0
VERTEX
8
1
10
80.217705
20
21.676348
42
-0.125283
0
VERTEX
8
1
10
80.467117
20
21.680229
42
0.087343
0
SEQEND
0
POLYLINE
8
1
66
1
70
1
0
VERTEX
8
1
10
22.025200
20
28.135033
42
0.017033
0
VERTEX
8
1
10
22.197222
20
28.569191
42
0.021021
0
VERTEX
8
1
10
22.308403
20
29.112312
42
0.033671
0
VERTEX
8
1
10
22.448643
20
29.866928
42
-0.013522
0
VERTEX
8
1
10
22.564863
20
30.647881
42
-0.003922
0
VERTEX
8
1
10
24.172556
20
39.876484
0
VERTEX
8
1
10
24.201115
20
40.018452
0
VERTEX
8
1
10
24.231157
20
40.160110
0
VERTEX
8
1
10
24.203154
20
40.170250
0
VERTEX
8
1
10
24.148417
20
40.184402
42
0.009597
0
VERTEX
8
1
10
22.844988
20
40.462372
42
0.002653
0
VERTEX
8
1
10
19.840612
20
41.048870
42
-0.008942
0
VERTEX
8
1
10
17.186481
20
41.632233
42
0.001614
0
VERTEX
8
1
10
15.453200
20
42.089622
42
0.006574
0
VERTEX
8
1
10
14.203103
20
37.251778
42
0.012424
0
VERTEX
8
1
10
13.986923
20
36.231453
42
0.025352
0
VERTEX
8
1
10
13.974163
20
36.089790
0
VERTEX
8
1
10
13.986993
20
36.064129
42
0.004784
0
VERTEX
8
1
10
15.186404
20
34.293243
42
0.001046
0
VERTEX
8
1
10
20.741590
20
26.240166
42
0.191879
0
VERTEX
8
1
10
20.786661
20
26.218918
42
0.202287
0
VERTEX
8
1
10
20.822504
20
26.272125
42
0.069116
0
VERTEX
8
1
10
20.855093
20
26.424423
42
0.007229
0
VERTEX
8
1
10
20.886724
20
27.433411
42
-0.067608
0
VERTEX
8
1
10
21.013657
20
28.109520
42
-0.176058
0
VERTEX
8
1
10
21.212030
20
28.325155
42
-0.099988
0
VERTEX
8
1
10
21.433714
20
28.400497
42
-0.165906
0
VERTEX
8
1
10
21.595881
20
28.335121
42
0.004761
0
VERTEX
8
1
10
21.875080
20
28.103773
42
0.131780
0
VERTEX
8
1
10
22.021509
20
28.054205
0
VERTEX
8
1
10
22.025312
20
28.055964
0
VERTEX
8
1
10
22.028505
20
28.058678
42
0.111754
0
VERTEX
8
1
10
22.017832
20
28.116333
0
SEQEND
0
POLYLINE
8
1
66
1
70
1
0
VERTEX
8
1
10
40.139400
20
44.799347
42
-0.014393
0
VERTEX
8
1
10
40.118408
20
44.578632
42
-0.000485
0
VERTEX
8
1
10
39.847622
20
40.527912
0
VERTEX
8
1
10
39.898094
20
40.387711
42
0.010130
0
VERTEX
8
1
10
45.339191
20
40.088421
42
0.009821
0
VERTEX
8
1
10
47.180786
20
40.070007
0
VERTEX
8
1
10
47.543606
20
40.078972
0
VERTEX
8
1
10
47.867863
20
40.093620
42
-0.102585
0
VERTEX
8
1
10
48.476841
20
39.809780
42
-0.052535
0
VERTEX
8
1
10
48.598949
20
39.689728
0
VERTEX
8
1
10
48.848217
20
39.553825
0
VERTEX
8
1
10
49.056793
20
39.788475
0
VERTEX
8
1
10
49.059326
20
39.788551
0
VERTEX
8
1
10
49.881088
20
39.759201
42
0.065134
0
VERTEX
8
1
10
50.311390
20
39.544174
42
-0.045965
0
VERTEX
8
1
10
50.757710
20
39.417671
42
0.012525
0
VERTEX
8
1
10
51.032051
20
39.153870
42
0.007384
0
VERTEX
8
1
10
50.915318
20
39.545925
42
-0.224452
0
VERTEX
8
1
10
50.983757
20
39.817024
42
0.040554
0
VERTEX
8
1
10
51.211182
20
40.165859
42
0.093214
0
VERTEX
8
1
10
51.222748
20
40.224594
42
0.036705
0
VERTEX
8
1
10
51.136700
20
40.362717
42
-0.138823
0
VERTEX
8
1
10
51.064896
20
40.665527
42
-0.032684
0
VERTEX
8
1
10
51.076641
20
40.864288
0
VERTEX
8
1
10
51.041119
20
41.148445
0
VERTEX
8
1
10
51.041481
20
41.148727
0
VERTEX
8
1
10
51.214260
20
41.148735
0
VERTEX
8
1
10
51.215096
20
41.149109
0
VERTEX
8
1
10
51.161491
20
44.714088
0
VERTEX
8
1
10
51.150326
20
44.717476
42
-0.205510
0
VERTEX
8
1
10
50.900803
20
44.828590
42
-0.162809
0
VERTEX
8
1
10
50.852276
20
44.971310
42
0.096309
0
VERTEX
8
1
10
50.813122
20
45.093765
42
0.095734
0
VERTEX
8
1
10
50.629665
20
45.200108
42
-0.407327
0
VERTEX
8
1
10
50.531387
20
45.425270
42
-0.117273
0
VERTEX
8
1
10
50.700310
20
45.679642
0
VERTEX
8
1
10
50.735634
20
45.715042
0
VERTEX
8
1
10
50.770252
20
45.701317
42
0.477786
0
VERTEX
8
1
10
50.887234
20
45.748459
0
VERTEX
8
1
10
50.940853
20
45.882515
0
VERTEX
8
1
10
50.976982
20
46.045074
42
-0.019067
0
VERTEX
8
1
10
49.374077
20
46.010155
42
-0.009224
0
VERTEX
8
1
10
46.362206
20
46.080910
42
-0.005998
0
VERTEX
8
1
10
40.279217
20
46.381252
0
VERTEX
8
1
10
40.236897
20
46.318092
42
-0.003283
0
SEQEND
0
POLYLINE
8
1
66
1
70
1
0
VERTEX
8
1
10
43.128296
20
52.777802
42
-0.003643
0
VERTEX
8
1
10
40.604897
20
52.962582
42
-0.001144
0
VERTEX
8
1
10
40.254215
20
46.612583
0
VERTEX
8
1
10
40.271908
20
46.506931
42
0.007574
0
VERTEX
8
1
10
47.623772
20
46.162888
42
0.009850
0
VERTEX
8
1
10
50.253132
20
46.139874
42
0.009810
0
VERTEX
8
1
10
50.972157
20
46.170349
0
VERTEX
8
1
10
50.985344
20
46.179924
42
0.081028
0
VERTEX
8
1
10
50.922993
20
46.390312
42
-0.096238
0
VERTEX
8
1
10
50.910614
20
46.493656
42
0.035665
0
VERTEX
8
1
10
50.884453
20
46.710144
0
VERTEX
8
1
10
50.830978
20
46.951073
0
VERTEX
8
1
10
50.689224
20
47.178070
0
VERTEX
8
1
10
50.632965
20
48.218811
42
0.003118
0
VERTEX
8
1
10
50.427231
20
49.613060
42
0.047283
0
VERTEX
8
1
10
50.309273
20
50.013111
42
0.104140
0
VERTEX
8
1
10
50.258530
20
50.074570
42
-0.026601
0
VERTEX
8
1
10
50.105053
20
50.259682
0
VERTEX
8
1
10
50.104935
20
52.486900
0
VERTEX
8
1
10
50.006104
20
52.489468
42
-0.012874
0
SEQEND
0
POLYLINE
8
1
66
1
70
1
0
VERTEX
8
1
10
20.583418
20
44.079060
42
0.012935
0
VERTEX
8
1
10
20.317898
20
43.127762
42
-0.013431
0
VERTEX
8
1
10
19.985617
20
42.062416
42
0.049624
0
VERTEX
8
1
10
19.905071
20
41.412441
42
0.008660
0
VERTEX
8
1
10
19.897118
20
41.165630
42
-0.005743
0
VERTEX
8
1
10
24.075151
20
40.332382
42
-0.032742
0
VERTEX
8
1
10
24.333126
20
40.256371
0
VERTEX
8
1
10
28.805113
20
39.547401
0
VERTEX
8
1
10
28.812462
20
39.566254
0
VERTEX
8
1
10
29.570938
20
44.577637
0
VERTEX
8
1
10
29.573532
20
44.597672
0
VERTEX
8
1
10
29.200294
20
45.087547
0
VERTEX
8
1
10
29.103245
20
44.932266
0
VERTEX
8
1
10
28.859272
20
44.749207
0
VERTEX
8
1
10
28.857861
20
44.748436
0
VERTEX
8
1
10
28.383348
20
44.689125
42
0.045815
0
VERTEX
8
1
10
27.815380
20
44.831047
42
0.110044
0
VERTEX
8
1
10
27.425694
20
44.774170
42
-0.087357
0
VERTEX
8
1
10
26.939941
20
44.813091
42
-0.203950
0
VERTEX
8
1
10
26.752766
20
44.985523
42
-0.073521
0
VERTEX
8
1
10
26.613647
20
45.370358
42
-0.004550
0
VERTEX
8
1
10
26.577978
20
45.517555
0
VERTEX
8
1
10
26.572987
20
45.523872
42
0.091741
0
VERTEX
8
1
10
26.450974
20
45.581291
42
0.044635
0
VERTEX
8
1
10
26.140118
20
45.646088
0
VERTEX
8
1
10
26.241480
20
45.950455
0
VERTEX
8
1
10
26.241127
20
45.955414
42
0.035557
0
VERTEX
8
1
10
26.062603
20
46.595001
42
-0.084834
0
VERTEX
8
1
10
26.032375
20
47.206440
42
-0.023846
0
VERTEX
8
1
10
26.076035
20
47.530861
0
VERTEX
8
1
10
26.072020
20
47.537636
42
0.094144
0
VERTEX
8
1
10
25.936993
20
47.547890
42
0.037592
0
VERTEX
8
1
10
25.738092
20
47.524940
42
0.013015
0
VERTEX
8
1
10
25.337076
20
47.353622
42
-0.129973
0
VERTEX
8
1
10
25.171961
20
47.352139
42
-0.125670
0
VERTEX
8
1
10
24.823032
20
47.509087
42
-0.237575
0
VERTEX
8
1
10
24.778896
20
47.644859
42
-0.079062
0
VERTEX
8
1
10
24.844206
20
47.892166
42
-0.038762
0
VERTEX
8
1
10
24.924856
20
48.071007
42
0.031922
0
VERTEX
8
1
10
25.183582
20
48.362091
42
0.158235
0
VERTEX
8
1
10
25.186260
20
48.539886
42
0.063533
0
VERTEX
8
1
10
25.099428
20
48.777023
0
VERTEX
8
1
10
25.194056
20
49.028694
42
-0.056393
0
VERTEX
8
1
10
25.492172
20
49.474632
42
0.272998
0
VERTEX
8
1
10
25.495529
20
49.656258
42
0.098756
0
VERTEX
8
1
10
25.380644
20
49.809814
42
-0.095727
0
VERTEX
8
1
10
24.877235
20
50.066528
42
-0.091390
0
VERTEX
8
1
10
24.722767
20
50.261002
42
-0.063840
0
VERTEX
8
1
10
24.392281
20
51.085007
42
0.151388
0
VERTEX
8
1
10
24.294531
20
51.306564
42
0.054624
0
VERTEX
8
1
10
24.019493
20
51.586510
42
0.019461
0
VERTEX
8
1
10
24.048504
20
52.219154
42
0.061388
0
VERTEX
8
1
10
23.980045
20
52.487854
42
-0.028235
0
VERTEX
8
1
10
23.861332
20
52.860229
42
-0.068187
0
VERTEX
8
1
10
23.855810
20
52.977848
42
-0.004001
0
VERTEX
8
1
10
23.883406
20
53.707077
42
-0.007467
0
VERTEX
8
1
10
24.189898
20
55.107517
0
VERTEX
8
1
10
24.177811
20
55.157593
42
-0.000475
0
VERTEX
8
1
10
22.925022
20
55.411263
0
VERTEX
8
1
10
22.881207
20
55.244774
42
0.012297
0
VERTEX
8
1
10
21.968288
20
51.141174
42
0.039823
0
VERTEX
8
1
10
21.757420
20
49.160820
42
0.009230
0
VERTEX
8
1
10
21.760431
20
48.948189
42
0.192794
0
VERTEX
8
1
10
21.859077
20
48.821915
42
0.089584
0
VERTEX
8
1
10
22.096922
20
48.724342
42
-0.071530
0
VERTEX
8
1
10
22.254877
20
48.356255
42
-0.200842
0
VERTEX
8
1
10
22.210382
20
48.154434
42
-0.062041
0
VERTEX
8
1
10
21.979206
20
47.892380
42
0.069249
0
VERTEX
8
1
10
21.792412
20
47.661167
42
-0.000137
0
VERTEX
8
1
10
21.471418
20
47.150375
42
-0.022710
0
VERTEX
8
1
10
21.194641
20
46.793610
42
-0.004716
0
VERTEX
8
1
10
20.618845
20
46.112816
42
0.289677
0
VERTEX
8
1
10
20.614262
20
45.944374
42
0.137831
0
VERTEX
8
1
10
20.876417
20
45.675362
42
-0.454659
0
VERTEX
8
1
10
20.951918
20
45.544533
42
0.163830
0
VERTEX
8
1
10
20.954359
20
45.335182
42
-0.190946
0
VERTEX
8
1
10
20.905342
20
45.087265
42
-0.023011
0
VERTEX
8
1
10
20.692547
20
44.794365
42
0.170240
0
VERTEX
8
1
10
20.614559
20
44.510193
42
-0.017482
0
VERTEX
8
1
10
20.623541
20
44.257172
42
-0.049990
0
SEQEND
0
POLYLINE
8
1
66
1
70
1
0
VERTEX
8
1
10
49.577606
20
4.204132
42
0.067128
0
VERTEX
8
1
10
49.953903
20
4.412659
42
0.157713
0
VERTEX
8
1
10
50.005474
20
4.488933
0
VERTEX
8
1
10
50.004765
20
4.493370
0
VERTEX
8
1
10
50.003178
20
4.497574
42
0.066840
0
VERTEX
8
1
10
49.824493
20
4.708644
42
-0.240483
0
VERTEX
8
1
10
49.747189
20
5.005447
42
0.063529
0
VERTEX
8
1
10
49.754711
20
5.219086
42
0.134984
0
VERTEX
8
1
10
49.668041
20
5.388153
42
-0.041601
0
VERTEX
8
1
10
49.481503
20
5.618641
42
-0.317798
0
VERTEX
8
1
10
49.506424
20
5.814111
42
0.040149
0
VERTEX
8
1
10
49.538895
20
5.869926
42
0.190676
0
VERTEX
8
1
10
49.530880
20
5.913879
42
0.045772
0
VERTEX
8
1
10
49.325302
20
6.294205
0
VERTEX
8
1
10
49.314053
20
6.323647
42
-0.153326
0
VERTEX
8
1
10
49.337978
20
6.526169
42
-0.056928
0
VERTEX
8
1
10
49.445652
20
6.727570
0
VERTEX
8
1
10
49.558533
20
6.998474
42
-0.126281
0
VERTEX
8
1
10
49.392403
20
7.140510
42
-0.394122
0
VERTEX
8
1
10
49.442162
20
7.316994
42
-0.071571
0
VERTEX
8
1
10
49.746174
20
7.448376
42
0.198583
0
VERTEX
8
1
10
49.819111
20
7.528000
42
-0.016487
0
VERTEX
8
1
10
50.040367
20
7.895683
42
0.095380
0
VERTEX
8
1
10
49.902077
20
8.135292
42
-0.743905
0
VERTEX
8
1
10
49.890591
20
8.275299
42
-0.010040
0
VERTEX
8
1
10
50.125164
20
8.373547
0
VERTEX
8
1
10
50.142014
20
8.382897
0
VERTEX
8
1
10
50.158302
20
8.393196
42
-0.087330
0
VERTEX
8
1
10
50.125580
20
8.786709
42
-0.180309
0
VERTEX
8
1
10
50.195805
20
8.914932
42
-0.279557
0
VERTEX
8
1
10
50.337452
20
8.918579
42
-0.117523
0
VERTEX
8
1
10
50.553707
20
8.735153
0
VERTEX
8
1
10
50.563221
20
8.726142
0
VERTEX
8
1
10
50.573261
20
8.717720
0
VERTEX
8
1
10
50.577763
20
8.721802
42
-0.058075
0
VERTEX
8
1
10
51.111294
20
9.216736
42
-0.193850
0
VERTEX
8
1
10
51.328259
20
9.278244
42
0.112205
0
VERTEX
8
1
10
51.439785
20
9.290962
42
0.288671
0
VERTEX
8
1
10
51.465870
20
9.353310
42
0.133113
0
VERTEX
8
1
10
51.449635
20
9.424576
42
0.070300
0
VERTEX
8
1
10
51.220058
20
9.721960
42
-0.049490
0
VERTEX
8
1
10
51.095020
20
9.888963
42
-0.608428
0
VERTEX
8
1
10
51.181198
20
10.014824
0
VERTEX
8
1
10
51.195244
20
10.014465
42
-0.064186
0
VERTEX
8
1
10
51.569508
20
9.896162
42
0.269283
0
VERTEX
8
1
10
51.597202
20
9.909966
42
-0.041965
0
VERTEX
8
1
10
51.708858
20
10.029876
42
-0.263718
0
VERTEX
8
1
10
51.879059
20
10.045197
42
-0.081575
0
VERTEX
8
1
10
52.053795
20
9.937370
42
0.054788
0
VERTEX
8
1
10
52.346363
20
9.751447
0
VERTEX
8
1
10
52.353573
20
9.749825
0
VERTEX
8
1
10
52.360909
20
9.748962
42
-0.058821
0
VERTEX
8
1
10
52.308544
20
9.976621
42
-0.422357
0
VERTEX
8
1
10
52.452888
20
10.120270
42
0.144883
0
VERTEX
8
1
10
52.780029
20
10.204437
42
0.037596
0
VERTEX
8
1
10
53.141636
20
10.458427
42
-0.038609
0
VERTEX
8
1
10
53.608917
20
10.755757
42
0.185140
0
VERTEX
8
1
10
53.735359
20
10.924873
42
-0.003809
0
VERTEX
8
1
10
53.796471
20
11.143267
42
-0.283286
0
VERTEX
8
1
10
53.966969
20
11.258686
42
-0.055154
0
VERTEX
8
1
10
54.166653
20
11.264947
42
0.441416
0
VERTEX
8
1
10
54.184566
20
11.288696
42
0.133436
0
VERTEX
8
1
10
54.165924
20
11.446564
42
-0.007827
0
VERTEX
8
1
10
54.032032
20
11.837378
42
-0.094589
0
VERTEX
8
1
10
54.018494
20
12.048599
42
-0.211415
0
VERTEX
8
1
10
54.110512
20
12.169350
42
-0.033938
0
VERTEX
8
1
10
54.373199
20
12.312958
42
-0.562530
0
VERTEX
8
1
10
54.507477
20
12.233360
42
0.083549
0
VERTEX
8
1
10
54.602444
20
11.753517
42
0.118105
0
VERTEX
8
1
10
54.668816
20
11.671666
42
0.267783
0
VERTEX
8
1
10
54.713730
20
11.677559
42
0.037971
0
VERTEX
8
1
10
55.023701
20
11.851632
42
-0.021169
0
VERTEX
8
1
10
55.650738
20
12.222074
42
-0.051294
0
VERTEX
8
1
10
55.848228
20
12.294655
42
0.216156
0
VERTEX
8
1
10
55.948246
20
12.406807
42
0.048270
0
VERTEX
8
1
10
56.022877
20
12.736936
42
-0.045041
0
VERTEX
8
1
10
56.093277
20
12.974541
42
0.040889
0
VERTEX
8
1
10
56.195881
20
13.505180
42
-0.003509
0
VERTEX
8
1
10
56.268623
20
14.081666
0
VERTEX
8
1
10
56.276627
20
14.114596
42
0.011784
0
VERTEX
8
1
10
56.381504
20
14.453720
0
VERTEX
8
1
10
56.423035
20
14.591201
0
VERTEX
8
1
10
56.464382
20
14.728737
42
0.051507
0
VERTEX
8
1
10
56.380486
20
15.449158
42
0.083040
0
VERTEX
8
1
10
56.351437
20
15.509033
42
-0.208241
0
VERTEX
8
1
10
56.135700
20
15.848226
42
-0.018494
0
VERTEX
8
1
10
56.128880
20
15.936897
42
0.260805
0
VERTEX
8
1
10
55.936329
20
16.160950
42
-0.349099
0
VERTEX
8
1
10
55.891491
20
16.285172
42
0.139934
0
VERTEX
8
1
10
55.888412
20
16.418068
42
-0.005231
0
VERTEX
8
1
10
55.778217
20
16.827126
0
VERTEX
8
1
10
55.382801
20
17.109566
0
VERTEX
8
1
10
55.382599
20
17.128967
0
VERTEX
8
1
10
55.410126
20
20.239624
0
VERTEX
8
1
10
55.268436
20
20.300354
0
VERTEX
8
1
10
55.267139
20
20.300690
0
VERTEX
8
1
10
54.823662
20
20.272964
0
VERTEX
8
1
10
54.821648
20
20.273384
0
VERTEX
8
1
10
54.557079
20
20.390968
42
-0.076452
0
VERTEX
8
1
10
54.549129
20
20.395531
42
0.034808
0
VERTEX
8
1
10
53.774796
20
20.879070
42
0.117514
0
VERTEX
8
1
10
53.463577
20
20.939819
42
0.193462
0
VERTEX
8
1
10
53.288513
20
20.808653
42
-0.201914
0
VERTEX
8
1
10
53.164783
20
20.741394
42
-0.247042
0
VERTEX
8
1
10
53.030380
20
20.822258
42
0.057395
0
VERTEX
8
1
10
52.920250
20
20.966822
42
0.250839
0
VERTEX
8
1
10
52.890755
20
20.965981
42
0.069811
0
VERTEX
8
1
10
52.609089
20
20.805054
0
VERTEX
8
1
10
52.279320
20
20.745071
42
0.166850
0
VERTEX
8
1
10
52.090706
20
20.722878
42
-0.074758
0
VERTEX
8
1
10
51.827522
20
20.552412
42
-0.013239
0
VERTEX
8
1
10
51.708656
20
20.496033
0
VERTEX
8
1
10
51.413387
20
20.495964
42
0.109987
0
VERTEX
8
1
10
51.115936
20
20.778114
42
0.399913
0
VERTEX
8
1
10
50.868771
20
20.713921
42
-0.430458
0
VERTEX
8
1
10
50.750698
20
20.685068
42
-0.151095
0
VERTEX
8
1
10
50.720219
20
20.730316
42
0.111056
0
VERTEX
8
1
10
50.592937
20
20.963331
42
0.494433
0
VERTEX
8
1
10
50.573723
20
20.959671
42
0.036873
0
VERTEX
8
1
10
50.331467
20
20.663521
42
-0.096575
0
VERTEX
8
1
10
50.188595
20
20.459492
42
-0.583417
0
VERTEX
8
1
10
50.050674
20
20.517830
42
-0.004091
0
VERTEX
8
1
10
50.020580
20
20.747734
42
-0.016936
0
VERTEX
8
1
10
49.730019
20
20.621841
42
0.072278
0
VERTEX
8
1
10
49.433506
20
20.935692
0
VERTEX
8
1
10
49.424423
20
20.940550
0
VERTEX
8
1
10
49.415031
20
20.944778
42
-0.050744
0
VERTEX
8
1
10
49.042854
20
20.747421
42
-0.105935
0
VERTEX
8
1
10
48.729313
20
20.753296
42
0.099736
0
VERTEX
8
1
10
48.601719
20
21.035439
0
VERTEX
8
1
10
48.595005
20
21.042511
0
VERTEX
8
1
10
48.395763
20
21.241745
42
0.180176
0
VERTEX
8
1
10
48.270638
20
21.354401
42
0.081260
0
VERTEX
8
1
10
48.099041
20
21.344254
42
0.054491
0
VERTEX
8
1
10
48.004822
20
21.294182
42
-0.160815
0
VERTEX
8
1
10
47.688812
20
21.244432
42
-0.178515
0
VERTEX
8
1
10
47.601707
20
21.312355
42
0.054012
0
VERTEX
8
1
10
47.449333
20
21.483931
42
0.197897
0
VERTEX
8
1
10
47.389088
20
21.496422
42
-0.061894
0
VERTEX
8
1
10
46.928753
20
21.561768
42
0.030395
0
VERTEX
8
1
10
46.632313
20
21.610962
0
VERTEX
8
1
10
46.421429
20
21.912048
0
VERTEX
8
1
10
46.328449
20
22.051483
0
VERTEX
8
1
10
46.260925
20
22.051514
0
VERTEX
8
1
10
46.259373
20
22.049789
42
-0.162444
0
VERTEX
8
1
10
46.096416
20
21.882294
42
-0.229348
0
VERTEX
8
1
10
45.995361
20
21.894363
42
0.004938
0
VERTEX
8
1
10
45.670918
20
22.100639
42
0.183568
0
VERTEX
8
1
10
45.528061
20
22.295120
42
0.115565
0
VERTEX
8
1
10
45.185741
20
22.357407
0
VERTEX
8
1
10
45.352398
20
26.387398
0
VERTEX
8
1
10
40.554913
20
26.579285
0
VERTEX
8
1
10
40.448421
20
26.579292
0
VERTEX
8
1
10
40.445824
20
26.543289
0
VERTEX
8
1
10
39.836929
20
17.271469
0
VERTEX
8
1
10
39.783749
20
17.273155
0
VERTEX
8
1
10
33.695702
20
17.737259
0
VERTEX
8
1
10
33.641964
20
17.741219
0
VERTEX
8
1
10
33.601490
20
17.174606
0
VERTEX
8
1
10
33.602596
20
17.172218
0
VERTEX
8
1
10
33.625763
20
17.169571
42
-0.205469
0
VERTEX
8
1
10
33.818764
20
16.992447
42
0.063305
0
VERTEX
8
1
10
34.174782
20
16.465137
42
0.078496
0
VERTEX
8
1
10
34.351433
20
16.340229
42
0.008469
0
VERTEX
8
1
10
34.586472
20
16.208193
42
-0.011648
0
VERTEX
8
1
10
35.268311
20
15.305099
42
0.095092
0
VERTEX
8
1
10
35.406998
20
15.139263
42
0.060915
0
VERTEX
8
1
10
35.921494
20
14.773918
42
-0.098862
0
VERTEX
8
1
10
36.233257
20
14.469517
42
-0.008837
0
VERTEX
8
1
10
36.439861
20
14.025521
42
-0.059234
0
VERTEX
8
1
10
36.488876
20
13.818459
0
VERTEX
8
1
10
36.488220
20
13.778320
0
VERTEX
8
1
10
36.483601
20
13.738808
42
0.051884
0
VERTEX
8
1
10
36.530430
20
12.930266
42
0.126538
0
VERTEX
8
1
10
36.589375
20
12.815882
42
-0.002870
0
VERTEX
8
1
10
36.855278
20
12.467487
42
-0.070404
0
VERTEX
8
1
10
36.876484
20
12.416313
0
VERTEX
8
1
10
36.891628
20
12.395470
0
VERTEX
8
1
10
36.924664
20
12.362671
0
VERTEX
8
1
10
36.973171
20
12.319632
42
0.023533
0
VERTEX
8
1
10
37.887413
20
11.637650
42
0.093685
0
VERTEX
8
1
10
38.083054
20
11.564957
0
VERTEX
8
1
10
38.151318
20
11.550468
42
-0.132199
0
VERTEX
8
1
10
38.511856
20
11.375519
42
0.011931
0
VERTEX
8
1
10
39.051388
20
10.952367
42
0.067214
0
VERTEX
8
1
10
39.234451
20
10.854406
42
0.129896
0
VERTEX
8
1
10
39.299557
20
10.857574
0
VERTEX
8
1
10
39.339039
20
10.875961
0
VERTEX
8
1
10
39.384911
20
10.904060
42
0.084988
0
VERTEX
8
1
10
39.943703
20
11.480548
42
0.080693
0
VERTEX
8
1
10
39.994488
20
11.617989
42
-0.040618
0
VERTEX
8
1
10
40.131680
20
12.018822
42
-0.158693
0
VERTEX
8
1
10
40.267406
20
12.173332
42
-0.043103
0
VERTEX
8
1
10
40.611877
20
12.350121
42
0.096109
0
VERTEX
8
1
10
40.901150
20
12.384155
42
0.132229
0
VERTEX
8
1
10
41.008224
20
12.472923
42
-0.062193
0
VERTEX
8
1
10
41.128372
20
12.600303
42
-0.228336
0
VERTEX
8
1
10
41.143574
20
12.597992
42
0.054588
0
VERTEX
8
1
10
41.609875
20
12.369526
42
0.080145
0
VERTEX
8
1
10
41.785534
20
12.346870
42
0.018516
0
VERTEX
8
1
10
42.348038
20
12.363959
42
0.016070
0
VERTEX
8
1
10
42.807575
20
11.793808
42
0.055820
0
VERTEX
8
1
10
43.257515
20
11.418858
42
0.060122
0
VERTEX
8
1
10
43.304478
20
11.401764
0
VERTEX
8
1
10
43.327229
20
11.388435
0
VERTEX
8
1
10
43.354881
20
11.367065
42
-0.075967
0
VERTEX
8
1
10
43.724957
20
10.903122
0
VERTEX
8
1
10
43.741146
20
10.867470
0
VERTEX
8
1
10
43.750515
20
10.837479
42
-0.003837
0
VERTEX
8
1
10
43.808716
20
10.326555
42
0.039158
0
VERTEX
8
1
10
43.852158
20
10.148277
0
VERTEX
8
1
10
43.865215
20
10.122078
0
VERTEX
8
1
10
43.883163
20
10.094475
42
0.017400
0
VERTEX
8
1
10
44.221947
20
9.694409
42
-0.029749
0
VERTEX
8
1
10
44.315571
20
9.568024
42
-0.115832
0
VERTEX
8
1
10
44.334431
20
9.410538
42
0.075140
0
VERTEX
8
1
10
44.345367
20
9.184151
42
0.194975
0
VERTEX
8
1
10
44.392414
20
9.130142
42
-0.031613
0
VERTEX
8
1
10
44.907837
20
8.703655
42
-0.092260
0
VERTEX
8
1
10
44.949112
20
8.630974
42
-0.034044
0
VERTEX
8
1
10
45.140762
20
8.217194
42
0.105990
0
VERTEX
8
1
10
45.267307
20
7.937363
42
0.052382
0
VERTEX
8
1
10
45.395523
20
7.775375
42
-0.014865
0
VERTEX
8
1
10
45.564602
20
7.666662
42
-0.205786
0
VERTEX
8
1
10
45.597820
20
7.584359
42
0.018815
0
VERTEX
8
1
10
45.596134
20
7.167519
42
0.040414
0
VERTEX
8
1
10
45.641300
20
7.016121
42
-0.118930
0
VERTEX
8
1
10
45.646564
20
6.847668
42
0.059417
0
VERTEX
8
1
10
45.651253
20
6.590699
42
0.174231
0
VERTEX
8
1
10
45.692856
20
6.536507
42
-0.102836
0
VERTEX
8
1
10
45.991764
20
6.088905
0
VERTEX
8
1
10
46.011963
20
6.019943
42
0.058153
0
VERTEX
8
1
10
46.336056
20
5.363516
0
VERTEX
8
1
10
46.352081
20
5.345575
42
0.110242
0
VERTEX
8
1
10
46.679497
20
5.161072
42
0.063642
0
VERTEX
8
1
10
46.880215
20
5.158378
42
-0.204773
0
VERTEX
8
1
10
47.093060
20
5.066986
42
0.136282
0
VERTEX
8
1
10
47.440510
20
4.917999
42
-0.129827
0
VERTEX
8
1
10
47.669643
20
4.881196
42
-0.019064
0
VERTEX
8
1
10
47.751511
20
4.849487
42
0.074541
0
VERTEX
8
1
10
48.119061
20
4.602128
42
0.098190
0
VERTEX
8
1
10
48.287178
20
4.571243
42
0.030588
0
VERTEX
8
1
10
48.889675
20
4.586212
42
-0.111764
0
VERTEX
8
1
10
49.187046
20
4.506080
42
-0.087074
0
VERTEX
8
1
10
49.249008
20
4.445648
42
0.017925
0
VERTEX
8
1
10
49.503830
20
4.185226
0
VERTEX
8
1
10
49.537174
20
4.187485
0
SEQEND
0
POLYLINE
8
1
66
1
70
1
0
VERTEX
8
1
10
33.477043
20
17.186806
0
VERTEX
8
1
10
33.526234
20
17.875557
0
VERTEX
8
1
10
39.718472
20
17.403496
0
VERTEX
8
1
10
39.720581
20
17.407349
0
VERTEX
8
1
10
40.331127
20
26.704292
0
VERTEX
8
1
10
40.495338
20
26.704292
0
VERTEX
8
1
10
40.520130
20
27.694618
0
VERTEX
8
1
10
40.513000
20
27.696146
42
-0.001525
0
VERTEX
8
1
10
30.686758
20
28.556955
0
VERTEX
8
1
10
30.599932
20
28.523981
42
0.004415
0
VERTEX
8
1
10
30.346239
20
26.611374
42
0.000801
0
VERTEX
8
1
10
29.097982
20
16.771152
0
VERTEX
8
1
10
29.138561
20
16.766899
42
0.019168
0
VERTEX
8
1
10
30.683556
20
16.542477
42
0.066828
0
VERTEX
8
1
10
30.881929
20
16.548464
42
0.314935
0
VERTEX
8
1
10
30.890656
20
16.569206
42
0.006674
0
VERTEX
8
1
10
30.873762
20
17.112791
42
-0.043947
0
VERTEX
8
1
10
30.896297
20
17.430565
42
-0.148279
0
VERTEX
8
1
10
30.929495
20
17.487316
42
-0.215063
0
VERTEX
8
1
10
30.953705
20
17.487368
42
0.010054
0
VERTEX
8
1
10
31.706367
20
17.392584
42
0.001085
0
SEQEND
0
POLYLINE
8
1
66
1
70
1
0
VERTEX
8
1
10
30.144522
20
26.024250
42
-0.002704
0
VERTEX
8
1
10
30.481945
20
28.575653
0
VERTEX
8
1
10
30.439526
20
28.579552
0
VERTEX
8
1
10
30.440601
20
28.591337
42
-0.025528
0
VERTEX
8
1
10
23.752720
20
29.650480
42
-0.007450
0
VERTEX
8
1
10
22.629314
20
29.912245
0
VERTEX
8
1
10
22.579664
20
29.906662
42
-0.035589
0
VERTEX
8
1
10
22.431349
20
29.089249
42
-0.026160
0
VERTEX
8
1
10
22.312372
20
28.518211
42
-0.013706
0
VERTEX
8
1
10
22.150290
20
28.105705
0
VERTEX
8
1
10
22.151125
20
28.100700
42
-0.522218
0
VERTEX
8
1
10
22.008417
20
27.930939
42
-0.148805
0
VERTEX
8
1
10
21.826530
20
27.988625
42
-0.044793
0
VERTEX
8
1
10
21.560829
20
28.206038
42
0.110616
0
VERTEX
8
1
10
21.441126
20
28.275389
42
0.205282
0
VERTEX
8
1
10
21.150711
20
28.104988
42
0.075554
0
VERTEX
8
1
10
21.080385
20
27.893913
42
0.063166
0
VERTEX
8
1
10
21.006353
20
27.172409
42
-0.010873
0
VERTEX
8
1
10
20.973007
20
26.349089
42
-0.139859
0
VERTEX
8
1
10
20.880335
20
26.132816
42
-0.238240
0
VERTEX
8
1
10
20.757830
20
26.095787
0
VERTEX
8
1
10
20.757711
20
25.688492
0
VERTEX
8
1
10
20.976885
20
25.359711
0
VERTEX
8
1
10
21.060583
20
24.857819
0
VERTEX
8
1
10
21.361645
20
24.346008
0
VERTEX
8
1
10
21.362129
20
24.344620
0
VERTEX
8
1
10
20.906870
20
24.041115
0
VERTEX
8
1
10
20.903645
20
24.037170
42
0.004846
0
VERTEX
8
1
10
20.578527
20
23.576035
42
0.056687
0
VERTEX
8
1
10
20.523355
20
23.388138
42
0.014842
0
VERTEX
8
1
10
20.447376
20
22.996819
0
VERTEX
8
1
10
20.162624
20
22.769020
0
VERTEX
8
1
10
20.034651
20
22.487518
0
VERTEX
8
1
10
20.009466
20
22.084503
0
VERTEX
8
1
10
20.315826
20
21.805992
42
-0.083033
0
VERTEX
8
1
10
20.217995
20
21.369808
42
-0.191429
0
VERTEX
8
1
10
20.101717
20
21.265919
42
-0.068897
0
VERTEX
8
1
10
19.946760
20
21.217705
42
-0.028028
0
VERTEX
8
1
10
19.576286
20
21.156624
42
0.075144
0
VERTEX
8
1
10
19.323820
20
20.812347
42
0.200492
0
VERTEX
8
1
10
19.324478
20
20.758217
0
VERTEX
8
1
10
19.331440
20
20.753807
0
VERTEX
8
1
10
19.357447
20
20.741776
0
VERTEX
8
1
10
19.441256
20
20.696411
0
VERTEX
8
1
10
19.582388
20
20.620071
42
-0.000247
0
VERTEX
8
1
10
23.944996
20
18.132475
42
0.006327
0
VERTEX
8
1
10
25.617640
20
17.213036
0
VERTEX
8
1
10
25.749313
20
17.148071
0
VERTEX
8
1
10
25.825815
20
17.116165
42
0.014276
0
VERTEX
8
1
10
26.541828
20
17.028402
42
0.002661
0
VERTEX
8
1
10
28.965197
20
16.783688
0
VERTEX
8
1
10
29.001795
20
17.011385
42
-0.000632
0
SEQEND
0
POLYLINE
8
1
66
1
70
1
0
VERTEX
8
1
10
71.638939
20
24.571404
42
-0.020942
0
VERTEX
8
1
10
69.801842
20
24.281853
42
0.003676
0
VERTEX
8
1
10
70.953354
20
19.957573
0
VERTEX
8
1
10
70.975716
20
19.886597
42
0.064740
0
VERTEX
8
1
10
71.222244
20
19.481668
42
0.013047
0
VERTEX
8
1
10
71.336609
20
19.336411
42
-0.042652
0
VERTEX
8
1
10
71.370888
20
19.036293
42
0.217489
0
VERTEX
8
1
10
71.392685
20
19.021652
42
-0.133964
0
VERTEX
8
1
10
71.533310
20
18.948059
42
-0.284584
0
VERTEX
8
1
10
71.541969
20
18.818275
42
-0.121454
0
VERTEX
8
1
10
71.309677
20
18.558968
42
0.189412
0
VERTEX
8
1
10
71.299820
20
18.439526
42
0.015871
0
VERTEX
8
1
10
71.313576
20
18.366020
42
0.035662
0
VERTEX
8
1
10
71.307159
20
17.868797
0
VERTEX
8
1
10
71.309471
20
17.857925
42
-0.022584
0
VERTEX
8
1
10
71.463814
20
17.343109
42
-0.049187
0
VERTEX
8
1
10
71.471367
20
16.864391
42
0.037480
0
VERTEX
8
1
10
71.476349
20
16.690628
0
VERTEX
8
1
10
71.506416
20
16.628439
42
0.014259
0
VERTEX
8
1
10
71.776550
20
16.174454
0
VERTEX
8
1
10
72.140976
20
15.679886
0
VERTEX
8
1
10
72.183662
20
15.683083
42
-0.005595
0
VERTEX
8
1
10
74.471558
20
15.868019
42
0.011963
0
VERTEX
8
1
10
74.806007
20
15.887730
42
0.007370
0
VERTEX
8
1
10
76.381973
20
16.043898
0
VERTEX
8
1
10
76.621468
20
16.069855
42
0.079160
0
VERTEX
8
1
10
76.868217
20
15.673894
0
VERTEX
8
1
10
76.880539
20
15.664250
0
VERTEX
8
1
10
76.893700
20
15.655785
0
VERTEX
8
1
10
76.899498
20
15.656891
42
0.039468
0
VERTEX
8
1
10
77.069138
20
15.874500
42
0.255844
0
VERTEX
8
1
10
77.065430
20
16.049011
42
0.022954
0
VERTEX
8
1
10
76.932777
20
16.261848
42
-0.200821
0
VERTEX
8
1
10
76.917213
20
16.432121
0
VERTEX
8
1
10
76.919357
20
16.448738
0
VERTEX
8
1
10
76.920731
20
16.465446
42
-0.371077
0
VERTEX
8
1
10
77.048561
20
16.629715
42
-0.130151
0
VERTEX
8
1
10
77.307419
20
16.641792
42
-0.047588
0
VERTEX
8
1
10
77.781265
20
16.513405
0
VERTEX
8
1
10
78.093254
20
16.607002
0
VERTEX
8
1
10
78.094315
20
16.606979
42
0.072257
0
VERTEX
8
1
10
78.114929
20
16.551872
42
0.053853
0
VERTEX
8
1
10
78.095062
20
16.687325
42
-0.036646
0
VERTEX
8
1
10
78.093071
20
17.176361
42
-0.032831
0
VERTEX
8
1
10
78.265976
20
18.645195
0
VERTEX
8
1
10
78.279289
20
18.699295
42
-0.080909
0
VERTEX
8
1
10
78.360687
20
18.909544
42
-0.026955
0
VERTEX
8
1
10
78.525383
20
19.172268
0
VERTEX
8
1
10
78.546761
20
19.206476
0
VERTEX
8
1
10
78.567688
20
19.240967
0
VERTEX
8
1
10
78.566971
20
19.260880
42
-0.078959
0
VERTEX
8
1
10
78.225487
20
19.364885
42
-0.137400
0
VERTEX
8
1
10
78.141983
20
19.454445
42
-0.020249
0
VERTEX
8
1
10
77.962608
20
19.779198
42
-0.152969
0
VERTEX
8
1
10
77.903481
20
19.978638
42
0.351192
0
VERTEX
8
1
10
77.640732
20
20.236023
42
-0.171554
0
VERTEX
8
1
10
77.502304
20
20.331894
42
-0.110303
0
VERTEX
8
1
10
77.257820
20
20.856632
42
0.136022
0
VERTEX
8
1
10
76.998978
20
21.276566
42
0.020209
0
VERTEX
8
1
10
76.191376
20
21.997040
0
VERTEX
8
1
10
76.162315
20
22.017967
0
VERTEX
8
1
10
76.146133
20
22.027397
42
0.050753
0
VERTEX
8
1
10
76.005035
20
22.027622
42
-0.188634
0
VERTEX
8
1
10
75.801552
20
22.105265
42
-0.129345
0
VERTEX
8
1
10
75.745079
20
22.212021
42
0.019318
0
VERTEX
8
1
10
75.648010
20
22.507065
0
VERTEX
8
1
10
75.641953
20
22.516243
42
-0.040760
0
VERTEX
8
1
10
74.873505
20
23.011894
42
-0.085979
0
VERTEX
8
1
10
74.667343
20
23.236610
42
0.069621
0
VERTEX
8
1
10
74.119392
20
23.843971
42
0.028982
0
VERTEX
8
1
10
73.395767
20
24.279610
42
-0.059525
0
VERTEX
8
1
10
73.673645
20
24.862274
0
VERTEX
8
1
10
71.816986
20
24.607933
42
-0.003351
0
SEQEND
0
POLYLINE
8
1
66
1
70
1
0
VERTEX
8
1
10
85.667442
20
28.557159
42
0.107015
0
VERTEX
8
1
10
85.605995
20
28.882870
42
0.171938
0
VERTEX
8
1
10
85.533722
20
28.945053
42
0.268154
0
VERTEX
8
1
10
85.317551
20
28.857788
42
0.149165
0
VERTEX
8
1
10
85.292442
20
28.765984
42
-0.088328
0
VERTEX
8
1
10
85.236679
20
28.398352
42
-0.280210
0
VERTEX
8
1
10
85.187096
20
28.376556
42
-0.448148
0
VERTEX
8
1
10
85.056175
20
28.458412
42
-0.078961
0
VERTEX
8
1
10
85.042641
20
28.575827
42
-0.015621
0
VERTEX
8
1
10
85.049561
20
28.883720
42
0.066834
0
VERTEX
8
1
10
85.033813
20
28.988667
42
0.319733
0
VERTEX
8
1
10
84.990417
20
29.008598
42
0.090001
0
VERTEX
8
1
10
84.777260
20
28.871153
42
-0.187363
0
VERTEX
8
1
10
84.653976
20
28.840828
42
0.134908
0
VERTEX
8
1
10
84.325470
20
28.762609
42
-0.259020
0
VERTEX
8
1
10
84.028587
20
28.773804
0
VERTEX
8
1
10
84.019440
20
28.780043
42
-0.535388
0
VERTEX
8
1
10
84.027153
20
28.888344
42
-0.117124
0
VERTEX
8
1
10
84.097710
20
28.922058
42
-0.043079
0
VERTEX
8
1
10
84.378960
20
28.974253
42
0.117440
0
VERTEX
8
1
10
84.554939
20
29.047953
42
0.091814
0
VERTEX
8
1
10
84.602943
20
29.108650
0
VERTEX
8
1
10
84.646713
20
29.185524
42
-0.132270
0
VERTEX
8
1
10
84.790871
20
29.359535
42
-0.018396
0
VERTEX
8
1
10
85.250290
20
29.594505
42
0.085814
0
VERTEX
8
1
10
85.438217
20
29.695641
0
VERTEX
8
1
10
85.452446
20
29.710594
42
0.440587
0
VERTEX
8
1
10
85.451729
20
29.808815
0
VERTEX
8
1
10
85.432312
20
29.825966
0
VERTEX
8
1
10
85.381042
20
29.861843
42
-0.039587
0
VERTEX
8
1
10
85.078354
20
30.132097
0
VERTEX
8
1
10
85.041679
20
30.168907
0
VERTEX
8
1
10
85.024857
20
30.176186
42
-0.015105
0
VERTEX
8
1
10
78.843597
20
29.040545
42
-0.004446
0
VERTEX
8
1
10
76.161201
20
28.646523
0
VERTEX
8
1
10
75.734207
20
28.576653
42
-0.008811
0
VERTEX
8
1
10
75.773705
20
28.074654
0
VERTEX
8
1
10
75.772881
20
28.058235
42
-0.453615
0
VERTEX
8
1
10
75.661438
20
27.940155
42
0.318424
0
VERTEX
8
1
10
75.474304
20
27.749634
42
-0.234802
0
VERTEX
8
1
10
75.155472
20
27.422874
0
VERTEX
8
1
10
75.124474
20
27.415985
0
VERTEX
8
1
10
75.093506
20
27.412811
42
0.172329
0
VERTEX
8
1
10
74.743805
20
27.295876
42
0.146173
0
VERTEX
8
1
10
74.705727
20
27.222832
42
-0.083969
0
VERTEX
8
1
10
74.630463
20
27.042137
42
-0.333033
0
VERTEX
8
1
10
74.454605
20
26.998711
42
0.032036
0
VERTEX
8
1
10
74.191322
20
27.086056
42
0.251677
0
VERTEX
8
1
10
74.067284
20
27.042686
42
0.187361
0
VERTEX
8
1
10
73.859207
20
26.692230
42
-0.050301
0
VERTEX
8
1
10
73.812920
20
26.524595
42
-0.289677
0
VERTEX
8
1
10
73.544220
20
26.365587
42
0.016787
0
VERTEX
8
1
10
73.394913
20
26.350368
42
0.272614
0
VERTEX
8
1
10
73.337723
20
26.288338
42
-0.044543
0
VERTEX
8
1
10
73.266716
20
26.096336
42
-0.180067
0
VERTEX
8
1
10
73.107147
20
25.972580
0
VERTEX
8
1
10
72.536240
20
25.744217
42
0.215651
0
VERTEX
8
1
10
72.361481
20
25.710052
42
0.167038
0
VERTEX
8
1
10
72.329338
20
25.650841
42
0.067127
0
VERTEX
8
1
10
72.294418
20
25.450981
42
-0.189497
0
VERTEX
8
1
10
72.199059
20
25.241760
42
-0.032472
0
VERTEX
8
1
10
71.980415
20
25.034081
0
VERTEX
8
1
10
71.844749
20
24.966125
0
VERTEX
8
1
10
71.844391
20
24.965424
0
VERTEX
8
1
10
71.863091
20
24.741020
0
VERTEX
8
1
10
71.868034
20
24.741112
0
VERTEX
8
1
10
73.809624
20
25.007072
0
VERTEX
8
1
10
73.821960
20
25.012083
42
-0.006908
0
VERTEX
8
1
10
74.430382
20
25.342964
42
-0.007606
0
VERTEX
8
1
10
75.269615
20
25.703781
42
0.019438
0
VERTEX
8
1
10
76.285622
20
25.813370
42
0.080607
0
VERTEX
8
1
10
76.382576
20
25.846489
42
-0.095661
0
VERTEX
8
1
10
76.428581
20
25.852196
42
-0.037574
0
VERTEX
8
1
10
76.899704
20
25.808550
42
-0.008357
0
VERTEX
8
1
10
77.590363
20
25.699289
0
VERTEX
8
1
10
77.919594
20
25.287758
42
0.030067
0
VERTEX
8
1
10
78.887642
20
25.337656
42
0.071410
0
VERTEX
8
1
10
78.993309
20
25.375542
42
-0.066971
0
VERTEX
8
1
10
79.472389
20
25.501900
0
VERTEX
8
1
10
79.543938
20
25.512680
0
VERTEX
8
1
10
81.961090
20
23.843094
42
-0.096262
0
VERTEX
8
1
10
82.341324
20
23.995468
42
-0.030946
0
VERTEX
8
1
10
82.712036
20
24.002127
42
0.081081
0
VERTEX
8
1
10
82.883156
20
24.031357
0
VERTEX
8
1
10
82.903503
20
24.043953
42
0.016599
0
VERTEX
8
1
10
82.970100
20
24.125351
42
0.153007
0
VERTEX
8
1
10
82.966988
20
24.189674
42
-0.134836
0
VERTEX
8
1
10
82.964325
20
24.670832
42
-0.052334
0
VERTEX
8
1
10
83.043907
20
24.908524
0
VERTEX
8
1
10
83.056778
20
24.928711
42
-0.066204
0
VERTEX
8
1
10
83.272820
20
25.110649
42
0.058168
0
VERTEX
8
1
10
83.546577
20
25.340942
42
0.024334
0
VERTEX
8
1
10
83.761139
20
25.532759
42
0.181774
0
VERTEX
8
1
10
83.821068
20
25.700811
42
0.236332
0
VERTEX
8
1
10
83.762962
20
25.776918
42
-0.494880
0
VERTEX
8
1
10
83.763885
20
25.810730
0
VERTEX
8
1
10
83.776779
20
25.821548
42
-0.084046
0
VERTEX
8
1
10
84.239784
20
26.013189
42
0.042411
0
VERTEX
8
1
10
84.496277
20
26.111061
42
-0.026739
0
VERTEX
8
1
10
84.789703
20
26.278336
42
-0.073695
0
VERTEX
8
1
10
85.039894
20
26.339407
42
0.205674
0
VERTEX
8
1
10
85.144073
20
26.417244
42
-0.069281
0
VERTEX
8
1
10
85.295082
20
26.609066
42
0.128064
0
VERTEX
8
1
10
85.358131
20
26.733330
42
0.210534
0
VERTEX
8
1
10
85.321182
20
26.834030
42
0.229788
0
VERTEX
8
1
10
84.846397
20
27.001524
42
0.269993
0
VERTEX
8
1
10
84.749268
20
26.907829
42
-0.199477
0
VERTEX
8
1
10
84.570511
20
26.703003
42
0.046695
0
VERTEX
8
1
10
84.410637
20
26.570330
42
-0.276256
0
VERTEX
8
1
10
84.256386
20
26.552002
42
-0.079024
0
VERTEX
8
1
10
83.940613
20
26.742546
42
-0.152384
0
VERTEX
8
1
10
83.923370
20
26.788208
42
-0.290351
0
VERTEX
8
1
10
83.959412
20
26.823769
42
-0.150678
0
VERTEX
8
1
10
84.193474
20
26.829338
0
VERTEX
8
1
10
84.241890
20
26.818550
42
0.276408
0
VERTEX
8
1
10
84.409279
20
26.855293
42
0.019833
0
VERTEX
8
1
10
84.615410
20
27.075783
42
0.087566
0
VERTEX
8
1
10
84.672340
20
27.198654
42
0.019328
0
VERTEX
8
1
10
84.747849
20
27.384264
42
0.437656
0
VERTEX
8
1
10
84.690842
20
27.466751
42
0.087572
0
VERTEX
8
1
10
84.499268
20
27.483147
42
-0.037403
0
VERTEX
8
1
10
84.343529
20
27.443039
42
-0.344996
0
VERTEX
8
1
10
84.190056
20
27.553154
42
-0.255027
0
VERTEX
8
1
10
84.235222
20
27.670067
42
-0.050157
0
VERTEX
8
1
10
84.351028
20
27.805405
42
-0.213883
0
VERTEX
8
1
10
84.513763
20
27.842949
42
-0.135326
0
VERTEX
8
1
10
84.775948
20
27.734406
0
VERTEX
8
1
10
84.833977
20
27.690033
42
0.193404
0
VERTEX
8
1
10
84.949875
20
27.640175
0
VERTEX
8
1
10
84.967781
20
27.641449
42
0.085870
0
VERTEX
8
1
10
85.244560
20
27.675146
42
0.161660
0
VERTEX
8
1
10
85.357803
20
27.768021
42
0.024428
0
VERTEX
8
1
10
85.439812
20
27.851387
42
0.142315
0
VERTEX
8
1
10
85.471992
20
28.001463
42
-0.041930
0
VERTEX
8
1
10
85.499336
20
28.180870
42
-0.098768
0
VERTEX
8
1
10
85.633804
20
28.363405
42
0.211671
0
VERTEX
8
1
10
85.668121
20
28.467896
0
SEQEND
0
POLYLINE
8
1
66
1
70
1
0
VERTEX
8
1
10
19.972965
20
21.353180
42
0.102773
0
VERTEX
8
1
10
20.089779
20
21.401665
42
0.091113
0
VERTEX
8
1
10
20.146648
20
21.543922
42
0.033460
0
VERTEX
8
1
10
20.185213
20
21.755798
0
VERTEX
8
1
10
19.881437
20
22.031967
0
VERTEX
8
1
10
19.881008
20
22.033165
0
VERTEX
8
1
10
19.911318
20
22.518089
0
VERTEX
8
1
10
20.061165
20
22.847923
0
VERTEX
8
1
10
20.331043
20
23.063828
0
VERTEX
8
1
10
20.332838
20
23.069572
42
-0.037426
0
VERTEX
8
1
10
20.449688
20
23.591568
42
-0.088629
0
VERTEX
8
1
10
20.516043
20
23.706186
42
-0.002185
0
VERTEX
8
1
10
20.817520
20
24.131662
0
VERTEX
8
1
10
21.193407
20
24.382370
0
VERTEX
8
1
10
21.194620
20
24.383415
0
VERTEX
8
1
10
20.941420
20
24.813858
0
VERTEX
8
1
10
20.940895
20
24.815300
0
VERTEX
8
1
10
20.858023
20
25.312531
0
VERTEX
8
1
10
20.632711
20
25.650650
0
VERTEX
8
1
10
20.632711
20
26.175980
0
VERTEX
8
1
10
20.616789
20
26.200777
42
-0.001659
0
VERTEX
8
1
10
14.171668
20
35.556255
42
-0.006420
0
VERTEX
8
1
10
13.861168
20
36.031013
42
-0.134023
0
VERTEX
8
1
10
13.849804
20
36.089737
42
-0.043172
0
VERTEX
8
1
10
13.900896
20
36.455719
42
-0.012043
0
VERTEX
8
1
10
14.264327
20
38.029266
42
-0.005017
0
VERTEX
8
1
10
15.332257
20
42.121273
42
-0.003476
0
VERTEX
8
1
10
9.483778
20
43.678181
0
VERTEX
8
1
10
9.275715
20
43.737644
0
VERTEX
8
1
10
9.067947
20
43.798141
42
-0.030390
0
VERTEX
8
1
10
8.995432
20
42.833839
42
-0.021658
0
VERTEX
8
1
10
8.889697
20
42.386375
42
-0.153618
0
VERTEX
8
1
10
8.792302
20
42.270660
42
0.159998
0
VERTEX
8
1
10
8.662373
20
42.049438
42
0.108114
0
VERTEX
8
1
10
8.625066
20
41.797623
42
-0.204005
0
VERTEX
8
1
10
8.514046
20
41.510948
42
0.034976
0
VERTEX
8
1
10
8.008856
20
40.872349
42
0.042761
0
VERTEX
8
1
10
7.928626
20
40.712746
0
VERTEX
8
1
10
7.921735
20
40.684219
42
0.077518
0
VERTEX
8
1
10
7.933431
20
40.363586
42
0.051922
0
VERTEX
8
1
10
8.185746
20
39.436417
42
-0.054170
0
VERTEX
8
1
10
8.306592
20
38.890026
42
-0.084719
0
VERTEX
8
1
10
8.254422
20
38.401329
42
-0.009430
0
VERTEX
8
1
10
8.172710
20
38.098328
42
0.062730
0
VERTEX
8
1
10
8.158300
20
37.932388
42
-0.038042
0
VERTEX
8
1
10
8.118103
20
37.636101
42
0.162520
0
VERTEX
8
1
10
7.960624
20
37.627678
42
0.371517
0
VERTEX
8
1
10
7.934126
20
37.548073
0
VERTEX
8
1
10
7.940061
20
37.526779
42
0.042846
0
VERTEX
8
1
10
8.128817
20
37.156418
42
-0.015026
0
VERTEX
8
1
10
8.431988
20
36.622040
42
-0.028554
0
VERTEX
8
1
10
8.571241
20
36.265259
42
0.088960
0
VERTEX
8
1
10
8.833232
20
35.836540
42
-0.156352
0
VERTEX
8
1
10
8.860897
20
35.714470
42
-0.063270
0
VERTEX
8
1
10
8.846985
20
35.594070
42
0.117023
0
VERTEX
8
1
10
8.709880
20
35.277493
42
0.212541
0
VERTEX
8
1
10
8.761765
20
35.136559
42
0.023492
0
VERTEX
8
1
10
9.149251
20
34.722057
42
-0.007091
0
VERTEX
8
1
10
9.259827
20
34.604065
42
0.121147
0
VERTEX
8
1
10
9.431477
20
34.517113
42
-0.028021
0
VERTEX
8
1
10
9.726632
20
35.078686
42
-0.065272
0
VERTEX
8
1
10
9.760426
20
35.115311
0
VERTEX
8
1
10
9.767466
20
35.113663
0
VERTEX
8
1
10
9.770082
20
35.100891
42
-0.046241
0
VERTEX
8
1
10
9.699558
20
34.814209
0
VERTEX
8
1
10
9.655617
20
34.676445
42
0.068760
0
VERTEX
8
1
10
9.604136
20
34.445324
42
0.171735
0
VERTEX
8
1
10
9.637688
20
34.361023
0
VERTEX
8
1
10
9.648672
20
34.344589
42
-0.035661
0
VERTEX
8
1
10
9.861597
20
34.031879
42
-0.079087
0
VERTEX
8
1
10
9.876240
20
33.970566
42
-0.384731
0
VERTEX
8
1
10
9.847960
20
33.947342
42
-0.126438
0
VERTEX
8
1
10
9.643898
20
34.009556
42
-0.059387
0
VERTEX
8
1
10
9.398489
20
34.187599
42
0.083007
0
VERTEX
8
1
10
9.269046
20
34.312580
42
0.373268
0
VERTEX
8
1
10
9.200014
20
34.287842
0
VERTEX
8
1
10
9.190414
20
34.271759
0
VERTEX
8
1
10
9.181026
20
34.247185
42
0.040339
0
VERTEX
8
1
10
9.115614
20
33.822632
42
0.018965
0
VERTEX
8
1
10
9.070757
20
33.141083
42
0.145310
0
VERTEX
8
1
10
9.188545
20
32.900543
42
0.125214
0
VERTEX
8
1
10
9.491554
20
32.667999
42
-0.028393
0
VERTEX
8
1
10
9.827688
20
32.499279
42
-0.089235
0
VERTEX
8
1
10
9.896116
20
32.432663
0
VERTEX
8
1
10
9.902157
20
32.417137
42
-0.125977
0
VERTEX
8
1
10
9.848076
20
32.183624
42
0.051816
0
VERTEX
8
1
10
9.402609
20
31.726040
42
0.076207
0
VERTEX
8
1
10
9.362061
20
31.632660
0
VERTEX
8
1
10
9.363609
20
31.611122
42
0.057540
0
VERTEX
8
1
10
9.476395
20
31.349689
42
0.002358
0
VERTEX
8
1
10
9.929561
20
30.534859
42
0.008719
0
VERTEX
8
1
10
10.517456
20
29.317039
42
-0.003738
0
VERTEX
8
1
10
10.699747
20
29.004944
42
-0.263236
0
VERTEX
8
1
10
10.691133
20
28.899666
42
0.026887
0
VERTEX
8
1
10
10.497409
20
28.634047
42
0.181662
0
VERTEX
8
1
10
10.489822
20
28.579460
42
0.053456
0
VERTEX
8
1
10
10.595142
20
28.472549
0
VERTEX
8
1
10
10.710844
20
28.368881
42
-0.054278
0
VERTEX
8
1
10
10.917993
20
28.153000
42
-0.188640
0
VERTEX
8
1
10
10.930794
20
28.079414
42
-0.162590
0
VERTEX
8
1
10
10.819765
20
27.745178
42
0.127441
0
VERTEX
8
1
10
10.719339
20
27.282740
42
0.188734
0
VERTEX
8
1
10
10.766541
20
27.207275
42
0.056778
0
VERTEX
8
1
10
11.226166
20
26.859962
42
0.091751
0
VERTEX
8
1
10
11.405279
20
26.806831
42
-0.019561
0
VERTEX
8
1
10
12.070269
20
26.682041
42
-0.049120
0
VERTEX
8
1
10
12.278200
20
26.601433
0
VERTEX
8
1
10
12.309736
20
26.580460
42
-0.084102
0
VERTEX
8
1
10
12.625050
20
26.159111
0
VERTEX
8
1
10
12.636908
20
26.131302
42
0.095327
0
VERTEX
8
1
10
12.963259
20
25.547405
42
0.174299
0
VERTEX
8
1
10
13.167021
20
25.440849
42
0.039217
0
VERTEX
8
1
10
13.848546
20
25.415689
42
-0.011424
0
VERTEX
8
1
10
14.063911
20
25.418022
42
-0.139359
0
VERTEX
8
1
10
14.178717
20
25.371279
42
-0.316084
0
VERTEX
8
1
10
14.192274
20
25.264137
42
0.029859
0
VERTEX
8
1
10
13.959087
20
24.683357
42
0.143043
0
VERTEX
8
1
10
13.975330
20
24.520576
42
0.384885
0
VERTEX
8
1
10
14.035513
20
24.504837
42
-0.200671
0
VERTEX
8
1
10
14.362309
20
24.466537
42
-0.028706
0
VERTEX
8
1
10
14.703058
20
24.163956
42
-0.026480
0
VERTEX
8
1
10
15.332441
20
23.511658
42
-0.083753
0
VERTEX
8
1
10
15.560219
20
23.012005
42
-0.060848
0
VERTEX
8
1
10
15.570515
20
22.875587
42
-0.037875
0
VERTEX
8
1
10
15.562279
20
22.539181
42
-0.121544
0
VERTEX
8
1
10
15.532566
20
22.475449
42
0.056595
0
VERTEX
8
1
10
15.369463
20
22.194641
42
0.124566
0
VERTEX
8
1
10
15.362137
20
22.091873
42
0.027289
0
VERTEX
8
1
10
15.404865
20
21.820679
42
0.051523
0
VERTEX
8
1
10
15.606649
20
21.599655
0
VERTEX
8
1
10
15.614999
20
21.597174
0
VERTEX
8
1
10
15.623705
20
21.596916
0
VERTEX
8
1
10
15.626930
20
21.601517
0
VERTEX
8
1
10
15.642878
20
21.604813
0
VERTEX
8
1
10
15.675955
20
21.605125
0
VERTEX
8
1
10
15.724665
20
21.602751
42
-0.002304
0
VERTEX
8
1
10
17.094244
20
21.459620
42
0.022020
0
VERTEX
8
1
10
17.699198
20
21.432940
42
-0.019997
0
VERTEX
8
1
10
18.361557
20
21.401442
42
-0.017740
0
VERTEX
8
1
10
19.569363
20
21.284483
0
VERTEX
8
1
10
19.610834
20
21.286232
42
0.030756
0
SEQEND
0
POLYLINE
8
1
66
1
70
1
0
VERTEX
8
1
10
72.002579
20
38.494324
42
0.047653
0
VERTEX
8
1
10
71.726585
20
38.716423
42
0.073237
0
VERTEX
8
1
10
71.526062
20
38.790321
42
-0.016969
0
VERTEX
8
1
10
71.348785
20
38.847450
0
VERTEX
8
1
10
69.374222
20
38.398682
0
VERTEX
8
1
10
69.387527
20
38.255264
42
-0.001051
0
VERTEX
8
1
10
69.874565
20
33.110107
0
VERTEX
8
1
10
69.877235
20
33.100998
0
VERTEX
8
1
10
69.880547
20
33.100456
0
VERTEX
8
1
10
70.437012
20
33.179947
42
-0.022146
0
VERTEX
8
1
10
70.783524
20
32.863258
42
0.023930
0
VERTEX
8
1
10
70.978012
20
32.632423
42
0.194310
0
VERTEX
8
1
10
71.023239
20
32.622681
42
0.042737
0
VERTEX
8
1
10
71.354774
20
32.714554
0
VERTEX
8
1
10
71.622406
20
32.393456
0
VERTEX
8
1
10
71.635895
20
32.398262
42
-0.038031
0
VERTEX
8
1
10
72.109207
20
32.671848
42
-0.199792
0
VERTEX
8
1
10
72.194832
20
32.662880
42
-0.051222
0
VERTEX
8
1
10
72.441818
20
32.524437
42
-0.056404
0
VERTEX
8
1
10
72.744308
20
32.726254
42
-0.193279
0
VERTEX
8
1
10
72.841309
20
32.719147
42
-0.072174
0
VERTEX
8
1
10
73.139664
20
32.543709
42
0.056458
0
VERTEX
8
1
10
73.265091
20
32.429356
42
0.039937
0
VERTEX
8
1
10
73.308411
20
32.421844
0
VERTEX
8
1
10
73.329254
20
32.415115
42
-0.060649
0
VERTEX
8
1
10
73.680443
20
32.196724
0
VERTEX
8
1
10
73.722656
20
32.165154
0
VERTEX
8
1
10
73.923958
20
32.321716
0
VERTEX
8
1
10
73.924889
20
32.323013
0
VERTEX
8
1
10
74.078552
20
32.604721
42
0.048305
0
VERTEX
8
1
10
74.085915
20
32.908157
42
-0.177537
0
VERTEX
8
1
10
74.082466
20
33.042068
0
VERTEX
8
1
10
74.101997
20
33.109081
42
-0.012654
0
VERTEX
8
1
10
74.223938
20
33.452393
42
-0.495406
0
VERTEX
8
1
10
74.423294
20
33.536949
42
-0.064140
0
VERTEX
8
1
10
74.550690
20
33.446999
42
-0.005519
0
VERTEX
8
1
10
74.573174
20
33.738670
42
-0.077125
0
VERTEX
8
1
10
74.698875
20
34.123093
42
-0.136298
0
VERTEX
8
1
10
74.948936
20
34.361076
42
-0.018205
0
VERTEX
8
1
10
75.401833
20
34.604965
42
0.063475
0
VERTEX
8
1
10
75.738625
20
34.895775
0
VERTEX
8
1
10
75.745346
20
34.907349
42
0.078274
0
VERTEX
8
1
10
75.799026
20
35.292000
42
-0.134302
0
VERTEX
8
1
10
75.951637
20
35.904976
42
0.063375
0
VERTEX
8
1
10
75.970665
20
36.131470
42
0.060791
0
VERTEX
8
1
10
75.916611
20
36.712601
42
-0.010299
0
VERTEX
8
1
10
75.853447
20
37.065033
42
-0.253301
0
VERTEX
8
1
10
75.938293
20
37.232834
42
-0.073671
0
VERTEX
8
1
10
76.096626
20
37.322617
0
VERTEX
8
1
10
75.614052
20
40.073318
0
VERTEX
8
1
10
75.593735
20
40.069656
42
0.001549
0
VERTEX
8
1
10
75.214912
20
39.916107
0
VERTEX
8
1
10
75.173538
20
39.896156
42
0.143005
0
VERTEX
8
1
10
74.962891
20
39.720757
42
-0.040042
0
VERTEX
8
1
10
74.607582
20
39.391663
0
VERTEX
8
1
10
74.435410
20
39.249802
42
0.104306
0
VERTEX
8
1
10
74.323059
20
39.130722
42
-0.002202
0
VERTEX
8
1
10
74.000847
20
38.711334
42
0.031667
0
VERTEX
8
1
10
73.411392
20
38.730507
42
0.164375
0
VERTEX
8
1
10
73.350342
20
38.699326
42
0.033143
0
VERTEX
8
1
10
73.042686
20
38.392067
42
-0.181660
0
VERTEX
8
1
10
72.803391
20
38.308815
42
-0.014663
0
VERTEX
8
1
10
72.105522
20
38.408081
42
-0.061340
0
SEQEND
0
POLYLINE
8
1
66
1
70
1
0
VERTEX
8
1
10
84.334564
20
40.668907
42
-0.050682
0
VERTEX
8
1
10
84.026955
20
40.829845
42
-0.148587
0
VERTEX
8
1
10
83.936523
20
40.967735
42
-0.029501
0
VERTEX
8
1
10
83.834846
20
41.297997
0
VERTEX
8
1
10
83.351166
20
41.628944
0
VERTEX
8
1
10
83.336151
20
41.627529
42
-0.003309
0
VERTEX
8
1
10
76.971848
20
40.230213
0
VERTEX
8
1
10
76.836075
20
40.204769
0
VERTEX
8
1
10
76.699974
20
40.181122
42
0.016550
0
VERTEX
8
1
10
76.574409
20
40.789932
0
VERTEX
8
1
10
76.561775
20
40.795929
42
-0.011909
0
VERTEX
8
1
10
75.743561
20
40.160370
0
VERTEX
8
1
10
75.728508
20
40.144218
0
VERTEX
8
1
10
76.238594
20
37.236771
0
VERTEX
8
1
10
76.237030
20
37.236305
0
VERTEX
8
1
10
76.497780
20
35.410194
0
VERTEX
8
1
10
76.534622
20
35.415455
42
0.005400
0
VERTEX
8
1
10
82.493515
20
36.520947
42
0.008947
0
VERTEX
8
1
10
83.594170
20
36.765709
42
0.024675
0
VERTEX
8
1
10
83.753349
20
36.818871
0
VERTEX
8
1
10
83.758080
20
36.824883
42
0.012264
0
VERTEX
8
1
10
83.836525
20
37.066986
42
-0.137138
0
VERTEX
8
1
10
83.942497
20
37.197151
42
-0.143725
0
VERTEX
8
1
10
84.113213
20
37.232605
42
0.077351
0
VERTEX
8
1
10
84.350937
20
37.284309
42
-0.168680
0
VERTEX
8
1
10
84.484787
20
37.279556
42
0.292715
0
VERTEX
8
1
10
84.716919
20
37.401741
42
0.021135
0
VERTEX
8
1
10
84.868187
20
37.690155
42
-0.047070
0
VERTEX
8
1
10
85.018654
20
37.891239
42
0.069095
0
VERTEX
8
1
10
85.103569
20
38.036263
42
0.201070
0
VERTEX
8
1
10
85.091873
20
38.114006
42
0.051390
0
VERTEX
8
1
10
84.952271
20
38.351898
0
VERTEX
8
1
10
84.512871
20
38.791298
42
0.142852
0
VERTEX
8
1
10
84.325470
20
38.879318
42
-0.227368
0
VERTEX
8
1
10
84.220116
20
38.975159
42
-0.137264
0
VERTEX
8
1
10
84.227623
20
39.120895
42
-0.005046
0
VERTEX
8
1
10
84.304131
20
39.365318
42
0.133258
0
VERTEX
8
1
10
84.295334
20
39.422737
42
-0.076242
0
VERTEX
8
1
10
84.244827
20
39.736290
0
VERTEX
8
1
10
84.248703
20
39.755074
42
-0.031076
0
VERTEX
8
1
10
84.401802
20
40.156883
42
-0.004993
0
VERTEX
8
1
10
84.598015
20
40.605820
0
VERTEX
8
1
10
84.590111
20
40.611732
42
-0.094100
0
SEQEND
0
POLYLINE
8
1
66
1
70
1
0
VERTEX
8
1
10
72.090652
20
25.308418
42
0.182028
0
VERTEX
8
1
10
72.166039
20
25.442421
0
VERTEX
8
1
10
72.173233
20
25.484207
0
VERTEX
8
1
10
72.178764
20
25.526247
42
-0.124465
0
VERTEX
8
1
10
72.247223
20
25.769440
42
-0.239733
0
VERTEX
8
1
10
72.478287
20
25.873678
0
VERTEX
8
1
10
72.499939
20
25.873812
0
VERTEX
8
1
10
72.521576
20
25.872978
0
VERTEX
8
1
10
73.053329
20
26.085678
0
VERTEX
8
1
10
73.064842
20
26.090256
42
0.269288
0
VERTEX
8
1
10
73.178574
20
26.203888
42
-0.024530
0
VERTEX
8
1
10
73.240082
20
26.375603
42
-0.257874
0
VERTEX
8
1
10
73.424675
20
26.481956
42
0.042363
0
VERTEX
8
1
10
73.611938
20
26.502855
42
0.292061
0
VERTEX
8
1
10
73.720215
20
26.636925
42
-0.011167
0
VERTEX
8
1
10
73.758980
20
26.817947
42
-0.153532
0
VERTEX
8
1
10
74.040161
20
27.178381
42
-0.212454
0
VERTEX
8
1
10
74.279411
20
27.193275
42
0.009123
0
VERTEX
8
1
10
74.515640
20
27.113010
42
0.349464
0
VERTEX
8
1
10
74.543709
20
27.136658
42
0.012410
0
VERTEX
8
1
10
74.603401
20
27.306313
42
-0.176423
0
VERTEX
8
1
10
74.725563
20
27.438385
42
-0.135341
0
VERTEX
8
1
10
75.105263
20
27.539474
42
0.264389
0
VERTEX
8
1
10
75.359436
20
27.807047
42
-0.290242
0
VERTEX
8
1
10
75.640862
20
28.063522
0
VERTEX
8
1
10
75.648605
20
28.068100
0
VERTEX
8
1
10
75.648148
20
28.114592
42
0.002628
0
VERTEX
8
1
10
75.610405
20
28.554962
0
VERTEX
8
1
10
75.304321
20
28.473610
0
VERTEX
8
1
10
74.881516
20
28.387566
0
VERTEX
8
1
10
74.365997
20
28.301353
42
-0.013407
0
VERTEX
8
1
10
71.042915
20
27.905445
42
-0.006458
0
VERTEX
8
1
10
65.449135
20
27.428677
0
VERTEX
8
1
10
65.284279
20
27.414444
42
-0.087157
0
VERTEX
8
1
10
65.225311
20
27.060974
42
-0.202839
0
VERTEX
8
1
10
65.163094
20
27.013031
42
-0.051265
0
VERTEX
8
1
10
64.905441
20
26.964783
42
-0.017684
0
VERTEX
8
1
10
63.519375
20
26.876732
42
-0.001575
0
VERTEX
8
1
10
62.964344
20
26.856743
42
0.238092
0
VERTEX
8
1
10
62.903896
20
26.772537
42
0.042043
0
VERTEX
8
1
10
62.921665
20
26.675087
42
-0.213379
0
VERTEX
8
1
10
62.873341
20
26.513763
42
-0.019753
0
VERTEX
8
1
10
62.684849
20
26.298523
0
VERTEX
8
1
10
62.661533
20
26.270485
42
0.110153
0
VERTEX
8
1
10
62.598572
20
26.071260
42
0.046163
0
VERTEX
8
1
10
62.594944
20
25.695869
0
VERTEX
8
1
10
62.588299
20
25.695313
42
-0.045874
0
VERTEX
8
1
10
62.542713
20
25.412331
42
-0.195855
0
VERTEX
8
1
10
62.333958
20
25.176800
42
0.060004
0
VERTEX
8
1
10
62.233974
20
25.104635
42
0.241545
0
VERTEX
8
1
10
62.221447
20
25.028671
42
-0.086625
0
VERTEX
8
1
10
62.222340
20
24.831299
42
-0.009840
0
VERTEX
8
1
10
62.198215
20
24.637482
42
0.053361
0
VERTEX
8
1
10
61.906193
20
24.345734
42
0.388492
0
VERTEX
8
1
10
61.915882
20
24.318428
42
-0.005689
0
VERTEX
8
1
10
62.053776
20
24.188789
42
-0.307706
0
VERTEX
8
1
10
62.084583
20
24.010345
42
-0.090395
0
VERTEX
8
1
10
61.962391
20
23.823639
0
VERTEX
8
1
10
61.975784
20
23.823927
42
-0.000329
0
VERTEX
8
1
10
65.259819
20
23.985390
0
VERTEX
8
1
10
65.369041
20
23.993095
42
0.005662
0
VERTEX
8
1
10
69.906502
20
24.419609
42
0.020698
0
VERTEX
8
1
10
71.739418
20
24.719955
0
VERTEX
8
1
10
71.712784
20
25.039467
0
VERTEX
8
1
10
71.713470
20
25.040245
0
VERTEX
8
1
10
71.910255
20
25.138634
42
0.022343
0
SEQEND
0
POLYLINE
8
1
66
1
70
1
0
VERTEX
8
1
10
65.914276
20
42.812813
42
0.087694
0
VERTEX
8
1
10
66.076202
20
42.676590
0
VERTEX
8
1
10
66.137505
20
42.640312
42
-0.169660
0
VERTEX
8
1
10
66.213112
20
42.568108
42
-0.244013
0
VERTEX
8
1
10
66.197319
20
42.505760
42
-0.006682
0
VERTEX
8
1
10
66.041306
20
42.338696
42
0.283651
0
VERTEX
8
1
10
66.034966
20
42.180672
42
-0.005362
0
VERTEX
8
1
10
66.175423
20
41.738815
42
0.061551
0
VERTEX
8
1
10
66.274040
20
41.552544
42
-0.045812
0
VERTEX
8
1
10
66.587463
20
40.909203
42
-0.062560
0
VERTEX
8
1
10
66.634987
20
40.575897
42
-0.005436
0
VERTEX
8
1
10
66.644501
20
39.344505
42
-0.036283
0
VERTEX
8
1
10
66.619865
20
39.077492
42
0.051010
0
VERTEX
8
1
10
66.526131
20
38.818153
42
-0.142618
0
VERTEX
8
1
10
66.368660
20
38.564087
42
0.004188
0
VERTEX
8
1
10
66.134064
20
38.314133
0
VERTEX
8
1
10
66.189201
20
38.316456
42
0.001663
0
VERTEX
8
1
10
67.648178
20
38.486576
0
VERTEX
8
1
10
67.732452
20
38.494011
42
-0.019240
0
VERTEX
8
1
10
69.202347
20
38.512154
0
VERTEX
8
1
10
69.303398
20
38.510769
0
VERTEX
8
1
10
71.332329
20
38.971901
0
VERTEX
8
1
10
71.346001
20
38.979263
42
0.051217
0
VERTEX
8
1
10
71.597397
20
39.337986
42
0.102113
0
VERTEX
8
1
10
71.628967
20
39.466667
42
-0.070970
0
VERTEX
8
1
10
71.784386
20
40.101471
42
-0.064678
0
VERTEX
8
1
10
71.865395
20
40.233227
0
VERTEX
8
1
10
71.912819
20
40.296940
42
-0.022844
0
VERTEX
8
1
10
72.289520
20
40.731422
0
VERTEX
8
1
10
72.347847
20
40.794418
42
0.040350
0
VERTEX
8
1
10
72.322258
20
41.796196
42
0.086248
0
VERTEX
8
1
10
72.219635
20
42.163383
42
-0.047723
0
VERTEX
8
1
10
72.031494
20
42.738346
42
0.067500
0
VERTEX
8
1
10
71.927216
20
42.978638
42
0.014151
0
VERTEX
8
1
10
71.689018
20
43.451492
42
0.052962
0
VERTEX
8
1
10
71.581650
20
43.588737
0
VERTEX
8
1
10
71.557907
20
43.606247
42
0.018435
0
VERTEX
8
1
10
71.389923
20
43.680824
42
0.251589
0
VERTEX
8
1
10
71.265312
20
43.642059
42
0.041512
0
VERTEX
8
1
10
70.837318
20
43.282867
42
0.068682
0
VERTEX
8
1
10
70.659904
20
43.012016
42
-0.081300
0
VERTEX
8
1
10
70.527664
20
42.842079
42
-0.091409
0
VERTEX
8
1
10
70.316956
20
42.671848
42
-0.256376
0
VERTEX
8
1
10
70.258873
20
42.685898
0
VERTEX
8
1
10
70.234436
20
42.701653
42
-0.043971
0
VERTEX
8
1
10
69.890221
20
43.017647
42
-0.053760
0
VERTEX
8
1
10
70.166962
20
43.371201
0
VERTEX
8
1
10
70.185066
20
43.385323
42
0.018051
0
VERTEX
8
1
10
70.338104
20
43.475212
42
0.120126
0
VERTEX
8
1
10
70.447365
20
43.596008
42
0.180913
0
VERTEX
8
1
10
70.453285
20
43.729286
42
-0.060112
0
VERTEX
8
1
10
70.416168
20
43.976677
42
-0.164364
0
VERTEX
8
1
10
70.474464
20
44.106262
42
0.035909
0
VERTEX
8
1
10
70.661911
20
44.351315
42
0.152247
0
VERTEX
8
1
10
70.680389
20
44.459053
42
0.047846
0
VERTEX
8
1
10
70.602798
20
45.107697
42
0.159659
0
VERTEX
8
1
10
70.513947
20
45.242798
42
0.039542
0
VERTEX
8
1
10
70.321327
20
45.376492
42
-0.097717
0
VERTEX
8
1
10
70.219681
20
45.478325
42
-0.304935
0
VERTEX
8
1
10
70.256973
20
45.639076
42
-0.085231
0
VERTEX
8
1
10
70.369392
20
45.681030
42
0.306201
0
VERTEX
8
1
10
70.472282
20
45.853714
42
0.218858
0
VERTEX
8
1
10
70.441689
20
45.894035
42
0.003544
0
VERTEX
8
1
10
70.107643
20
46.175465
42
0.050197
0
VERTEX
8
1
10
69.908493
20
46.293884
0
VERTEX
8
1
10
69.874947
20
46.304169
0
VERTEX
8
1
10
69.844032
20
46.308739
42
0.028812
0
VERTEX
8
1
10
69.555161
20
46.291054
42
-0.183157
0
VERTEX
8
1
10
69.212799
20
46.411369
42
-0.024290
0
VERTEX
8
1
10
69.010086
20
46.595982
42
0.156873
0
VERTEX
8
1
10
68.762131
20
46.701920
42
-0.059020
0
VERTEX
8
1
10
68.330017
20
46.860054
42
0.055863
0
VERTEX
8
1
10
68.254082
20
46.878487
42
0.045071
0
VERTEX
8
1
10
67.797165
20
46.720100
0
VERTEX
8
1
10
67.779839
20
46.708069
42
0.198183
0
VERTEX
8
1
10
67.660873
20
46.434647
42
0.242034
0
VERTEX
8
1
10
67.680138
20
46.408554
42
-0.048549
0
VERTEX
8
1
10
67.990677
20
46.120407
42
-0.109930
0
VERTEX
8
1
10
68.027748
20
46.037785
42
-0.351677
0
VERTEX
8
1
10
67.996361
20
46.001167
42
-0.103276
0
VERTEX
8
1
10
67.793365
20
45.974770
42
0.084883
0
VERTEX
8
1
10
67.610893
20
45.938591
42
0.012872
0
VERTEX
8
1
10
67.380028
20
45.884693
42
0.411507
0
VERTEX
8
1
10
67.305809
20
45.756172
42
-0.012950
0
VERTEX
8
1
10
67.388893
20
45.056282
42
-0.067952
0
VERTEX
8
1
10
67.257690
20
44.781498
42
-0.184974
0
VERTEX
8
1
10
67.223808
20
44.763809
0
VERTEX
8
1
10
67.213135
20
44.771767
0
VERTEX
8
1
10
67.204239
20
44.789948
0
VERTEX
8
1
10
67.197441
20
44.819565
42
0.039237
0
VERTEX
8
1
10
67.082306
20
45.371964
42
-0.011520
0
VERTEX
8
1
10
67.056305
20
45.666576
42
0.117832
0
VERTEX
8
1
10
67.030739
20
45.733891
42
0.413496
0
VERTEX
8
1
10
67.001366
20
45.730751
0
VERTEX
8
1
10
66.986000
20
45.715134
42
0.130430
0
VERTEX
8
1
10
66.868858
20
45.389648
42
-0.098588
0
VERTEX
8
1
10
66.781563
20
45.181362
42
-0.081662
0
VERTEX
8
1
10
66.593201
20
44.957756
42
0.040074
0
VERTEX
8
1
10
66.370850
20
44.728607
42
0.140597
0
VERTEX
8
1
10
66.271439
20
44.410484
42
0.060521
0
VERTEX
8
1
10
66.284683
20
44.117767
42
-0.104026
0
VERTEX
8
1
10
66.218979
20
43.564774
42
-0.121916
0
VERTEX
8
1
10
65.985962
20
43.271164
42
0.040187
0
VERTEX
8
1
10
65.856651
20
43.135223
42
0.206176
0
VERTEX
8
1
10
65.834824
20
42.999306
0
VERTEX
8
1
10
65.843063
20
42.958839
42
0.173880
0
SEQEND
0
POLYLINE
8
1
66
1
70
1
0
VERTEX
8
1
10
12.154514
20
53.091362
42
-0.152288
0
VERTEX
8
1
10
12.289054
20
52.920933
42
-0.492922
0
VERTEX
8
1
10
12.248175
20
52.882462
0
VERTEX
8
1
10
12.228712
20
52.880615
42
-0.036630
0
VERTEX
8
1
10
11.847279
20
52.904968
42
-0.029743
0
VERTEX
8
1
10
11.892090
20
52.176071
42
0.091278
0
VERTEX
8
1
10
12.006214
20
52.065445
42
-0.052261
0
VERTEX
8
1
10
12.364400
20
52.057526
42
-0.205922
0
VERTEX
8
1
10
12.667352
20
51.842628
42
0.072046
0
VERTEX
8
1
10
12.738325
20
51.777039
42
0.153220
0
VERTEX
8
1
10
12.882174
20
51.760757
42
-0.040774
0
VERTEX
8
1
10
13.099852
20
51.786785
42
-0.260782
0
VERTEX
8
1
10
13.226101
20
51.697975
42
-0.021581
0
VERTEX
8
1
10
13.303087
20
51.525864
0
VERTEX
8
1
10
13.312533
20
51.508987
42
-0.173553
0
VERTEX
8
1
10
13.381334
20
51.308792
42
0.047786
0
VERTEX
8
1
10
13.398423
20
51.054077
0
VERTEX
8
1
10
13.405856
20
51.030640
42
-0.134930
0
VERTEX
8
1
10
13.467484
20
50.625912
42
-0.009033
0
VERTEX
8
1
10
13.458296
20
50.500900
42
0.084687
0
VERTEX
8
1
10
14.001744
20
50.195389
42
0.071831
0
VERTEX
8
1
10
14.128456
20
50.178246
42
0.078742
0
VERTEX
8
1
10
14.221666
20
50.215111
0
VERTEX
8
1
10
14.309984
20
50.260925
42
-0.159814
0
VERTEX
8
1
10
14.676668
20
50.341919
42
-0.070586
0
VERTEX
8
1
10
14.992914
20
50.232315
42
0.031917
0
VERTEX
8
1
10
15.120073
20
50.185913
42
-0.069975
0
VERTEX
8
1
10
15.452192
20
49.957195
42
0.005960
0
VERTEX
8
1
10
15.580561
20
49.854851
42
0.107385
0
VERTEX
8
1
10
15.928263
20
49.734818
0
VERTEX
8
1
10
15.939329
20
49.735771
42
0.085717
0
VERTEX
8
1
10
16.188349
20
49.904823
42
0.002313
0
VERTEX
8
1
10
16.260445
20
49.996304
42
-0.426578
0
VERTEX
8
1
10
16.416803
20
49.984940
42
-0.111298
0
VERTEX
8
1
10
16.498102
20
49.846436
42
0.114289
0
VERTEX
8
1
10
16.757650
20
49.705956
42
0.122686
0
VERTEX
8
1
10
16.906834
20
49.721992
0
VERTEX
8
1
10
16.941938
20
49.732063
42
0.018068
0
VERTEX
8
1
10
17.308903
20
49.876137
42
-0.105568
0
VERTEX
8
1
10
17.604120
20
49.901176
42
-0.051972
0
VERTEX
8
1
10
18.062607
20
49.852581
42
0.026621
0
VERTEX
8
1
10
18.452536
20
49.810890
42
-0.051101
0
VERTEX
8
1
10
18.721888
20
49.821587
42
0.005702
0
VERTEX
8
1
10
19.497892
20
49.786987
0
VERTEX
8
1
10
19.551655
20
49.782326
42
-0.045763
0
VERTEX
8
1
10
20.163172
20
49.620918
42
-0.011846
0
VERTEX
8
1
10
20.812305
20
49.380325
42
0.052104
0
VERTEX
8
1
10
21.419102
20
49.279133
42
0.007427
0
VERTEX
8
1
10
21.620609
20
49.263962
0
VERTEX
8
1
10
21.634296
20
49.281380
42
-0.041737
0
VERTEX
8
1
10
21.919682
20
51.542721
42
-0.012268
0
VERTEX
8
1
10
22.802458
20
55.432991
0
VERTEX
8
1
10
22.535925
20
55.494026
42
-0.012994
0
VERTEX
8
1
10
15.695803
20
57.096413
42
-0.002397
0
VERTEX
8
1
10
14.415223
20
57.443954
0
VERTEX
8
1
10
14.399023
20
57.415176
42
0.435766
0
VERTEX
8
1
10
14.668489
20
56.824486
42
-0.099865
0
VERTEX
8
1
10
15.025547
20
56.604153
42
-0.240143
0
VERTEX
8
1
10
15.102059
20
56.335571
42
-0.116040
0
VERTEX
8
1
10
15.051743
20
56.238388
0
VERTEX
8
1
10
14.993172
20
56.162834
42
0.093218
0
VERTEX
8
1
10
14.849918
20
55.911060
42
0.318106
0
VERTEX
8
1
10
14.932001
20
55.694702
42
0.082112
0
VERTEX
8
1
10
15.061073
20
55.623009
0
VERTEX
8
1
10
15.090359
20
55.573151
42
0.028825
0
VERTEX
8
1
10
15.182387
20
55.212585
42
-0.173187
0
VERTEX
8
1
10
15.153049
20
55.030983
42
0.034235
0
VERTEX
8
1
10
14.922371
20
54.461937
0
VERTEX
8
1
10
14.748823
20
53.941399
42
-0.021999
0
VERTEX
8
1
10
14.689729
20
53.741608
42
-0.240489
0
VERTEX
8
1
10
14.422740
20
53.518459
42
-0.048050
0
VERTEX
8
1
10
14.282297
20
53.491379
0
VERTEX
8
1
10
14.244139
20
53.492798
0
VERTEX
8
1
10
14.218477
20
53.499947
42
-0.178674
0
VERTEX
8
1
10
13.993391
20
53.717606
42
0.099017
0
VERTEX
8
1
10
14.356391
20
53.737038
42
0.200373
0
VERTEX
8
1
10
14.539080
20
53.897324
0
VERTEX
8
1
10
14.552835
20
53.937599
42
0.093316
0
VERTEX
8
1
10
14.589131
20
54.491367
42
-0.337596
0
VERTEX
8
1
10
14.717894
20
54.673416
42
0.070379
0
VERTEX
8
1
10
14.859871
20
54.766712
42
0.315966
0
VERTEX
8
1
10
14.874195
20
54.920235
0
VERTEX
8
1
10
14.859751
20
54.948143
0
VERTEX
8
1
10
14.840319
20
54.978424
42
0.066795
0
VERTEX
8
1
10
14.026046
20
55.818954
42
0.065452
0
VERTEX
8
1
10
13.715336
20
55.985710
42
-0.008567
0
VERTEX
8
1
10
13.116165
20
56.232250
42
-0.078429
0
VERTEX
8
1
10
12.765648
20
56.481140
42
0.024577
0
VERTEX
8
1
10
12.401218
20
56.796993
42
0.131012
0
VERTEX
8
1
10
12.270494
20
56.850060
42
0.273855
0
VERTEX
8
1
10
12.194496
20
56.796455
0
VERTEX
8
1
10
12.181463
20
56.772469
42
0.060995
0
VERTEX
8
1
10
12.118155
20
56.503014
42
-0.058846
0
VERTEX
8
1
10
12.038239
20
56.191154
42
0.120319
0
VERTEX
8
1
10
12.020815
20
55.479767
42
0.019130
0
VERTEX
8
1
10
12.156518
20
55.122677
42
-0.089382
0
VERTEX
8
1
10
12.191311
20
54.882378
0
VERTEX
8
1
10
12.185726
20
54.844826
42
0.047407
0
VERTEX
8
1
10
12.055481
20
53.991524
0
VERTEX
8
1
10
12.054573
20
53.915054
42
0.105561
0
VERTEX
8
1
10
12.074202
20
53.744934
42
0.224277
0
VERTEX
8
1
10
12.168327
20
53.673935
42
-0.239655
0
VERTEX
8
1
10
12.283735
20
53.579002
0
VERTEX
8
1
10
12.284634
20
53.572777
42
-0.154279
0
VERTEX
8
1
10
12.105415
20
53.434402
42
-0.028256
0
VERTEX
8
1
10
12.026840
20
53.422470
0
VERTEX
8
1
10
12.008717
20
53.414757
42
0.170146
0
VERTEX
8
1
10
11.890309
20
53.245708
42
0.026241
0
VERTEX
8
1
10
11.867989
20
53.176964
42
0.280623
0
VERTEX
8
1
10
12.031956
20
53.125435
42
-0.230078
0
SEQEND
0
POLYLINE
8
1
66
1
70
1
0
VERTEX
8
1
10
24.227604
20
54.716072
42
0.003610
0
VERTEX
8
1
10
24.007435
20
53.689613
42
0.009337
0
VERTEX
8
1
10
23.980038
20
52.915787
42
0.067543
0
VERTEX
8
1
10
24.025887
20
52.737045
42
-0.030275
0
VERTEX
8
1
10
24.164312
20
52.294930
42
-0.065565
0
VERTEX
8
1
10
24.173391
20
52.123985
42
-0.009824
0
VERTEX
8
1
10
24.149019
20
51.646774
0
VERTEX
8
1
10
24.154106
20
51.636230
42
-0.082877
0
VERTEX
8
1
10
24.462353
20
51.277203
42
-0.097174
0
VERTEX
8
1
10
24.515104
20
51.107841
42
0.066224
0
VERTEX
8
1
10
24.853167
20
50.285854
42
0.133026
0
VERTEX
8
1
10
25.082298
20
50.074348
42
0.057414
0
VERTEX
8
1
10
25.448261
20
49.920189
42
-0.187865
0
VERTEX
8
1
10
25.643490
20
49.575363
42
-0.216482
0
VERTEX
8
1
10
25.562010
20
49.362366
42
0.051458
0
VERTEX
8
1
10
25.308596
20
48.978729
0
VERTEX
8
1
10
25.235336
20
48.783745
42
-0.118170
0
VERTEX
8
1
10
25.322823
20
48.402794
42
-0.178253
0
VERTEX
8
1
10
25.239405
20
48.229782
42
-0.019332
0
VERTEX
8
1
10
25.027113
20
47.996506
42
0.079043
0
VERTEX
8
1
10
24.902464
20
47.638084
42
0.095091
0
VERTEX
8
1
10
24.908958
20
47.599854
42
0.157916
0
VERTEX
8
1
10
25.276587
20
47.467533
42
0.121229
0
VERTEX
8
1
10
25.337723
20
47.490593
42
-0.014567
0
VERTEX
8
1
10
25.705345
20
47.646492
42
-0.090274
0
VERTEX
8
1
10
26.094734
20
47.661221
42
-0.194645
0
VERTEX
8
1
10
26.194153
20
47.586937
42
-0.145659
0
VERTEX
8
1
10
26.202127
20
47.525276
42
0.077208
0
VERTEX
8
1
10
26.161217
20
46.734310
42
0.060844
0
VERTEX
8
1
10
26.222359
20
46.511559
42
-0.034282
0
VERTEX
8
1
10
26.370638
20
45.943016
0
VERTEX
8
1
10
26.305773
20
45.748047
0
VERTEX
8
1
10
26.305866
20
45.747108
42
-0.097898
0
VERTEX
8
1
10
26.637455
20
45.630821
42
-0.220015
0
VERTEX
8
1
10
26.709509
20
45.507050
42
0.063382
0
VERTEX
8
1
10
26.859787
20
45.043293
42
0.108078
0
VERTEX
8
1
10
26.940525
20
44.950294
42
0.100981
0
VERTEX
8
1
10
27.164600
20
44.899094
42
0.039801
0
VERTEX
8
1
10
27.406122
20
44.899002
42
-0.147755
0
VERTEX
8
1
10
27.949480
20
44.936089
42
-0.029922
0
VERTEX
8
1
10
28.396015
20
44.816689
0
VERTEX
8
1
10
28.809914
20
44.868446
0
VERTEX
8
1
10
29.009506
20
45.018143
0
VERTEX
8
1
10
29.190128
20
45.307144
0
VERTEX
8
1
10
29.601715
20
44.766937
0
VERTEX
8
1
10
29.754299
20
45.682037
0
VERTEX
8
1
10
29.754564
20
45.682472
42
0.002363
0
VERTEX
8
1
10
39.059032
20
44.725483
42
0.004168
0
VERTEX
8
1
10
39.952766
20
44.651199
0
VERTEX
8
1
10
40.005302
20
44.685471
0
VERTEX
8
1
10
40.014210
20
44.792442
42
0.004215
0
VERTEX
8
1
10
40.175243
20
47.406475
42
0.000867
0
VERTEX
8
1
10
40.468472
20
52.749565
0
VERTEX
8
1
10
40.353043
20
52.983013
42
-0.012995
0
VERTEX
8
1
10
29.723120
20
54.142300
42
-0.008869
0
VERTEX
8
1
10
25.202337
20
54.955193
0
VERTEX
8
1
10
24.617113
20
55.070145
0
VERTEX
8
1
10
24.321793
20
55.123859
42
0.004448
0
SEQEND
0
POLYLINE
8
1
66
1
70
1
0
VERTEX
8
1
10
50.229935
20
52.486076
0
VERTEX
8
1
10
50.229935
20
50.301895
42
0.025570
0
VERTEX
8
1
10
50.391521
20
50.115150
42
-0.081887
0
VERTEX
8
1
10
50.459866
20
49.970097
42
-0.044465
0
VERTEX
8
1
10
50.562199
20
49.569962
0
VERTEX
8
1
10
50.698059
20
48.646439
0
VERTEX
8
1
10
50.757652
20
48.227905
0
VERTEX
8
1
10
50.812321
20
47.216789
0
VERTEX
8
1
10
50.948341
20
46.999161
0
VERTEX
8
1
10
51.005394
20
46.742416
42
-0.042407
0
VERTEX
8
1
10
51.038631
20
46.440849
0
VERTEX
8
1
10
51.042015
20
46.428566
42
-0.093211
0
VERTEX
8
1
10
51.116451
20
46.139847
0
VERTEX
8
1
10
51.124847
20
46.056824
0
VERTEX
8
1
10
51.107330
20
46.055412
0
VERTEX
8
1
10
51.060688
20
45.845535
0
VERTEX
8
1
10
51.006016
20
45.708839
42
-0.386894
0
VERTEX
8
1
10
50.772579
20
45.571815
0
VERTEX
8
1
10
50.766563
20
45.567398
42
0.115759
0
VERTEX
8
1
10
50.645412
20
45.372269
42
0.375710
0
VERTEX
8
1
10
50.686874
20
45.311256
42
-0.097934
0
VERTEX
8
1
10
50.904842
20
45.179413
42
-0.144785
0
VERTEX
8
1
10
50.974483
20
44.988060
0
VERTEX
8
1
10
50.977695
20
44.967262
42
0.321091
0
VERTEX
8
1
10
51.066578
20
44.859932
42
0.099889
0
VERTEX
8
1
10
51.211601
20
44.842476
0
VERTEX
8
1
10
51.284180
20
44.849602
0
VERTEX
8
1
10
51.284534
20
44.844986
0
VERTEX
8
1
10
51.339779
20
41.171295
0
VERTEX
8
1
10
51.364101
20
41.147678
42
0.008966
0
VERTEX
8
1
10
56.268860
20
41.179218
42
0.007344
0
VERTEX
8
1
10
57.789280
20
41.247406
0
VERTEX
8
1
10
58.236183
20
41.280548
0
VERTEX
8
1
10
58.629417
20
41.319550
0
VERTEX
8
1
10
58.944511
20
41.363632
42
-0.053244
0
VERTEX
8
1
10
58.939323
20
41.781601
42
0.110735
0
VERTEX
8
1
10
58.886456
20
41.893173
42
0.084751
0
VERTEX
8
1
10
58.462955
20
42.297642
42
0.001911
0
VERTEX
8
1
10
57.990093
20
42.641502
42
-0.009683
0
VERTEX
8
1
10
57.640217
20
42.980019
42
0.107756
0
VERTEX
8
1
10
57.272758
20
43.198212
42
0.034615
0
VERTEX
8
1
10
56.749989
20
43.643970
42
-0.046133
0
VERTEX
8
1
10
56.493820
20
43.897659
42
-0.028354
0
VERTEX
8
1
10
56.515285
20
44.449944
42
0.047625
0
VERTEX
8
1
10
56.556255
20
44.733894
42
0.007066
0
VERTEX
8
1
10
56.576267
20
44.990898
42
0.043229
0
VERTEX
8
1
10
56.447655
20
45.441399
42
0.088955
0
VERTEX
8
1
10
56.318474
20
45.625099
42
-0.052594
0
VERTEX
8
1
10
56.473736
20
45.999443
42
-0.122820
0
VERTEX
8
1
10
56.742825
20
46.248795
42
0.137820
0
VERTEX
8
1
10
56.965778
20
46.518539
42
0.109367
0
VERTEX
8
1
10
57.045258
20
46.752937
42
0.090409
0
VERTEX
8
1
10
57.046440
20
47.082169
0
VERTEX
8
1
10
57.046494
20
47.113358
42
-0.044994
0
VERTEX
8
1
10
57.126762
20
47.550140
42
-0.034745
0
VERTEX
8
1
10
57.165592
20
47.695404
42
-0.075189
0
VERTEX
8
1
10
57.422535
20
48.037060
42
-0.158500
0
VERTEX
8
1
10
57.515511
20
48.067749
42
0.035356
0
VERTEX
8
1
10
57.654938
20
48.113838
0
VERTEX
8
1
10
57.833611
20
48.180984
42
0.074885
0
VERTEX
8
1
10
58.641804
20
49.041412
42
-0.017378
0
VERTEX
8
1
10
58.982246
20
49.502762
42
-0.070814
0
VERTEX
8
1
10
59.263718
20
49.746349
42
0.000715
0
VERTEX
8
1
10
59.810188
20
50.163689
42
0.009870
0
VERTEX
8
1
10
60.611813
20
50.697296
42
0.154072
0
VERTEX
8
1
10
60.166779
20
50.817245
0
VERTEX
8
1
10
60.123150
20
50.810814
0
VERTEX
8
1
10
60.077927
20
50.802162
42
-0.064991
0
VERTEX
8
1
10
59.593922
20
50.820145
42
-0.019837
0
VERTEX
8
1
10
59.333134
20
50.864967
42
0.076699
0
VERTEX
8
1
10
59.018772
20
51.103992
42
0.214424
0
VERTEX
8
1
10
58.917194
20
51.104218
42
0.061870
0
VERTEX
8
1
10
58.715065
20
50.950882
42
-0.170677
0
VERTEX
8
1
10
58.192265
20
50.764549
42
-0.006177
0
VERTEX
8
1
10
58.082191
20
50.750916
42
-0.114344
0
VERTEX
8
1
10
57.877975
20
50.832474
42
-0.093059
0
VERTEX
8
1
10
57.440945
20
51.221634
42
0.067710
0
VERTEX
8
1
10
57.278797
20
51.375778
42
0.202478
0
VERTEX
8
1
10
57.190849
20
51.381470
0
VERTEX
8
1
10
57.170696
20
51.367149
42
-0.012545
0
VERTEX
8
1
10
56.998493
20
51.187393
0
VERTEX
8
1
10
56.983147
20
51.176231
42
-0.428002
0
VERTEX
8
1
10
56.866493
20
51.188232
42
-0.064121
0
VERTEX
8
1
10
56.817566
20
51.249111
42
0.100408
0
VERTEX
8
1
10
56.548603
20
51.491486
42
0.018214
0
VERTEX
8
1
10
56.058998
20
51.764084
42
0.082259
0
VERTEX
8
1
10
55.743275
20
51.851444
42
0.135523
0
VERTEX
8
1
10
55.498249
20
51.791801
42
0.057264
0
VERTEX
8
1
10
55.201870
20
51.604782
42
-0.222877
0
VERTEX
8
1
10
54.891148
20
51.525917
42
-0.099902
0
VERTEX
8
1
10
54.615074
20
51.624542
42
0.058138
0
VERTEX
8
1
10
54.119308
20
51.823456
42
0.049159
0
VERTEX
8
1
10
53.821331
20
51.894630
42
-0.186615
0
VERTEX
8
1
10
53.778339
20
51.964348
0
VERTEX
8
1
10
53.769566
20
51.993912
42
0.016552
0
VERTEX
8
1
10
53.677757
20
52.374405
0
VERTEX
8
1
10
53.661884
20
52.420311
42
0.024977
0
VERTEX
8
1
10
53.361832
20
53.065475
42
0.076851
0
VERTEX
8
1
10
53.199039
20
53.249531
0
VERTEX
8
1
10
53.179771
20
53.261925
42
0.347245
0
VERTEX
8
1
10
53.036671
20
53.255905
42
0.128963
0
VERTEX
8
1
10
52.942760
20
53.140564
42
0.059814
0
VERTEX
8
1
10
52.767349
20
52.582748
0
VERTEX
8
1
10
52.758533
20
52.542824
0
VERTEX
8
1
10
52.749886
20
52.502861
42
-0.011203
0
SEQEND
0
POLYLINE
8
1
66
1
70
1
0
VERTEX
8
1
10
65.154785
20
38.078140
0
VERTEX
8
1
10
65.453354
20
33.151764
42
0.103585
0
VERTEX
8
1
10
65.284882
20
32.774342
42
0.224842
0
VERTEX
8
1
10
65.323792
20
32.645874
42
-0.031029
0
VERTEX
8
1
10
65.611565
20
32.214741
42
-0.111918
0
VERTEX
8
1
10
65.652908
20
32.048424
0
VERTEX
8
1
10
65.648361
20
32.024284
42
0.057421
0
VERTEX
8
1
10
65.594131
20
31.847862
42
-0.093292
0
VERTEX
8
1
10
65.486153
20
31.617790
42
0.124090
0
VERTEX
8
1
10
65.341133
20
31.156662
42
-0.224384
0
VERTEX
8
1
10
65.253754
20
30.921661
42
-0.000961
0
VERTEX
8
1
10
65.089485
20
30.752487
42
0.107577
0
VERTEX
8
1
10
65.060402
20
30.680435
0
VERTEX
8
1
10
65.022224
20
30.524200
42
0.072226
0
VERTEX
8
1
10
64.971100
20
30.116241
42
0.003887
0
VERTEX
8
1
10
64.996582
20
29.966974
0
VERTEX
8
1
10
65.002480
20
29.968430
42
-0.159747
0
VERTEX
8
1
10
65.202888
20
30.097290
42
-0.156140
0
VERTEX
8
1
10
65.332550
20
30.077141
0
VERTEX
8
1
10
65.358185
20
30.066185
42
0.004879
0
VERTEX
8
1
10
65.602562
20
29.936096
0
VERTEX
8
1
10
65.610710
20
29.933756
0
VERTEX
8
1
10
65.619003
20
29.932022
42
-0.036399
0
VERTEX
8
1
10
65.696617
20
30.071024
42
-0.249435
0
VERTEX
8
1
10
65.837677
20
30.124771
42
-0.025443
0
VERTEX
8
1
10
66.262634
20
30.029633
42
0.122248
0
VERTEX
8
1
10
66.369644
20
29.910866
0
VERTEX
8
1
10
66.379143
20
29.908730
0
VERTEX
8
1
10
66.381927
20
29.911057
42
0.079239
0
VERTEX
8
1
10
66.439873
20
30.029411
42
-0.059758
0
VERTEX
8
1
10
66.579086
20
30.320938
42
-0.231330
0
VERTEX
8
1
10
66.744720
20
30.399933
0
VERTEX
8
1
10
66.774704
20
30.395325
42
-0.093093
0
VERTEX
8
1
10
67.128075
20
30.219666
0
VERTEX
8
1
10
67.173737
20
30.187340
0
VERTEX
8
1
10
67.181747
20
30.187126
42
0.232862
0
VERTEX
8
1
10
67.272240
20
30.345108
42
-0.070414
0
VERTEX
8
1
10
67.344391
20
30.635492
42
-0.184485
0
VERTEX
8
1
10
67.468674
20
30.737717
42
-0.039734
0
VERTEX
8
1
10
67.561783
20
30.825676
42
-0.348501
0
VERTEX
8
1
10
67.702644
20
30.805672
42
0.105006
0
VERTEX
8
1
10
68.071846
20
30.594818
42
0.433572
0
VERTEX
8
1
10
68.183678
20
30.654732
42
0.103780
0
VERTEX
8
1
10
68.223373
20
30.831390
42
-0.086741
0
VERTEX
8
1
10
68.289001
20
31.086678
42
-0.432465
0
VERTEX
8
1
10
68.424446
20
31.140635
42
0.357659
0
VERTEX
8
1
10
68.523659
20
31.173500
42
0.155681
0
VERTEX
8
1
10
68.612144
20
31.416786
42
-0.309767
0
VERTEX
8
1
10
68.689285
20
31.565422
42
0.103580
0
VERTEX
8
1
10
68.961426
20
31.824036
42
-0.077986
0
VERTEX
8
1
10
68.929199
20
32.194145
0
VERTEX
8
1
10
68.932686
20
32.210228
42
-0.563479
0
VERTEX
8
1
10
69.087326
20
32.279404
42
0.039789
0
VERTEX
8
1
10
69.272354
20
32.172253
42
0.272084
0
VERTEX
8
1
10
69.349335
20
32.193695
42
0.045212
0
VERTEX
8
1
10
69.539948
20
32.380341
0
VERTEX
8
1
10
69.894669
20
32.709908
0
VERTEX
8
1
10
69.895500
20
32.716660
42
-0.048631
0
VERTEX
8
1
10
69.746635
20
33.114178
42
0.001840
0
VERTEX
8
1
10
69.332451
20
37.519474
0
VERTEX
8
1
10
69.259354
20
38.283707
0
VERTEX
8
1
10
69.211708
20
38.386620
42
0.017343
0
VERTEX
8
1
10
67.795639
20
38.373077
0
VERTEX
8
1
10
67.702423
20
38.366211
42
-0.000333
0
VERTEX
8
1
10
65.998940
20
38.168434
42
-0.082839
0
VERTEX
8
1
10
65.497444
20
37.961975
42
-0.094266
0
VERTEX
8
1
10
65.321342
20
37.968307
42
-0.175177
0
VERTEX
8
1
10
65.154060
20
38.108482
0
SEQEND
0
POLYLINE
8
1
66
1
70
1
0
VERTEX
8
1
10
12.414541
20
43.017464
42
-0.000646
0
VERTEX
8
1
10
17.215275
20
41.754105
42
0.009888
0
VERTEX
8
1
10
17.992424
20
41.571899
42
0.003682
0
VERTEX
8
1
10
19.701756
20
41.205177
0
VERTEX
8
1
10
19.772465
20
41.194946
42
-0.042166
0
VERTEX
8
1
10
19.844744
20
42.009876
42
-0.042884
0
VERTEX
8
1
10
19.924522
20
42.272285
42
0.019944
0
VERTEX
8
1
10
20.253340
20
43.383591
42
0.001651
0
VERTEX
8
1
10
20.493053
20
44.227333
42
0.079132
0
VERTEX
8
1
10
20.498344
20
44.346260
0
VERTEX
8
1
10
20.491924
20
44.446793
42
-0.187765
0
VERTEX
8
1
10
20.600613
20
44.879009
42
-0.020660
0
VERTEX
8
1
10
20.762932
20
45.092571
42
0.098481
0
VERTEX
8
1
10
20.834469
20
45.253937
42
0.118455
0
VERTEX
8
1
10
20.822382
20
45.346848
42
-0.131119
0
VERTEX
8
1
10
20.827490
20
45.560509
42
-0.156081
0
VERTEX
8
1
10
20.494902
20
45.905434
42
-0.296347
0
VERTEX
8
1
10
20.532866
20
46.205826
42
0.013977
0
VERTEX
8
1
10
21.299347
20
47.124832
42
0.027822
0
VERTEX
8
1
10
21.601088
20
47.597069
42
-0.034629
0
VERTEX
8
1
10
21.824751
20
47.914078
42
0.028600
0
VERTEX
8
1
10
22.084784
20
48.189655
42
0.103990
0
VERTEX
8
1
10
22.135323
20
48.304939
0
VERTEX
8
1
10
22.134405
20
48.321327
42
0.071310
0
VERTEX
8
1
10
22.015102
20
48.614822
42
-0.113205
0
VERTEX
8
1
10
21.713783
20
48.781128
42
-0.179511
0
VERTEX
8
1
10
21.632732
20
48.971657
0
VERTEX
8
1
10
21.632711
20
49.137939
42
-0.046928
0
VERTEX
8
1
10
20.825693
20
49.245640
42
-0.032451
0
VERTEX
8
1
10
20.565613
20
49.342884
42
0.030926
0
VERTEX
8
1
10
19.638742
20
49.643406
42
0.055974
0
VERTEX
8
1
10
19.404652
20
49.663513
42
0.003899
0
VERTEX
8
1
10
18.601801
20
49.698360
42
0.034445
0
VERTEX
8
1
10
18.465919
20
49.686440
42
-0.044548
0
VERTEX
8
1
10
18.208208
20
49.706841
42
0.012165
0
VERTEX
8
1
10
17.728426
20
49.772408
42
0.006330
0
VERTEX
8
1
10
17.465694
20
49.780174
42
0.093925
0
VERTEX
8
1
10
17.306248
20
49.740967
0
VERTEX
8
1
10
17.162464
20
49.680367
42
-0.062057
0
VERTEX
8
1
10
16.831814
20
49.578377
0
VERTEX
8
1
10
16.797640
20
49.576614
42
-0.148033
0
VERTEX
8
1
10
16.479053
20
49.703186
42
-0.028109
0
VERTEX
8
1
10
16.391323
20
49.772568
42
0.097794
0
VERTEX
8
1
10
16.334211
20
49.890739
42
-0.104173
0
VERTEX
8
1
10
16.206270
20
49.755844
42
-0.066620
0
VERTEX
8
1
10
15.955484
20
49.605736
42
-0.114417
0
VERTEX
8
1
10
15.502165
20
49.756981
0
VERTEX
8
1
10
15.468903
20
49.781570
42
0.037146
0
VERTEX
8
1
10
15.125898
20
50.043182
42
0.048905
0
VERTEX
8
1
10
14.966366
20
50.107536
42
0.062737
0
VERTEX
8
1
10
14.667073
20
50.217110
42
0.141321
0
VERTEX
8
1
10
14.454638
20
50.189209
42
0.005011
0
VERTEX
8
1
10
14.198985
20
50.067707
42
-0.161769
0
VERTEX
8
1
10
14.012199
20
50.064758
42
-0.094113
0
VERTEX
8
1
10
13.518048
20
50.302979
42
-0.019867
0
VERTEX
8
1
10
13.322006
20
50.449203
42
0.092146
0
VERTEX
8
1
10
13.329782
20
50.876488
42
0.027770
0
VERTEX
8
1
10
13.283709
20
51.001419
42
-0.077976
0
VERTEX
8
1
10
13.257929
20
51.187477
0
VERTEX
8
1
10
13.257515
20
51.273102
42
0.196114
0
VERTEX
8
1
10
13.215233
20
51.428940
0
VERTEX
8
1
10
13.204271
20
51.446480
42
0.000951
0
VERTEX
8
1
10
13.109939
20
51.649811
42
0.289101
0
VERTEX
8
1
10
13.064844
20
51.661758
42
-0.034952
0
VERTEX
8
1
10
12.804053
20
51.632721
42
-0.215113
0
VERTEX
8
1
10
12.597921
20
51.735161
42
0.015688
0
VERTEX
8
1
10
12.488466
20
51.861328
42
0.175066
0
VERTEX
8
1
10
12.240191
20
51.945999
42
0.017345
0
VERTEX
8
1
10
11.994743
20
51.940529
42
-0.178145
0
VERTEX
8
1
10
11.877586
20
52.007019
0
VERTEX
8
1
10
11.870197
20
51.983582
0
VERTEX
8
1
10
11.864981
20
51.939857
0
VERTEX
8
1
10
11.859804
20
51.897507
42
-0.120036
0
VERTEX
8
1
10
11.638453
20
51.244423
42
0.083604
0
VERTEX
8
1
10
11.426178
20
50.570599
42
-0.001464
0
VERTEX
8
1
10
11.382736
20
50.337318
42
-0.044026
0
VERTEX
8
1
10
11.180885
20
49.820618
42
-0.023819
0
VERTEX
8
1
10
10.939112
20
49.358200
0
VERTEX
8
1
10
10.908422
20
49.271805
42
-0.012987
0
VERTEX
8
1
10
10.520899
20
48.064575
42
-0.068263
0
VERTEX
8
1
10
10.400209
20
47.825867
0
VERTEX
8
1
10
10.372780
20
47.774597
42
0.029070
0
VERTEX
8
1
10
10.127641
20
47.138153
42
-0.065587
0
VERTEX
8
1
10
10.022511
20
46.955238
42
-0.060631
0
VERTEX
8
1
10
9.495674
20
46.344398
0
VERTEX
8
1
10
9.451643
20
46.291840
42
0.084751
0
VERTEX
8
1
10
9.211098
20
45.768417
42
0.070214
0
VERTEX
8
1
10
9.075663
20
44.855042
42
0.010455
0
VERTEX
8
1
10
9.069759
20
43.929173
0
VERTEX
8
1
10
9.255455
20
43.873051
42
0.004623
0
SEQEND
0
POLYLINE
8
1
66
1
70
1
0
VERTEX
8
1
10
15.189171
20
15.162399
42
0.012702
0
VERTEX
8
1
10
14.977774
20
16.623989
42
0.016461
0
VERTEX
8
1
10
14.908152
20
16.933800
0
VERTEX
8
1
10
14.880423
20
17.014366
0
VERTEX
8
1
10
14.854303
20
17.056625
42
-0.163001
0
VERTEX
8
1
10
14.545080
20
17.165085
42
-0.097570
0
VERTEX
8
1
10
14.457012
20
17.279915
0
VERTEX
8
1
10
14.433767
20
17.315979
42
0.175500
0
VERTEX
8
1
10
14.215961
20
17.496773
0
VERTEX
8
1
10
14.196896
20
17.500618
42
0.088189
0
VERTEX
8
1
10
13.878799
20
17.469635
42
0.050017
0
VERTEX
8
1
10
13.834089
20
17.447342
42
-0.058486
0
VERTEX
8
1
10
13.326321
20
17.392891
42
-0.064854
0
VERTEX
8
1
10
12.999775
20
17.462856
42
-0.009132
0
VERTEX
8
1
10
12.652575
20
17.574478
42
-0.007237
0
VERTEX
8
1
10
12.257998
20
17.784933
42
0.089098
0
VERTEX
8
1
10
12.080706
20
17.843088
42
0.163732
0
VERTEX
8
1
10
12.033915
20
17.823265
42
-0.113876
0
VERTEX
8
1
10
11.663847
20
17.747635
42
0.061739
0
VERTEX
8
1
10
11.327450
20
17.780190
0
VERTEX
8
1
10
11.302802
20
17.781019
0
VERTEX
8
1
10
11.278160
20
17.782013
42
0.064178
0
VERTEX
8
1
10
11.145905
20
18.103312
42
0.125791
0
VERTEX
8
1
10
11.098736
20
18.142601
42
-0.076305
0
VERTEX
8
1
10
10.792196
20
18.137794
0
VERTEX
8
1
10
10.750837
20
18.141785
0
VERTEX
8
1
10
10.584587
20
18.363365
0
VERTEX
8
1
10
10.583147
20
18.363899
0
VERTEX
8
1
10
10.363714
20
18.336464
0
VERTEX
8
1
10
10.361835
20
18.336044
42
-0.128046
0
VERTEX
8
1
10
10.274084
20
18.142630
42
-0.408115
0
VERTEX
8
1
10
10.208237
20
18.153503
42
-0.237529
0
VERTEX
8
1
10
10.167376
20
18.335930
0
VERTEX
8
1
10
10.195017
20
18.556892
0
VERTEX
8
1
10
10.194901
20
18.558502
42
-0.069415
0
VERTEX
8
1
10
9.948044
20
18.615849
42
-0.104179
0
VERTEX
8
1
10
9.917549
20
18.641571
0
VERTEX
8
1
10
9.908375
20
18.646843
0
VERTEX
8
1
10
9.892939
20
18.640083
0
VERTEX
8
1
10
9.872324
20
18.623093
42
0.037471
0
VERTEX
8
1
10
9.609776
20
18.280853
0
VERTEX
8
1
10
9.278296
20
18.308456
42
0.178851
0
VERTEX
8
1
10
9.055626
20
18.224442
42
-0.088781
0
VERTEX
8
1
10
8.945988
20
18.163155
42
-0.021352
0
VERTEX
8
1
10
8.381407
20
17.970612
42
0.127438
0
VERTEX
8
1
10
8.187622
20
17.768295
42
-0.017683
0
VERTEX
8
1
10
7.843261
20
17.303955
42
-0.028308
0
VERTEX
8
1
10
7.584216
20
16.975250
42
-0.026051
0
VERTEX
8
1
10
7.069890
20
16.892128
42
-0.005312
0
VERTEX
8
1
10
6.641158
20
16.890686
42
-0.343038
0
VERTEX
8
1
10
6.666096
20
16.754877
42
-0.312690
0
VERTEX
8
1
10
6.389102
20
16.557793
0
VERTEX
8
1
10
6.250842
20
16.391685
42
0.096785
0
VERTEX
8
1
10
6.425583
20
16.206062
0
VERTEX
8
1
10
6.470212
20
16.187162
42
-0.062302
0
VERTEX
8
1
10
6.827983
20
15.955485
42
-0.215482
0
VERTEX
8
1
10
6.974463
20
15.588322
42
0.019736
0
VERTEX
8
1
10
7.000767
20
15.308464
42
0.212265
0
VERTEX
8
1
10
7.050330
20
15.092529
42
0.088385
0
VERTEX
8
1
10
7.275515
20
14.956642
42
0.009467
0
VERTEX
8
1
10
7.510238
20
14.859932
42
-0.100830
0
VERTEX
8
1
10
7.606334
20
14.783127
0
VERTEX
8
1
10
7.651103
20
14.732803
42
0.179527
0
VERTEX
8
1
10
7.946230
20
14.558258
42
0.042909
0
VERTEX
8
1
10
8.417187
20
14.502899
42
-0.086704
0
VERTEX
8
1
10
8.396543
20
14.259259
42
-0.158701
0
VERTEX
8
1
10
8.347145
20
14.200691
0
VERTEX
8
1
10
8.323195
20
14.195702
0
VERTEX
8
1
10
8.295099
20
14.199730
42
-0.098542
0
VERTEX
8
1
10
8.049204
20
14.324401
42
-0.012999
0
VERTEX
8
1
10
7.612040
20
14.613899
42
0.064639
0
VERTEX
8
1
10
7.442100
20
14.747510
42
0.174978
0
VERTEX
8
1
10
7.398296
20
14.750534
0
VERTEX
8
1
10
7.389745
20
14.737709
0
VERTEX
8
1
10
7.387653
20
14.714798
42
0.148334
0
VERTEX
8
1
10
7.529667
20
14.425130
42
-0.130929
0
VERTEX
8
1
10
7.622732
20
14.202133
0
VERTEX
8
1
10
7.622328
20
14.183853
42
-0.507674
0
VERTEX
8
1
10
7.539887
20
14.114548
42
-0.064641
0
VERTEX
8
1
10
7.116937
20
14.207794
42
-0.046812
0
VERTEX
8
1
10
6.947190
20
14.318062
42
-0.149753
0
VERTEX
8
1
10
6.888476
20
14.424057
0
VERTEX
8
1
10
6.880495
20
14.447296
42
0.181764
0
VERTEX
8
1
10
6.641784
20
14.668839
42
0.081503
0
VERTEX
8
1
10
6.450879
20
14.671242
42
0.018921
0
VERTEX
8
1
10
6.222858
20
14.641159
42
-0.193002
0
VERTEX
8
1
10
6.121197
20
14.489822
42
-0.168469
0
VERTEX
8
1
10
5.978480
20
14.473946
42
0.038624
0
VERTEX
8
1
10
5.755173
20
14.508652
0
VERTEX
8
1
10
5.726136
20
14.507339
42
0.064323
0
VERTEX
8
1
10
5.362278
20
14.391960
42
0.109862
0
VERTEX
8
1
10
5.198678
20
14.219767
42
0.264060
0
VERTEX
8
1
10
5.214701
20
14.129341
42
0.095013
0
VERTEX
8
1
10
5.429218
20
13.938095
42
-0.148922
0
VERTEX
8
1
10
5.468106
20
13.874786
0
VERTEX
8
1
10
5.479006
20
13.842293
42
0.293380
0
VERTEX
8
1
10
5.575126
20
13.754875
42
-0.060564
0
VERTEX
8
1
10
5.800350
20
13.693535
42
-0.628817
0
VERTEX
8
1
10
5.797647
20
13.635145
42
-0.104815
0
VERTEX
8
1
10
5.708164
20
13.592772
42
0.089682
0
VERTEX
8
1
10
5.551112
20
13.504583
42
0.204695
0
VERTEX
8
1
10
5.527956
20
13.429443
0
VERTEX
8
1
10
5.526855
20
13.412834
42
0.066273
0
VERTEX
8
1
10
5.518103
20
13.262802
42
0.206851
0
VERTEX
8
1
10
5.601541
20
13.157074
42
0.087827
0
VERTEX
8
1
10
5.834681
20
13.057816
0
VERTEX
8
1
10
6.056339
20
12.808418
42
0.168007
0
VERTEX
8
1
10
6.174673
20
12.690832
42
0.244428
0
VERTEX
8
1
10
6.268618
20
12.707123
42
0.028639
0
VERTEX
8
1
10
6.396394
20
12.809680
42
-0.255693
0
VERTEX
8
1
10
6.489089
20
12.813820
42
-0.083998
0
VERTEX
8
1
10
6.671492
20
12.669412
42
0.108568
0
VERTEX
8
1
10
6.764061
20
12.615372
0
VERTEX
8
1
10
6.781568
20
12.614029
42
0.069892
0
VERTEX
8
1
10
7.179044
20
12.689934
42
-0.006427
0
VERTEX
8
1
10
7.416770
20
12.752731
0
VERTEX
8
1
10
7.750831
20
12.863937
42
-0.252508
0
VERTEX
8
1
10
7.771884
20
12.742525
42
-0.172683
0
VERTEX
8
1
10
7.724936
20
12.698334
42
-0.018203
0
VERTEX
8
1
10
7.523314
20
12.624634
42
0.349605
0
VERTEX
8
1
10
7.472849
20
12.548233
0
VERTEX
8
1
10
7.472064
20
12.532379
42
0.134524
0
VERTEX
8
1
10
7.480815
20
12.303253
42
0.034587
0
VERTEX
8
1
10
7.543825
20
12.027794
42
-0.132908
0
VERTEX
8
1
10
7.542338
20
11.834228
42
-0.374630
0
VERTEX
8
1
10
7.472409
20
11.812125
42
0.000155
0
VERTEX
8
1
10
7.419871
20
11.822128
42
0.127158
0
VERTEX
8
1
10
7.324337
20
11.767097
42
-0.079244
0
VERTEX
8
1
10
7.084101
20
11.614014
42
0.113539
0
VERTEX
8
1
10
7.013748
20
11.806494
42
0.197482
0
VERTEX
8
1
10
6.941966
20
11.844940
42
0.228069
0
VERTEX
8
1
10
6.775269
20
11.819827
42
0.139019
0
VERTEX
8
1
10
6.748150
20
11.773293
42
-0.039575
0
VERTEX
8
1
10
6.584083
20
11.475128
0
VERTEX
8
1
10
6.417555
20
11.530640
42
0.114222
0
VERTEX
8
1
10
6.035178
20
11.541580
42
0.165708
0
VERTEX
8
1
10
5.943305
20
11.472343
0
VERTEX
8
1
10
5.922142
20
11.445381
0
VERTEX
8
1
10
5.887876
20
11.405366
42
-0.009963
0
VERTEX
8
1
10
5.175240
20
10.648483
42
0.082782
0
VERTEX
8
1
10
4.949896
20
10.283033
42
0.204828
0
VERTEX
8
1
10
4.956586
20
10.189878
42
-0.001972
0
VERTEX
8
1
10
4.996477
20
10.065033
42
0.102625
0
VERTEX
8
1
10
5.075737
20
9.953514
42
-0.051831
0
VERTEX
8
1
10
5.155634
20
9.818571
42
0.277222
0
VERTEX
8
1
10
5.238583
20
9.779434
42
-0.172849
0
VERTEX
8
1
10
5.389125
20
9.669167
0
VERTEX
8
1
10
5.278460
20
9.586060
0
VERTEX
8
1
10
5.195216
20
9.419571
0
VERTEX
8
1
10
5.195213
20
9.142311
0
VERTEX
8
1
10
5.196017
20
9.141136
42
-0.113601
0
VERTEX
8
1
10
5.327277
20
8.982078
42
-0.106116
0
VERTEX
8
1
10
5.335441
20
8.922256
42
0.051994
0
VERTEX
8
1
10
5.389658
20
8.697334
42
0.133226
0
VERTEX
8
1
10
5.540911
20
8.523331
42
0.138814
0
VERTEX
8
1
10
5.699618
20
8.508598
42
-0.124173
0
VERTEX
8
1
10
5.930118
20
8.475950
42
0.178019
0
VERTEX
8
1
10
6.161386
20
8.495209
42
0.174311
0
VERTEX
8
1
10
6.406664
20
8.799185
42
-0.027371
0
VERTEX
8
1
10
6.473146
20
8.946564
42
-0.106622
0
VERTEX
8
1
10
6.453995
20
8.120140
42
0.194680
0
VERTEX
8
1
10
6.449427
20
7.987663
42
-0.078678
0
VERTEX
8
1
10
6.445014
20
7.724625
0
VERTEX
8
1
10
6.389601
20
7.586105
42
0.085468
0
VERTEX
8
1
10
6.300637
20
7.275937
42
0.352458
0
VERTEX
8
1
10
6.360038
20
7.212346
42
0.102644
0
VERTEX
8
1
10
6.471751
20
7.211723
42
-0.021227
0
VERTEX
8
1
10
6.643731
20
7.227982
42
0.168016
0
VERTEX
8
1
10
6.727719
20
7.281911
42
-0.176809
0
VERTEX
8
1
10
7.121045
20
7.428566
42
-0.048372
0
VERTEX
8
1
10
7.314924
20
7.393082
42
-0.181392
0
VERTEX
8
1
10
7.592316
20
7.273838
42
-0.189608
0
VERTEX
8
1
10
7.612187
20
7.213905
42
0.155008
0
VERTEX
8
1
10
7.686378
20
7.019383
42
0.371987
0
VERTEX
8
1
10
7.774107
20
7.013115
42
0.189378
0
VERTEX
8
1
10
7.943599
20
7.234467
0
VERTEX
8
1
10
7.947111
20
7.271660
42
-0.090217
0
VERTEX
8
1
10
8.084820
20
7.528885
0
VERTEX
8
1
10
8.195423
20
7.252594
42
0.162298
0
VERTEX
8
1
10
8.322397
20
7.147359
42
0.254153
0
VERTEX
8
1
10
8.390495
20
7.170395
42
-0.087800
0
VERTEX
8
1
10
8.769644
20
7.377419
0
VERTEX
8
1
10
8.795162
20
7.380844
0
VERTEX
8
1
10
8.811609
20
7.377037
0
VERTEX
8
1
10
8.817278
20
7.364967
0
VERTEX
8
1
10
8.810463
20
7.343620
42
-0.111863
0
VERTEX
8
1
10
8.579510
20
7.109344
42
0.088425
0
VERTEX
8
1
10
8.425419
20
6.900894
0
VERTEX
8
1
10
8.419306
20
6.880547
42
-0.059357
0
VERTEX
8
1
10
8.356795
20
6.628272
42
0.118354
0
VERTEX
8
1
10
8.346668
20
6.330139
42
-0.320043
0
VERTEX
8
1
10
8.267597
20
6.161568
42
-0.016545
0
VERTEX
8
1
10
8.140798
20
6.085239
42
0.161089
0
VERTEX
8
1
10
8.066067
20
5.974609
42
-0.111602
0
VERTEX
8
1
10
7.861925
20
5.641830
0
VERTEX
8
1
10
7.668033
20
5.586395
0
VERTEX
8
1
10
7.666860
20
5.586563
42
0.182008
0
VERTEX
8
1
10
7.498575
20
5.617737
0
VERTEX
8
1
10
7.478452
20
5.610046
42
0.147638
0
VERTEX
8
1
10
7.369051
20
5.475540
42
-0.166771
0
VERTEX
8
1
10
7.178606
20
5.304459
42
0.083250
0
VERTEX
8
1
10
6.985416
20
5.177094
42
-0.134353
0
VERTEX
8
1
10
6.864507
20
5.047470
42
-0.003486
0
VERTEX
8
1
10
6.780861
20
5.018692
42
0.314386
0
VERTEX
8
1
10
6.751820
20
4.885376
42
-0.442311
0
VERTEX
8
1
10
6.721664
20
4.817032
42
-0.271183
0
VERTEX
8
1
10
6.574849
20
4.834717
42
0.053995
0
VERTEX
8
1
10
6.446479
20
4.914444
0
VERTEX
8
1
10
6.428974
20
4.918716
42
-0.048410
0
VERTEX
8
1
10
6.111877
20
4.975128
0
VERTEX
8
1
10
5.834435
20
4.864151
42
0.066072
0
VERTEX
8
1
10
5.507617
20
4.725204
0
VERTEX
8
1
10
5.484502
20
4.707855
0
VERTEX
8
1
10
5.465852
20
4.690216
0
VERTEX
8
1
10
5.222985
20
4.447311
0
VERTEX
8
1
10
5.167478
20
4.253052
42
0.083766
0
VERTEX
8
1
10
5.125310
20
4.069463
0
VERTEX
8
1
10
5.127106
20
4.058445
42
0.477287
0
VERTEX
8
1
10
5.180451
20
4.025756
42
-0.002941
0
VERTEX
8
1
10
5.433706
20
4.131939
42
-0.191660
0
VERTEX
8
1
10
5.598766
20
4.118530
42
0.099843
0
VERTEX
8
1
10
5.757560
20
4.081528
0
VERTEX
8
1
10
5.775542
20
4.085281
42
0.033797
0
VERTEX
8
1
10
6.029499
20
4.198502
0
VERTEX
8
1
10
6.278614
20
4.502869
42
0.196315
0
VERTEX
8
1
10
6.787511
20
4.493958
42
0.033115
0
VERTEX
8
1
10
6.945615
20
4.558990
42
-0.194673
0
VERTEX
8
1
10
7.034980
20
4.617060
42
-0.297574
0
VERTEX
8
1
10
7.087327
20
4.581680
42
0.223560
0
VERTEX
8
1
10
7.224818
20
4.526808
42
0.048178
0
VERTEX
8
1
10
7.306318
20
4.530685
42
-0.156771
0
VERTEX
8
1
10
7.481830
20
4.692423
42
-0.147857
0
VERTEX
8
1
10
7.574858
20
4.694107
42
0.302498
0
VERTEX
8
1
10
7.865940
20
4.814527
42
-0.003147
0
VERTEX
8
1
10
8.111883
20
5.169590
0
VERTEX
8
1
10
8.444796
20
5.391510
42
0.103753
0
VERTEX
8
1
10
8.687059
20
5.422668
42
0.181415
0
VERTEX
8
1
10
8.773561
20
5.510529
42
0.067230
0
VERTEX
8
1
10
8.785515
20
5.766724
42
-0.236339
0
VERTEX
8
1
10
8.888197
20
6.011375
42
-0.231243
0
VERTEX
8
1
10
9.131405
20
6.114265
42
0.084392
0
VERTEX
8
1
10
9.551537
20
6.194849
42
0.107949
0
VERTEX
8
1
10
9.676737
20
6.288391
42
0.012295
0
VERTEX
8
1
10
9.999132
20
6.577690
42
-0.040160
0
VERTEX
8
1
10
10.250700
20
6.863945
0
VERTEX
8
1
10
10.556854
20
7.281219
42
0.155293
0
VERTEX
8
1
10
10.627340
20
7.410598
42
0.333966
0
VERTEX
8
1
10
10.579206
20
7.477448
42
0.113735
0
VERTEX
8
1
10
10.434471
20
7.496201
42
-0.085868
0
VERTEX
8
1
10
10.299388
20
7.517619
42
-0.348787
0
VERTEX
8
1
10
10.279551
20
7.583075
42
-0.218655
0
VERTEX
8
1
10
10.431034
20
7.807685
42
0.008437
0
VERTEX
8
1
10
10.750885
20
8.030998
0
VERTEX
8
1
10
10.861877
20
8.336227
42
-0.101000
0
VERTEX
8
1
10
10.950804
20
8.614708
0
VERTEX
8
1
10
10.966906
20
8.635353
42
0.010217
0
VERTEX
8
1
10
11.306858
20
9.003296
0
VERTEX
8
1
10
11.639660
20
9.252907
0
VERTEX
8
1
10
11.917095
20
9.280647
42
-0.215651
0
VERTEX
8
1
10
12.010963
20
9.269150
0
VERTEX
8
1
10
12.018854
20
9.260406
0
VERTEX
8
1
10
12.024675
20
9.249138
42
-0.227142
0
VERTEX
8
1
10
11.986048
20
9.115875
42
-0.088333
0
VERTEX
8
1
10
11.827515
20
8.978783
42
0.129320
0
VERTEX
8
1
10
11.658220
20
8.763626
42
-0.061865
0
VERTEX
8
1
10
11.570148
20
8.657928
42
0.203719
0
VERTEX
8
1
10
11.528290
20
8.517479
42
-0.154934
0
VERTEX
8
1
10
11.438591
20
8.293999
42
0.041796
0
VERTEX
8
1
10
11.351389
20
8.162476
42
-0.048004
0
VERTEX
8
1
10
11.251099
20
7.752800
42
0.251306
0
VERTEX
8
1
10
11.403660
20
7.795654
42
-0.032748
0
VERTEX
8
1
10
11.611862
20
7.975104
42
-0.469927
0
VERTEX
8
1
10
11.633234
20
7.826272
42
0.000196
0
VERTEX
8
1
10
11.581755
20
7.718513
42
-0.106391
0
VERTEX
8
1
10
11.523827
20
7.666252
0
VERTEX
8
1
10
11.507599
20
7.652290
42
0.142463
0
VERTEX
8
1
10
11.417437
20
7.447342
0
VERTEX
8
1
10
11.666992
20
7.558258
42
0.102597
0
VERTEX
8
1
10
11.859165
20
7.653893
42
0.218576
0
VERTEX
8
1
10
11.897375
20
7.757690
0
VERTEX
8
1
10
11.900909
20
7.764648
42
-0.060627
0
VERTEX
8
1
10
12.015009
20
7.860695
0
VERTEX
8
1
10
12.278383
20
8.058334
42
-0.156075
0
VERTEX
8
1
10
12.578508
20
8.139632
42
0.079075
0
VERTEX
8
1
10
12.725664
20
8.154410
42
0.262625
0
VERTEX
8
1
10
12.776896
20
8.228317
42
-0.060163
0
VERTEX
8
1
10
12.814567
20
8.473253
42
0.119962
0
VERTEX
8
1
10
12.813174
20
8.655018
0
VERTEX
8
1
10
12.805671
20
8.674728
42
-0.027267
0
VERTEX
8
1
10
12.695047
20
8.920502
42
-0.086141
0
VERTEX
8
1
10
12.688685
20
9.129170
42
-0.231546
0
VERTEX
8
1
10
12.715567
20
9.156113
0
VERTEX
8
1
10
12.732702
20
9.152664
0
VERTEX
8
1
10
12.754297
20
9.139130
42
0.030542
0
VERTEX
8
1
10
12.996772
20
8.954335
42
0.147651
0
VERTEX
8
1
10
13.068466
20
8.938042
0
VERTEX
8
1
10
13.082176
20
8.945541
42
-0.113054
0
VERTEX
8
1
10
13.315838
20
9.090065
0
VERTEX
8
1
10
13.335522
20
9.101120
42
0.018837
0
VERTEX
8
1
10
13.501926
20
9.239645
42
-0.091435
0
VERTEX
8
1
10
13.539219
20
9.256012
0
VERTEX
8
1
10
13.549023
20
9.252174
0
VERTEX
8
1
10
13.554857
20
9.240501
42
0.055984
0
VERTEX
8
1
10
13.582149
20
8.930732
42
0.077630
0
VERTEX
8
1
10
13.621138
20
8.848587
42
-0.052369
0
VERTEX
8
1
10
13.652115
20
8.759712
42
0.210804
0
VERTEX
8
1
10
13.735418
20
8.686020
0
VERTEX
8
1
10
13.764739
20
8.674348
42
0.002708
0
VERTEX
8
1
10
14.195333
20
8.530952
42
-0.074328
0
VERTEX
8
1
10
14.305374
20
8.711693
0
VERTEX
8
1
10
14.320625
20
8.724541
42
-0.543871
0
VERTEX
8
1
10
14.372372
20
8.712105
0
VERTEX
8
1
10
14.381760
20
8.695251
42
-0.092200
0
VERTEX
8
1
10
14.418457
20
8.473610
42
0.114349
0
VERTEX
8
1
10
14.662022
20
8.245729
42
0.108706
0
VERTEX
8
1
10
14.763020
20
8.225075
42
0.023963
0
VERTEX
8
1
10
15.397465
20
8.227899
42
0.027606
0
VERTEX
8
1
10
15.648336
20
8.262794
0
VERTEX
8
1
10
15.718039
20
8.268784
42
-0.044186
0
VERTEX
8
1
10
16.444527
20
8.225220
42
0.324914
0
VERTEX
8
1
10
16.564215
20
8.098775
42
0.141465
0
VERTEX
8
1
10
16.805790
20
8.095248
42
-0.081389
0
VERTEX
8
1
10
16.865599
20
8.090942
42
-0.216964
0
VERTEX
8
1
10
16.890244
20
8.056862
0
VERTEX
8
1
10
16.903809
20
8.038521
0
VERTEX
8
1
10
16.929035
20
8.018982
0
VERTEX
8
1
10
16.963930
20
7.998650
42
0.039323
0
VERTEX
8
1
10
17.421028
20
7.833360
42
-0.001249
0
VERTEX
8
1
10
18.048401
20
7.327895
42
0.145971
0
VERTEX
8
1
10
18.447901
20
7.197380
42
0.202944
0
VERTEX
8
1
10
18.564188
20
7.271914
42
0.040243
0
VERTEX
8
1
10
18.611849
20
7.336182
42
-0.077379
0
VERTEX
8
1
10
18.468254
20
7.503677
0
VERTEX
8
1
10
18.458744
20
7.526070
42
-0.427001
0
VERTEX
8
1
10
18.482235
20
7.592949
42
0.046233
0
VERTEX
8
1
10
18.609858
20
7.740377
42
-0.128598
0
VERTEX
8
1
10
18.659859
20
7.773071
42
-0.345145
0
VERTEX
8
1
10
18.697701
20
7.749069
0
VERTEX
8
1
10
18.708298
20
7.730515
42
0.029877
0
VERTEX
8
1
10
18.785357
20
7.559875
42
0.173616
0
VERTEX
8
1
10
18.908560
20
7.467430
42
-0.099875
0
VERTEX
8
1
10
19.098030
20
7.351260
42
-0.385599
0
VERTEX
8
1
10
19.090681
20
7.285492
42
-0.002073
0
VERTEX
8
1
10
18.945614
20
7.202026
42
0.073340
0
VERTEX
8
1
10
18.866291
20
7.113495
42
-0.558893
0
VERTEX
8
1
10
18.861153
20
7.123665
42
0.172705
0
VERTEX
8
1
10
18.808092
20
6.723636
42
0.154691
0
VERTEX
8
1
10
18.882269
20
6.621201
42
0.054625
0
VERTEX
8
1
10
19.139656
20
6.475357
42
-0.092221
0
VERTEX
8
1
10
19.196066
20
6.818871
42
-0.137265
0
VERTEX
8
1
10
19.276472
20
6.890320
42
0.016342
0
VERTEX
8
1
10
19.500902
20
7.058121
42
0.098968
0
VERTEX
8
1
10
19.657806
20
6.815773
42
-0.115634
0
VERTEX
8
1
10
19.750750
20
6.586349
42
-0.382771
0
VERTEX
8
1
10
19.571424
20
6.525177
42
0.061627
0
VERTEX
8
1
10
19.329632
20
6.602723
42
0.398574
0
VERTEX
8
1
10
19.303116
20
6.571762
42
-0.040408
0
VERTEX
8
1
10
19.361870
20
6.252975
42
0.023401
0
VERTEX
8
1
10
19.838169
20
5.782516
0
VERTEX
8
1
10
19.867270
20
5.760712
0
VERTEX
8
1
10
19.885458
20
5.751923
0
VERTEX
8
1
10
19.892200
20
5.757004
0
VERTEX
8
1
10
19.894279
20
5.769684
42
0.018466
0
VERTEX
8
1
10
19.871756
20
5.940591
42
-0.164029
0
VERTEX
8
1
10
19.889730
20
5.987289
0
VERTEX
8
1
10
19.904249
20
5.990631
0
VERTEX
8
1
10
19.924677
20
5.985626
42
-0.122901
0
VERTEX
8
1
10
20.093483
20
5.825736
42
0.084660
0
VERTEX
8
1
10
20.168140
20
5.750741
42
0.327599
0
VERTEX
8
1
10
20.187883
20
5.760864
0
VERTEX
8
1
10
20.194670
20
5.778580
42
0.010623
0
VERTEX
8
1
10
20.221594
20
5.959206
0
VERTEX
8
1
10
20.227859
20
5.980263
42
-0.461595
0
VERTEX
8
1
10
20.297823
20
6.019745
42
-0.139965
0
VERTEX
8
1
10
20.456545
20
5.884857
42
-0.052305
0
VERTEX
8
1
10
20.583941
20
5.669479
42
0.234231
0
VERTEX
8
1
10
20.513247
20
5.561111
42
0.199230
0
VERTEX
8
1
10
20.555656
20
5.475800
42
-0.124435
0
VERTEX
8
1
10
20.695164
20
5.253082
42
-0.142277
0
VERTEX
8
1
10
20.766376
20
5.086932
42
-0.177356
0
VERTEX
8
1
10
20.736610
20
5.007874
0
VERTEX
8
1
10
20.728168
20
4.991806
42
0.399173
0
VERTEX
8
1
10
20.751070
20
4.871017
42
0.162852
0
VERTEX
8
1
10
20.936750
20
4.802811
42
-0.113950
0
VERTEX
8
1
10
21.104141
20
4.721803
42
-0.000934
0
VERTEX
8
1
10
21.314806
20
4.553865
42
0.159338
0
VERTEX
8
1
10
21.449694
20
4.518677
42
0.038354
0
VERTEX
8
1
10
21.639650
20
4.530731
0
VERTEX
8
1
10
21.584139
20
4.891541
42
0.052314
0
VERTEX
8
1
10
21.467581
20
5.292664
42
-0.109106
0
VERTEX
8
1
10
21.431400
20
5.653183
0
VERTEX
8
1
10
21.439186
20
5.678024
0
VERTEX
8
1
10
21.450169
20
5.693359
0
VERTEX
8
1
10
21.464573
20
5.697418
0
VERTEX
8
1
10
21.482628
20
5.688446
0
VERTEX
8
1
10
21.504475
20
5.664886
42
-0.083300
0
VERTEX
8
1
10
21.655842
20
5.348404
42
0.014646
0
VERTEX
8
1
10
21.768053
20
5.095627
0
VERTEX
8
1
10
21.779867
20
5.077118
42
0.377324
0
VERTEX
8
1
10
21.901682
20
5.034012
42
0.049540
0
VERTEX
8
1
10
22.001141
20
5.084274
42
-0.347794
0
VERTEX
8
1
10
22.056551
20
5.063538
42
0.025361
0
VERTEX
8
1
10
22.154285
20
4.949308
42
0.113587
0
VERTEX
8
1
10
22.248959
20
4.898093
42
0.276916
0
VERTEX
8
1
10
22.316921
20
4.931168
42
0.193481
0
VERTEX
8
1
10
22.410227
20
5.317853
42
0.081340
0
VERTEX
8
1
10
22.369829
20
5.414118
42
-0.084823
0
VERTEX
8
1
10
22.304588
20
5.625732
42
0.097844
0
VERTEX
8
1
10
22.164204
20
6.030495
42
0.210649
0
VERTEX
8
1
10
22.051468
20
6.110664
42
0.005198
0
VERTEX
8
1
10
21.435654
20
6.250350
42
-0.079518
0
VERTEX
8
1
10
21.312616
20
6.309731
42
-0.127264
0
VERTEX
8
1
10
21.077990
20
6.483566
42
-0.029997
0
VERTEX
8
1
10
20.907074
20
6.828265
42
0.099344
0
VERTEX
8
1
10
20.646091
20
7.169855
42
0.006678
0
VERTEX
8
1
10
20.187868
20
7.572546
42
0.021278
0
VERTEX
8
1
10
19.909138
20
7.778969
42
-0.028709
0
VERTEX
8
1
10
19.750740
20
7.919556
42
-0.062241
0
VERTEX
8
1
10
19.395224
20
8.012817
42
-0.137280
0
VERTEX
8
1
10
19.221941
20
8.186104
42
0.011543
0
VERTEX
8
1
10
19.114668
20
8.346039
0
VERTEX
8
1
10
19.098469
20
8.374519
42
0.048369
0
VERTEX
8
1
10
18.958353
20
8.625211
42
0.257691
0
VERTEX
8
1
10
18.834124
20
8.673409
42
0.078757
0
VERTEX
8
1
10
18.706238
20
8.641973
42
0.016726
0
VERTEX
8
1
10
18.501263
20
8.566635
42
0.105876
0
VERTEX
8
1
10
18.250885
20
8.445839
0
VERTEX
8
1
10
18.278442
20
8.086090
0
VERTEX
8
1
10
18.139671
20
7.891815
0
VERTEX
8
1
10
17.945654
20
7.836365
0
VERTEX
8
1
10
17.944628
20
7.837387
42
0.082685
0
VERTEX
8
1
10
17.739511
20
8.128410
42
0.043788
0
VERTEX
8
1
10
17.268248
20
8.442078
42
-0.189627
0
VERTEX
8
1
10
17.133877
20
8.572212
42
0.145899
0
VERTEX
8
1
10
16.833702
20
8.891693
0
VERTEX
8
1
10
16.611883
20
8.836235
0
VERTEX
8
1
10
16.778368
20
8.420006
0
VERTEX
8
1
10
16.776867
20
8.420189
42
-0.074836
0
VERTEX
8
1
10
16.483856
20
8.576042
42
-0.025563
0
VERTEX
8
1
10
16.154484
20
8.892842
42
-0.060115
0
VERTEX
8
1
10
16.046072
20
9.060768
0
VERTEX
8
1
10
16.032635
20
9.104355
0
VERTEX
8
1
10
16.028494
20
9.146416
0
VERTEX
8
1
10
16.022886
20
9.229126
0
VERTEX
8
1
10
16.008961
20
9.373823
42
0.004305
0
VERTEX
8
1
10
15.659697
20
12.307266
42
-0.001403
0
VERTEX
8
1
10
15.218667
20
14.949277
0
VERTEX
8
1
10
15.203465
20
15.055776
0
SEQEND
0
POLYLINE
8
1
66
1
70
1
0
VERTEX
8
1
10
4.301844
20
12.030701
0
VERTEX
8
1
10
4.498528
20
12.030678
42
0.304951
0
VERTEX
8
1
10
4.568661
20
12.088896
42
0.268146
0
VERTEX
8
1
10
4.557190
20
12.249900
42
0.170768
0
VERTEX
8
1
10
4.500768
20
12.280678
42
-0.035253
0
VERTEX
8
1
10
4.108896
20
12.589264
0
VERTEX
8
1
10
4.086362
20
12.616295
42
-0.024145
0
VERTEX
8
1
10
3.972779
20
12.825310
0
VERTEX
8
1
10
3.952211
20
12.858063
42
0.331965
0
VERTEX
8
1
10
3.759270
20
12.943664
42
0.067498
0
VERTEX
8
1
10
3.472690
20
12.864433
42
0.083007
0
VERTEX
8
1
10
3.240468
20
13.104907
42
0.171160
0
VERTEX
8
1
10
3.074389
20
13.144678
42
0.363553
0
VERTEX
8
1
10
3.041609
20
13.090210
0
VERTEX
8
1
10
3.044555
20
13.067955
42
-0.043673
0
VERTEX
8
1
10
3.139630
20
12.725281
42
0.138885
0
VERTEX
8
1
10
3.024311
20
12.626686
42
0.392856
0
VERTEX
8
1
10
3.050904
20
12.572975
42
0.009901
0
VERTEX
8
1
10
3.257605
20
12.495781
42
0.125918
0
VERTEX
8
1
10
3.361878
20
12.502899
42
-0.122996
0
VERTEX
8
1
10
3.639697
20
12.475098
42
-0.150530
0
VERTEX
8
1
10
3.742054
20
12.380940
42
-0.342719
0
VERTEX
8
1
10
3.718461
20
12.304008
42
-0.022850
0
VERTEX
8
1
10
3.588535
20
12.200136
42
0.415076
0
VERTEX
8
1
10
3.588368
20
12.107086
42
-0.078812
0
VERTEX
8
1
10
3.619947
20
11.976006
0
VERTEX
8
1
10
3.624400
20
11.956383
42
0.510469
0
VERTEX
8
1
10
3.703382
20
11.912771
42
0.204907
0
VERTEX
8
1
10
3.823282
20
12.004509
42
-0.256126
0
VERTEX
8
1
10
3.922877
20
12.056107
42
-0.052955
0
VERTEX
8
1
10
4.284508
20
12.031380
0
SEQEND
0
POLYLINE
8
1
66
1
70
1
0
VERTEX
8
1
10
4.305879
20
9.409256
42
-0.019514
0
VERTEX
8
1
10
4.222991
20
9.447342
42
0.498526
0
VERTEX
8
1
10
4.136974
20
9.349045
42
0.074240
0
VERTEX
8
1
10
4.287137
20
8.962248
42
0.185104
0
VERTEX
8
1
10
4.428449
20
8.867915
42
0.068792
0
VERTEX
8
1
10
4.666520
20
8.836243
42
0.174216
0
VERTEX
8
1
10
4.786164
20
8.849075
42
0.496617
0
VERTEX
8
1
10
4.774475
20
8.952683
42
-0.205381
0
VERTEX
8
1
10
4.757940
20
8.992294
42
-0.139488
0
VERTEX
8
1
10
4.847167
20
9.094669
42
0.038250
0
VERTEX
8
1
10
4.922873
20
9.172905
42
0.274573
0
VERTEX
8
1
10
4.919332
20
9.234962
42
-0.013324
0
VERTEX
8
1
10
4.813591
20
9.402643
42
0.278353
0
VERTEX
8
1
10
4.774991
20
9.412231
42
0.138966
0
VERTEX
8
1
10
4.615901
20
9.308543
42
-0.089986
0
VERTEX
8
1
10
4.515583
20
9.244008
42
-0.226020
0
VERTEX
8
1
10
4.465229
20
9.259140
0
VERTEX
8
1
10
4.445214
20
9.280678
0
VERTEX
8
1
10
4.361885
20
9.391785
42
-0.084050
0
SEQEND
0
POLYLINE
8
1
66
1
70
1
0
VERTEX
8
1
10
4.994999
20
3.735107
0
VERTEX
8
1
10
5.040446
20
3.690353
42
0.173860
0
VERTEX
8
1
10
5.102608
20
3.653931
42
0.284765
0
VERTEX
8
1
10
5.206583
20
3.775553
42
0.179517
0
VERTEX
8
1
10
5.190972
20
3.814621
42
-0.117173
0
VERTEX
8
1
10
5.172644
20
3.890045
42
0.228672
0
VERTEX
8
1
10
5.133377
20
3.944351
42
0.058171
0
VERTEX
8
1
10
4.975832
20
3.995848
42
-0.294510
0
VERTEX
8
1
10
4.933383
20
4.054047
42
-0.061202
0
VERTEX
8
1
10
4.950822
20
4.249657
42
0.143862
0
VERTEX
8
1
10
4.936791
20
4.297729
0
VERTEX
8
1
10
4.923281
20
4.305695
42
-0.088460
0
VERTEX
8
1
10
4.819360
20
4.331772
42
0.147334
0
VERTEX
8
1
10
4.604486
20
4.341156
42
0.211237
0
VERTEX
8
1
10
4.425595
20
4.245071
42
0.104247
0
VERTEX
8
1
10
4.395489
20
4.108184
42
-0.303577
0
VERTEX
8
1
10
4.334240
20
4.053711
42
0.043830
0
VERTEX
8
1
10
4.195284
20
3.989059
42
0.148204
0
VERTEX
8
1
10
4.234289
20
3.855701
42
0.261884
0
VERTEX
8
1
10
4.300991
20
3.836197
0
VERTEX
8
1
10
4.326219
20
3.837265
42
-0.137616
0
VERTEX
8
1
10
4.481604
20
3.796726
42
0.173031
0
VERTEX
8
1
10
4.579566
20
3.791027
42
0.321953
0
VERTEX
8
1
10
4.598160
20
3.828461
42
-0.427582
0
VERTEX
8
1
10
4.739452
20
3.933975
42
-0.124976
0
VERTEX
8
1
10
4.804037
20
3.867065
42
0.166116
0
VERTEX
8
1
10
4.891961
20
3.806992
42
-0.098427
0
SEQEND
0
POLYLINE
8
1
66
1
70
1
0
VERTEX
8
1
10
3.639654
20
3.752899
0
VERTEX
8
1
10
3.542435
20
3.836227
42
0.189210
0
VERTEX
8
1
10
3.384831
20
3.776932
42
0.037153
0
VERTEX
8
1
10
3.332159
20
3.738724
42
0.169984
0
VERTEX
8
1
10
3.320715
20
3.660247
42
-0.179100
0
VERTEX
8
1
10
3.310401
20
3.636200
0
VERTEX
8
1
10
3.297532
20
3.635681
0
VERTEX
8
1
10
3.276878
20
3.642532
0
VERTEX
8
1
10
3.246765
20
3.657883
42
0.210415
0
VERTEX
8
1
10
3.051867
20
3.687189
42
-0.099318
0
VERTEX
8
1
10
2.918826
20
3.693787
42
0.289352
0
VERTEX
8
1
10
2.880281
20
3.673050
42
0.027912
0
VERTEX
8
1
10
2.802256
20
3.511063
42
0.067233
0
VERTEX
8
1
10
2.741209
20
3.404175
42
-0.185261
0
VERTEX
8
1
10
2.694981
20
3.380508
42
0.149442
0
VERTEX
8
1
10
2.577333
20
3.323914
42
-0.109484
0
VERTEX
8
1
10
2.454634
20
3.244378
42
0.169896
0
VERTEX
8
1
10
2.398381
20
3.178340
42
0.347340
0
VERTEX
8
1
10
2.421667
20
3.140320
42
0.099039
0
VERTEX
8
1
10
2.520868
20
3.111667
42
0.010158
0
VERTEX
8
1
10
2.692592
20
3.080704
42
0.053045
0
VERTEX
8
1
10
2.898753
20
3.108643
42
0.090491
0
VERTEX
8
1
10
2.980272
20
3.158401
42
-0.171315
0
VERTEX
8
1
10
3.244568
20
3.232269
42
0.198911
0
VERTEX
8
1
10
3.354092
20
3.277832
42
0.142271
0
VERTEX
8
1
10
3.455918
20
3.425266
42
0.364119
0
VERTEX
8
1
10
3.420736
20
3.477631
42
-0.068166
0
VERTEX
8
1
10
3.350657
20
3.507629
0
VERTEX
8
1
10
3.345897
20
3.515656
0
VERTEX
8
1
10
3.347044
20
3.525818
0
VERTEX
8
1
10
3.355306
20
3.538773
42
-0.031674
0
VERTEX
8
1
10
3.471508
20
3.637039
42
-0.076666
0
VERTEX
8
1
10
3.544803
20
3.660324
42
0.167406
0
SEQEND
0
POLYLINE
8
1
66
1
70
1
0
VERTEX
8
1
10
2.403314
20
3.552612
42
0.039459
0
VERTEX
8
1
10
2.334102
20
3.586227
42
0.211600
0
VERTEX
8
1
10
2.146345
20
3.462631
42
-0.052530
0
VERTEX
8
1
10
2.048125
20
3.343830
42
-0.145780
0
VERTEX
8
1
10
1.975189
20
3.317261
42
0.169482
0
VERTEX
8
1
10
1.786147
20
3.221008
42
-0.116581
0
VERTEX
8
1
10
1.733952
20
3.198898
0
VERTEX
8
1
10
1.724488
20
3.193878
42
0.056728
0
VERTEX
8
1
10
1.562119
20
3.027602
42
0.375310
0
VERTEX
8
1
10
1.588514
20
2.944387
42
0.219768
0
VERTEX
8
1
10
1.718612
20
2.906693
42
0.037732
0
VERTEX
8
1
10
1.928713
20
2.957565
42
-0.030964
0
VERTEX
8
1
10
2.061388
20
2.975708
0
VERTEX
8
1
10
2.081942
20
2.981003
42
0.459017
0
VERTEX
8
1
10
2.124373
20
3.052124
42
0.013077
0
VERTEX
8
1
10
2.094864
20
3.146673
42
-0.291942
0
VERTEX
8
1
10
2.128989
20
3.203705
42
0.056577
0
VERTEX
8
1
10
2.331207
20
3.373825
42
-0.015874
0
VERTEX
8
1
10
2.464484
20
3.447463
42
0.416666
0
VERTEX
8
1
10
2.465189
20
3.501572
42
0.094303
0
SEQEND
0
POLYLINE
8
1
66
1
70
1
0
VERTEX
8
1
10
1.389540
20
3.197418
42
0.120694
0
VERTEX
8
1
10
1.269726
20
3.241241
0
VERTEX
8
1
10
1.250768
20
3.239014
42
-0.059796
0
VERTEX
8
1
10
1.010773
20
3.195557
42
0.175242
0
VERTEX
8
1
10
0.903038
20
3.112488
0
VERTEX
8
1
10
0.862388
20
2.990540
0
VERTEX
8
1
10
0.862185
20
2.988403
0
VERTEX
8
1
10
0.917436
20
2.877808
42
0.375218
0
VERTEX
8
1
10
0.986275
20
2.810745
42
0.075681
0
VERTEX
8
1
10
1.236941
20
2.827633
42
0.291054
0
VERTEX
8
1
10
1.288775
20
2.909620
42
-0.149578
0
VERTEX
8
1
10
1.372166
20
3.055679
42
0.211751
0
SEQEND
0
POLYLINE
8
1
66
1
70
1
0
VERTEX
8
1
10
11.195208
20
6.558464
0
VERTEX
8
1
10
11.153545
20
6.641792
42
0.108053
0
VERTEX
8
1
10
11.092676
20
6.688416
0
VERTEX
8
1
10
11.047352
20
6.713341
42
-0.122793
0
VERTEX
8
1
10
10.866230
20
6.866569
42
0.372683
0
VERTEX
8
1
10
10.826534
20
6.864601
42
0.130771
0
VERTEX
8
1
10
10.656759
20
6.645531
0
VERTEX
8
1
10
10.653614
20
6.630035
42
-0.058293
0
VERTEX
8
1
10
10.644677
20
6.397012
42
-0.337318
0
VERTEX
8
1
10
10.616100
20
6.376953
42
0.066084
0
VERTEX
8
1
10
10.529083
20
6.329597
0
VERTEX
8
1
10
10.516653
20
6.324806
42
0.098040
0
VERTEX
8
1
10
10.402197
20
6.291512
42
0.045079
0
VERTEX
8
1
10
10.265368
20
6.249149
42
0.237097
0
VERTEX
8
1
10
10.220757
20
6.170815
42
0.049523
0
VERTEX
8
1
10
10.221979
20
6.036247
42
-0.365288
0
VERTEX
8
1
10
10.163397
20
5.989410
42
0.035289
0
VERTEX
8
1
10
9.977440
20
5.963020
42
0.065392
0
VERTEX
8
1
10
9.861609
20
5.951644
42
0.298295
0
VERTEX
8
1
10
9.834559
20
5.903702
42
0.013110
0
VERTEX
8
1
10
9.826936
20
5.747616
42
0.127413
0
VERTEX
8
1
10
9.851688
20
5.691681
42
-0.177171
0
VERTEX
8
1
10
9.852268
20
5.613419
0
VERTEX
8
1
10
9.848883
20
5.594513
42
0.515305
0
VERTEX
8
1
10
9.882698
20
5.546021
42
0.039426
0
VERTEX
8
1
10
10.111898
20
5.558319
0
VERTEX
8
1
10
10.125734
20
5.461121
42
-0.111704
0
VERTEX
8
1
10
10.042936
20
5.317947
42
0.068954
0
VERTEX
8
1
10
9.988020
20
5.279251
0
VERTEX
8
1
10
9.970183
20
5.274691
0
VERTEX
8
1
10
9.952136
20
5.271049
42
0.295902
0
VERTEX
8
1
10
9.668060
20
5.060394
42
0.276524
0
VERTEX
8
1
10
9.680202
20
5.008916
42
0.091315
0
VERTEX
8
1
10
9.750742
20
4.933472
0
VERTEX
8
1
10
9.986687
20
4.933456
0
VERTEX
8
1
10
10.111698
20
4.988937
0
VERTEX
8
1
10
10.112352
20
4.990433
0
VERTEX
8
1
10
10.139595
20
5.072159
42
0.180596
0
VERTEX
8
1
10
10.255476
20
5.294846
42
-0.174890
0
VERTEX
8
1
10
10.371738
20
5.480576
42
0.105280
0
VERTEX
8
1
10
10.487495
20
5.559219
42
-0.077126
0
VERTEX
8
1
10
10.712291
20
5.719430
42
0.177722
0
VERTEX
8
1
10
10.822803
20
5.859398
42
-0.185845
0
VERTEX
8
1
10
10.919250
20
5.967804
42
0.071771
0
VERTEX
8
1
10
11.070036
20
6.066899
42
0.380800
0
VERTEX
8
1
10
11.060406
20
6.113426
42
-0.027015
0
VERTEX
8
1
10
10.959460
20
6.194630
42
0.136413
0
VERTEX
8
1
10
10.873693
20
6.226212
42
-0.266822
0
VERTEX
8
1
10
10.840235
20
6.258537
0
VERTEX
8
1
10
10.835318
20
6.282767
42
-0.024808
0
VERTEX
8
1
10
10.834600
20
6.461220
42
-0.359123
0
VERTEX
8
1
10
10.909069
20
6.518913
42
0.057554
0
SEQEND
0
POLYLINE
8
1
66
1
70
1
0
VERTEX
8
1
10
25.299107
20
10.690742
0
VERTEX
8
1
10
25.236879
20
10.877899
42
0.054256
0
VERTEX
8
1
10
25.128658
20
10.894495
42
0.301772
0
VERTEX
8
1
10
25.035156
20
10.816998
42
0.091186
0
VERTEX
8
1
10
24.984646
20
10.584671
42
-0.214312
0
VERTEX
8
1
10
24.908583
20
10.482933
42
0.080846
0
VERTEX
8
1
10
24.794447
20
10.363403
0
VERTEX
8
1
10
24.781551
20
10.350403
42
0.095382
0
VERTEX
8
1
10
24.667435
20
10.224586
0
VERTEX
8
1
10
24.667435
20
10.017090
42
0.193300
0
VERTEX
8
1
10
24.752361
20
9.976376
42
0.250631
0
VERTEX
8
1
10
24.793692
20
10.006721
42
-0.023931
0
VERTEX
8
1
10
24.894974
20
10.153114
42
-0.080444
0
VERTEX
8
1
10
24.961061
20
10.202492
42
-0.166408
0
VERTEX
8
1
10
25.058022
20
10.253319
42
0.020427
0
VERTEX
8
1
10
25.188728
20
10.286629
42
0.289814
0
VERTEX
8
1
10
25.291248
20
10.458511
42
-0.035111
0
VERTEX
8
1
10
25.297634
20
10.570419
0
VERTEX
8
1
10
25.302496
20
10.580376
42
0.304049
0
VERTEX
8
1
10
25.315302
20
10.629883
0
VERTEX
8
1
10
25.309582
20
10.655167
0
SEQEND
0
POLYLINE
8
1
66
1
70
1
0
VERTEX
8
1
10
26.441008
20
11.227142
42
0.052287
0
VERTEX
8
1
10
26.179045
20
11.198912
42
0.258412
0
VERTEX
8
1
10
26.041920
20
11.052299
42
-0.002786
0
VERTEX
8
1
10
26.003014
20
10.956429
42
-0.151416
0
VERTEX
8
1
10
25.911257
20
10.874122
42
0.090453
0
VERTEX
8
1
10
25.842737
20
10.811577
42
0.304816
0
VERTEX
8
1
10
25.857672
20
10.744255
42
0.101580
0
VERTEX
8
1
10
26.010231
20
10.631386
42
-0.024846
0
VERTEX
8
1
10
26.097990
20
10.586235
42
0.029956
0
VERTEX
8
1
10
26.337807
20
10.389845
42
0.077649
0
VERTEX
8
1
10
26.436705
20
10.350235
0
VERTEX
8
1
10
26.466118
20
10.350891
42
-0.242067
0
VERTEX
8
1
10
26.658419
20
10.267581
42
0.110865
0
VERTEX
8
1
10
26.844385
20
10.159612
42
0.339344
0
VERTEX
8
1
10
26.918362
20
10.205673
42
-0.117954
0
VERTEX
8
1
10
27.113474
20
10.459227
42
0.176184
0
VERTEX
8
1
10
27.230181
20
10.696053
42
0.056619
0
VERTEX
8
1
10
27.251549
20
10.955956
42
-0.028482
0
VERTEX
8
1
10
27.272827
20
11.136583
42
0.305725
0
VERTEX
8
1
10
27.192774
20
11.263214
0
VERTEX
8
1
10
27.178852
20
11.272835
42
0.249756
0
VERTEX
8
1
10
27.059900
20
11.310616
42
0.012057
0
VERTEX
8
1
10
26.856403
20
11.270164
42
0.042674
0
VERTEX
8
1
10
26.589373
20
11.239899
42
-0.023861
0
SEQEND
0
POLYLINE
8
1
66
1
70
1
0
VERTEX
8
1
10
30.515862
20
9.657349
42
-0.068093
0
VERTEX
8
1
10
30.395731
20
9.510327
42
-0.147191
0
VERTEX
8
1
10
30.370346
20
9.502884
42
0.054538
0
VERTEX
8
1
10
29.977419
20
9.474874
42
0.273057
0
VERTEX
8
1
10
29.934700
20
9.410268
42
0.292088
0
VERTEX
8
1
10
30.020710
20
9.188980
42
-0.056082
0
VERTEX
8
1
10
30.193924
20
8.980288
42
-0.078087
0
VERTEX
8
1
10
30.231678
20
8.873734
42
0.058349
0
VERTEX
8
1
10
30.313927
20
8.739899
42
-0.076975
0
VERTEX
8
1
10
30.344959
20
8.666260
42
0.280399
0
VERTEX
8
1
10
30.422546
20
8.616234
42
0.007417
0
VERTEX
8
1
10
30.595560
20
8.606940
42
0.336564
0
VERTEX
8
1
10
30.636486
20
8.657829
42
-0.079877
0
VERTEX
8
1
10
30.658253
20
8.755331
42
-0.377145
0
VERTEX
8
1
10
30.707085
20
8.767441
0
VERTEX
8
1
10
30.727440
20
8.760254
42
0.101598
0
VERTEX
8
1
10
30.935978
20
8.691193
42
-0.015393
0
VERTEX
8
1
10
31.083218
20
8.665705
42
-0.148433
0
VERTEX
8
1
10
31.234821
20
8.557338
42
0.242675
0
VERTEX
8
1
10
31.307693
20
8.541481
42
-0.014507
0
VERTEX
8
1
10
31.556366
20
8.600471
42
0.215215
0
VERTEX
8
1
10
31.495735
20
8.785003
42
-0.080578
0
VERTEX
8
1
10
31.413660
20
8.919569
42
0.210788
0
VERTEX
8
1
10
31.194090
20
9.081357
42
0.033652
0
VERTEX
8
1
10
31.110069
20
9.102013
42
-0.000581
0
VERTEX
8
1
10
30.986959
20
9.088190
42
-0.371389
0
VERTEX
8
1
10
30.945313
20
9.137169
42
-0.027593
0
VERTEX
8
1
10
30.969526
20
9.368018
42
0.137293
0
VERTEX
8
1
10
30.951195
20
9.467400
42
-0.006895
0
VERTEX
8
1
10
30.935337
20
9.547050
42
0.165774
0
VERTEX
8
1
10
30.883289
20
9.601471
42
-0.040471
0
VERTEX
8
1
10
30.753460
20
9.721092
42
0.168564
0
VERTEX
8
1
10
30.655966
20
9.771716
42
0.229371
0
VERTEX
8
1
10
30.584301
20
9.737541
42
0.040859
0
SEQEND
0
POLYLINE
8
1
66
1
70
1
0
VERTEX
8
1
10
33.510040
20
8.344788
42
0.121814
0
VERTEX
8
1
10
33.476543
20
8.454811
42
0.344520
0
VERTEX
8
1
10
33.418011
20
8.456398
42
0.059062
0
VERTEX
8
1
10
33.286430
20
8.403145
42
0.219055
0
VERTEX
8
1
10
33.257603
20
8.355671
42
-0.383439
0
VERTEX
8
1
10
33.139404
20
8.295257
42
0.075482
0
VERTEX
8
1
10
33.030144
20
8.282876
42
-0.225278
0
VERTEX
8
1
10
32.955013
20
8.312485
42
0.086308
0
VERTEX
8
1
10
32.834103
20
8.391792
42
0.100708
0
VERTEX
8
1
10
32.712658
20
8.448982
42
0.199330
0
VERTEX
8
1
10
32.594994
20
8.379387
42
0.062170
0
VERTEX
8
1
10
32.515015
20
8.265747
42
-0.171329
0
VERTEX
8
1
10
32.402721
20
8.197144
42
0.679176
0
VERTEX
8
1
10
32.388832
20
8.196213
42
0.227191
0
VERTEX
8
1
10
32.293510
20
7.960396
42
0.168890
0
VERTEX
8
1
10
32.397259
20
7.918015
0
VERTEX
8
1
10
32.409935
20
7.921410
42
0.066590
0
VERTEX
8
1
10
32.602234
20
7.956020
42
0.097752
0
VERTEX
8
1
10
32.658108
20
7.997124
42
-0.264407
0
VERTEX
8
1
10
32.722988
20
8.058456
42
-0.145677
0
VERTEX
8
1
10
32.889221
20
8.076782
0
VERTEX
8
1
10
32.935917
20
8.069702
42
-0.042373
0
VERTEX
8
1
10
33.100262
20
8.052460
42
-0.159967
0
VERTEX
8
1
10
33.168266
20
8.002258
42
0.087567
0
VERTEX
8
1
10
33.303101
20
7.899422
0
VERTEX
8
1
10
33.321243
20
7.894470
42
0.066752
0
VERTEX
8
1
10
33.526867
20
7.901108
42
0.007956
0
VERTEX
8
1
10
33.801632
20
7.982955
42
0.113517
0
VERTEX
8
1
10
33.869045
20
8.040403
42
-0.250243
0
VERTEX
8
1
10
33.935692
20
8.052588
42
0.209391
0
VERTEX
8
1
10
33.976063
20
8.075493
42
0.152136
0
VERTEX
8
1
10
34.043777
20
8.209244
42
0.297318
0
VERTEX
8
1
10
34.018593
20
8.245827
42
0.276609
0
VERTEX
8
1
10
33.786854
20
8.279603
42
-0.149374
0
VERTEX
8
1
10
33.629368
20
8.283564
42
0.077432
0
VERTEX
8
1
10
33.537521
20
8.292245
42
-0.325442
0
VERTEX
8
1
10
33.513660
20
8.326500
0
SEQEND
0
POLYLINE
8
1
66
1
70
1
0
VERTEX
8
1
10
33.757568
20
7.373978
42
-0.211254
0
VERTEX
8
1
10
33.660198
20
7.482392
42
0.234053
0
VERTEX
8
1
10
33.596691
20
7.531639
42
0.108864
0
VERTEX
8
1
10
33.464954
20
7.491940
42
-0.227594
0
VERTEX
8
1
10
33.385422
20
7.505478
42
-0.002715
0
VERTEX
8
1
10
33.247807
20
7.607682
42
0.221353
0
VERTEX
8
1
10
33.184628
20
7.607742
42
0.045254
0
VERTEX
8
1
10
33.083652
20
7.570847
0
VERTEX
8
1
10
33.042484
20
7.433624
42
-0.062147
0
VERTEX
8
1
10
33.165852
20
7.367805
42
-0.193827
0
VERTEX
8
1
10
33.228905
20
7.202211
42
-0.049842
0
VERTEX
8
1
10
33.221634
20
7.105446
42
0.152739
0
VERTEX
8
1
10
33.265568
20
6.960640
42
0.238063
0
VERTEX
8
1
10
33.382092
20
6.945518
0
VERTEX
8
1
10
33.400112
20
6.957970
0
VERTEX
8
1
10
33.417152
20
6.974281
0
VERTEX
8
1
10
33.434158
20
6.988953
42
-0.297265
0
VERTEX
8
1
10
33.602749
20
7.023048
42
0.108688
0
VERTEX
8
1
10
33.738518
20
7.017063
42
0.528293
0
VERTEX
8
1
10
33.756783
20
7.083450
42
-0.016077
0
VERTEX
8
1
10
33.702785
20
7.165721
42
-0.448173
0
VERTEX
8
1
10
33.729229
20
7.198462
42
0.203630
0
VERTEX
8
1
10
33.820225
20
7.294756
42
0.307480
0
VERTEX
8
1
10
33.789612
20
7.352104
42
0.055914
0
SEQEND
0
POLYLINE
8
1
66
1
70
1
0
VERTEX
8
1
10
33.926659
20
7.621674
42
0.183014
0
VERTEX
8
1
10
33.986877
20
7.721657
42
0.353715
0
VERTEX
8
1
10
33.953102
20
7.761429
42
0.454750
0
VERTEX
8
1
10
33.875492
20
7.731331
42
-0.333415
0
VERTEX
8
1
10
33.769032
20
7.701843
42
0.083933
0
VERTEX
8
1
10
33.675282
20
7.718346
42
0.287735
0
VERTEX
8
1
10
33.603722
20
7.627035
42
0.294136
0
VERTEX
8
1
10
33.639656
20
7.586235
42
0.002682
0
VERTEX
8
1
10
33.773476
20
7.539681
42
-0.177162
0
VERTEX
8
1
10
33.802887
20
7.495563
42
0.360121
0
VERTEX
8
1
10
33.865154
20
7.476921
42
0.211756
0
VERTEX
8
1
10
33.890835
20
7.547396
42
-0.159179
0
SEQEND
0
POLYLINE
8
1
66
1
70
1
0
VERTEX
8
1
10
34.454494
20
7.785912
42
0.270209
0
VERTEX
8
1
10
34.309250
20
7.834619
42
0.128375
0
VERTEX
8
1
10
34.175014
20
7.785017
42
0.259406
0
VERTEX
8
1
10
34.153446
20
7.713051
42
-0.184876
0
VERTEX
8
1
10
34.124454
20
7.613968
0
VERTEX
8
1
10
34.113541
20
7.606155
42
0.066215
0
VERTEX
8
1
10
34.023781
20
7.571337
42
0.357903
0
VERTEX
8
1
10
34.013084
20
7.507011
42
-0.041766
0
VERTEX
8
1
10
34.052784
20
7.340011
42
0.151319
0
VERTEX
8
1
10
34.114635
20
7.250664
42
0.121082
0
VERTEX
8
1
10
34.257690
20
7.157257
0
VERTEX
8
1
10
34.278179
20
7.154205
42
0.013056
0
VERTEX
8
1
10
34.520565
20
7.183575
42
-0.073711
0
VERTEX
8
1
10
34.590561
20
7.175606
0
VERTEX
8
1
10
34.607487
20
7.163315
42
-0.084507
0
VERTEX
8
1
10
34.662857
20
6.986984
42
-0.143428
0
VERTEX
8
1
10
34.641891
20
6.909626
42
0.174924
0
VERTEX
8
1
10
34.632881
20
6.809265
42
0.067533
0
VERTEX
8
1
10
34.768784
20
6.552231
42
0.172530
0
VERTEX
8
1
10
34.824661
20
6.480240
42
0.129002
0
VERTEX
8
1
10
34.964615
20
6.410378
0
VERTEX
8
1
10
34.979527
20
6.413185
42
-0.073349
0
VERTEX
8
1
10
35.112926
20
6.547882
42
-0.093337
0
VERTEX
8
1
10
35.220650
20
6.584328
42
-0.036838
0
VERTEX
8
1
10
35.545452
20
6.627998
42
0.157360
0
VERTEX
8
1
10
35.633766
20
6.671719
0
VERTEX
8
1
10
35.638264
20
6.679752
42
0.383254
0
VERTEX
8
1
10
35.631058
20
6.718718
0
VERTEX
8
1
10
35.625000
20
6.724174
42
-0.725470
0
VERTEX
8
1
10
35.623310
20
6.741760
0
VERTEX
8
1
10
35.636417
20
6.751099
42
-0.016983
0
VERTEX
8
1
10
35.887867
20
6.863489
42
0.124407
0
VERTEX
8
1
10
35.925594
20
6.902840
42
0.110876
0
VERTEX
8
1
10
36.009148
20
7.031988
42
0.322064
0
VERTEX
8
1
10
35.973858
20
7.096718
42
0.020835
0
VERTEX
8
1
10
35.756905
20
7.277626
42
0.185978
0
VERTEX
8
1
10
35.592129
20
7.368874
42
0.075636
0
VERTEX
8
1
10
35.393646
20
7.395768
42
-0.206594
0
VERTEX
8
1
10
35.273941
20
7.399002
42
-0.287389
0
VERTEX
8
1
10
35.250145
20
7.456902
42
0.218319
0
VERTEX
8
1
10
35.206764
20
7.520360
42
0.109712
0
VERTEX
8
1
10
35.074345
20
7.579567
0
VERTEX
8
1
10
35.036983
20
7.592796
42
0.179509
0
VERTEX
8
1
10
34.925240
20
7.604034
42
0.203717
0
VERTEX
8
1
10
34.887932
20
7.559289
42
-0.063729
0
VERTEX
8
1
10
34.842964
20
7.501953
42
-0.163773
0
VERTEX
8
1
10
34.786861
20
7.488930
42
-0.008871
0
VERTEX
8
1
10
34.670483
20
7.477528
42
-0.297992
0
VERTEX
8
1
10
34.624046
20
7.520889
42
0.156375
0
VERTEX
8
1
10
34.541733
20
7.600334
42
-0.266019
0
VERTEX
8
1
10
34.528500
20
7.642075
42
0.144253
0
VERTEX
8
1
10
34.505054
20
7.753830
42
0.035176
0
SEQEND
0
POLYLINE
8
1
66
1
70
1
0
VERTEX
8
1
10
34.483658
20
6.527962
0
VERTEX
8
1
10
34.500721
20
6.564438
42
0.445803
0
VERTEX
8
1
10
34.432396
20
6.675842
42
0.335921
0
VERTEX
8
1
10
34.289093
20
6.633873
42
0.126400
0
VERTEX
8
1
10
34.230301
20
6.525284
42
-0.295261
0
VERTEX
8
1
10
34.187790
20
6.497452
42
0.138177
0
VERTEX
8
1
10
34.100349
20
6.471687
42
0.095344
0
VERTEX
8
1
10
34.050781
20
6.361629
42
0.210285
0
VERTEX
8
1
10
34.073292
20
6.287019
42
0.256825
0
VERTEX
8
1
10
34.118935
20
6.280807
0
VERTEX
8
1
10
34.136543
20
6.285386
42
-0.166603
0
VERTEX
8
1
10
34.324585
20
6.301636
42
0.133206
0
VERTEX
8
1
10
34.479229
20
6.310059
42
0.366728
0
VERTEX
8
1
10
34.500286
20
6.369301
42
-0.065764
0
VERTEX
8
1
10
34.466370
20
6.469246
42
-0.129159
0
SEQEND
0
POLYLINE
8
1
66
1
70
1
0
VERTEX
8
1
10
36.587513
20
5.567215
42
0.020566
0
VERTEX
8
1
10
36.486877
20
5.655684
42
0.097011
0
VERTEX
8
1
10
36.362835
20
5.647859
42
-0.055967
0
VERTEX
8
1
10
36.212822
20
5.642334
42
0.254979
0
VERTEX
8
1
10
36.168957
20
5.584000
42
0.177123
0
VERTEX
8
1
10
36.180305
20
5.307358
42
-0.033717
0
VERTEX
8
1
10
36.228474
20
5.134369
0
VERTEX
8
1
10
36.227501
20
5.120255
42
0.340947
0
VERTEX
8
1
10
36.210949
20
5.068420
42
0.184128
0
VERTEX
8
1
10
36.276012
20
4.978546
42
-0.193734
0
VERTEX
8
1
10
36.305725
20
4.835220
42
-0.136004
0
VERTEX
8
1
10
36.114456
20
4.640106
42
0.113055
0
VERTEX
8
1
10
36.046001
20
4.550842
42
-0.115714
0
VERTEX
8
1
10
35.916004
20
4.416992
42
-0.039848
0
VERTEX
8
1
10
35.839787
20
4.397812
0
VERTEX
8
1
10
35.827740
20
4.390076
0
VERTEX
8
1
10
35.814034
20
4.377182
42
0.018392
0
VERTEX
8
1
10
35.709969
20
4.236145
42
0.153915
0
VERTEX
8
1
10
35.696396
20
4.141357
42
-0.004705
0
VERTEX
8
1
10
35.722984
20
3.932159
42
0.198199
0
VERTEX
8
1
10
35.751392
20
3.780770
42
0.106376
0
VERTEX
8
1
10
35.801308
20
3.741592
42
-0.056943
0
VERTEX
8
1
10
36.079254
20
3.569804
42
-0.206034
0
VERTEX
8
1
10
36.107342
20
3.496765
42
-0.067965
0
VERTEX
8
1
10
36.079224
20
3.264361
42
0.250015
0
VERTEX
8
1
10
36.165424
20
3.018204
42
-0.297228
0
VERTEX
8
1
10
36.176651
20
2.934525
42
-0.009785
0
VERTEX
8
1
10
36.124393
20
2.803925
42
0.055890
0
VERTEX
8
1
10
36.111851
20
2.641754
42
0.106893
0
VERTEX
8
1
10
36.046032
20
2.460464
0
VERTEX
8
1
10
36.047489
20
2.434158
42
0.159620
0
VERTEX
8
1
10
36.138187
20
2.306412
42
-0.080992
0
VERTEX
8
1
10
36.172459
20
2.259125
0
VERTEX
8
1
10
36.188206
20
2.244492
42
0.074255
0
VERTEX
8
1
10
36.417553
20
2.155609
42
-0.041081
0
VERTEX
8
1
10
36.729523
20
1.897949
42
-0.078208
0
VERTEX
8
1
10
36.785122
20
1.812057
0
VERTEX
8
1
10
36.801254
20
1.802704
0
VERTEX
8
1
10
36.823395
20
1.800232
42
0.162501
0
VERTEX
8
1
10
37.036106
20
1.909729
42
0.048490
0
VERTEX
8
1
10
37.188965
20
2.244435
0
VERTEX
8
1
10
37.202297
20
2.273263
42
-0.081044
0
VERTEX
8
1
10
37.361477
20
2.474731
0
VERTEX
8
1
10
37.542564
20
2.600159
42
0.130430
0
VERTEX
8
1
10
37.684811
20
2.668320
0
VERTEX
8
1
10
37.694641
20
2.682343
42
0.005517
0
VERTEX
8
1
10
37.737469
20
2.793844
42
-0.284908
0
VERTEX
8
1
10
37.798512
20
2.823349
42
0.105497
0
VERTEX
8
1
10
37.955189
20
2.839593
42
-0.335189
0
VERTEX
8
1
10
37.994644
20
2.806355
42
0.384215
0
VERTEX
8
1
10
38.126862
20
2.767212
42
-0.101129
0
VERTEX
8
1
10
38.238857
20
2.773926
0
VERTEX
8
1
10
38.261978
20
2.773864
42
0.303182
0
VERTEX
8
1
10
38.346180
20
2.817429
0
VERTEX
8
1
10
38.360306
20
2.858475
42
-0.267575
0
VERTEX
8
1
10
38.433929
20
2.945084
0
VERTEX
8
1
10
38.449886
20
2.947083
42
0.156208
0
VERTEX
8
1
10
38.684677
20
3.005615
42
0.115063
0
VERTEX
8
1
10
38.834030
20
3.105164
42
-0.135301
0
VERTEX
8
1
10
38.920795
20
3.202826
42
-0.033152
0
VERTEX
8
1
10
39.087284
20
3.316940
42
0.054636
0
VERTEX
8
1
10
39.221157
20
3.470143
42
0.183208
0
VERTEX
8
1
10
39.238567
20
3.525589
42
0.081623
0
VERTEX
8
1
10
39.181316
20
3.697342
42
-0.153576
0
VERTEX
8
1
10
38.983631
20
3.723404
42
-0.089973
0
VERTEX
8
1
10
38.837517
20
3.783340
42
-0.213573
0
VERTEX
8
1
10
38.819805
20
3.830521
42
0.160911
0
VERTEX
8
1
10
38.772163
20
3.904587
42
-0.240649
0
VERTEX
8
1
10
38.751324
20
3.993469
42
0.244521
0
VERTEX
8
1
10
38.667465
20
4.155670
42
-0.127236
0
VERTEX
8
1
10
38.531841
20
4.220703
42
-0.127392
0
VERTEX
8
1
10
38.443066
20
4.486328
42
0.232025
0
VERTEX
8
1
10
38.312035
20
4.668641
42
0.004735
0
VERTEX
8
1
10
37.881653
20
4.957458
0
VERTEX
8
1
10
37.853466
20
4.972733
42
-0.040411
0
VERTEX
8
1
10
37.510750
20
5.148026
0
VERTEX
8
1
10
37.492683
20
5.162796
42
0.130251
0
VERTEX
8
1
10
37.289482
20
5.293213
0
VERTEX
8
1
10
37.276825
20
5.294571
0
VERTEX
8
1
10
37.086124
20
5.294571
0
VERTEX
8
1
10
37.069256
20
5.295502
42
-0.030764
0
VERTEX
8
1
10
36.769245
20
5.372147
42
-0.164448
0
VERTEX
8
1
10
36.651215
20
5.493347
42
0.061822
0
SEQEND
0
POLYLINE
8
1
66
1
70
1
0
VERTEX
8
1
10
84.117638
20
33.352882
42
0.043078
0
VERTEX
8
1
10
83.925171
20
33.462242
0
VERTEX
8
1
10
83.904099
20
33.468193
42
0.503074
0
VERTEX
8
1
10
83.854919
20
33.440140
0
VERTEX
8
1
10
83.849442
20
33.418694
0
VERTEX
8
1
10
83.846046
20
33.392754
42
0.126193
0
VERTEX
8
1
10
83.972672
20
32.851357
42
0.108316
0
VERTEX
8
1
10
84.081474
20
32.738007
42
-0.036669
0
VERTEX
8
1
10
84.259979
20
32.553032
0
VERTEX
8
1
10
84.136429
20
32.285324
0
VERTEX
8
1
10
84.135368
20
32.282677
42
0.086514
0
VERTEX
8
1
10
84.266006
20
32.100048
0
VERTEX
8
1
10
84.276657
20
32.093613
42
0.476163
0
VERTEX
8
1
10
84.343605
20
32.116188
42
0.062761
0
VERTEX
8
1
10
84.413895
20
32.378754
42
-0.071218
0
VERTEX
8
1
10
84.470009
20
32.529556
42
0.083911
0
VERTEX
8
1
10
84.624557
20
32.768265
42
-0.053622
0
VERTEX
8
1
10
84.705345
20
32.894180
42
0.209239
0
VERTEX
8
1
10
84.723892
20
33.016762
42
0.155857
0
VERTEX
8
1
10
84.643913
20
33.103851
42
0.084764
0
VERTEX
8
1
10
84.387146
20
33.222023
42
-0.073313
0
SEQEND
0
POLYLINE
8
1
66
1
70
1
0
VERTEX
8
1
10
83.281158
20
34.657722
0
VERTEX
8
1
10
83.176994
20
34.616058
42
0.160594
0
VERTEX
8
1
10
83.299904
20
34.364273
0
VERTEX
8
1
10
83.320160
20
34.333450
42
0.007409
0
VERTEX
8
1
10
83.469536
20
34.056465
0
VERTEX
8
1
10
83.487053
20
34.032211
0
VERTEX
8
1
10
83.502380
20
34.017784
0
VERTEX
8
1
10
83.515114
20
34.015198
0
VERTEX
8
1
10
83.524834
20
34.026474
42
0.130787
0
VERTEX
8
1
10
83.522194
20
34.168930
42
0.076245
0
VERTEX
8
1
10
83.385323
20
34.470230
42
0.147229
0
VERTEX
8
1
10
83.340752
20
34.647266
42
0.326254
0
SEQEND
0
POLYLINE
8
1
66
1
70
1
0
VERTEX
8
1
10
18.595594
20
52.818901
42
-0.149431
0
VERTEX
8
1
10
19.113768
20
53.232182
42
-0.190586
0
VERTEX
8
1
10
19.717686
20
53.206253
42
-0.067188
0
VERTEX
8
1
10
19.938913
20
53.083130
0
VERTEX
8
1
10
19.962116
20
53.059952
0
VERTEX
8
1
10
19.985615
20
53.032387
42
-0.274323
0
VERTEX
8
1
10
20.075199
20
51.934254
42
-0.117001
0
VERTEX
8
1
10
19.750881
20
51.556313
42
-0.084963
0
VERTEX
8
1
10
18.529741
20
50.872757
42
0.017506
0
VERTEX
8
1
10
17.950033
20
50.645821
0
VERTEX
8
1
10
17.931738
20
50.659325
42
-0.018746
0
VERTEX
8
1
10
17.306509
20
51.533730
42
-0.020947
0
VERTEX
8
1
10
16.950264
20
52.090332
42
-0.145456
0
VERTEX
8
1
10
16.818014
20
52.966099
42
-0.220529
0
VERTEX
8
1
10
17.282984
20
53.630257
42
-0.127281
0
VERTEX
8
1
10
17.824780
20
53.726761
42
-0.160650
0
VERTEX
8
1
10
18.334780
20
53.484512
42
-0.071369
0
VERTEX
8
1
10
18.471897
20
53.201557
42
-0.040712
0
VERTEX
8
1
10
18.583471
20
52.800560
0
SEQEND
0
POLYLINE
8
1
66
1
70
1
0
VERTEX
8
1
10
16.137056
20
54.478569
0
VERTEX
8
1
10
16.452129
20
55.864876
0
VERTEX
8
1
10
16.252758
20
55.910187
0
VERTEX
8
1
10
16.305319
20
56.141457
0
VERTEX
8
1
10
16.983183
20
55.987389
0
VERTEX
8
1
10
16.930620
20
55.756126
0
VERTEX
8
1
10
16.731249
20
55.801437
0
VERTEX
8
1
10
16.416178
20
54.415138
0
VERTEX
8
1
10
16.615549
20
54.369820
0
VERTEX
8
1
10
16.562988
20
54.138557
0
VERTEX
8
1
10
15.885124
20
54.292618
0
VERTEX
8
1
10
15.937685
20
54.523888
0
SEQEND
0
POLYLINE
8
1
66
1
70
1
0
VERTEX
8
1
10
15.159263
20
46.292625
42
-0.139387
0
VERTEX
8
1
10
15.801705
20
46.813950
42
-0.195430
0
VERTEX
8
1
10
16.613224
20
46.799183
42
-0.051221
0
VERTEX
8
1
10
16.892431
20
46.654663
0
VERTEX
8
1
10
16.918375
20
46.633820
42
-0.113212
0
VERTEX
8
1
10
17.147497
20
46.267460
42
-0.195528
0
VERTEX
8
1
10
17.135824
20
45.183380
42
-0.126538
0
VERTEX
8
1
10
16.710585
20
44.644272
42
-0.070221
0
VERTEX
8
1
10
15.356763
20
43.825405
42
0.005143
0
VERTEX
8
1
10
14.370242
20
43.447369
0
VERTEX
8
1
10
14.334265
20
43.431007
0
VERTEX
8
1
10
14.298668
20
43.413834
0
VERTEX
8
1
10
14.277710
20
43.429260
42
-0.017570
0
VERTEX
8
1
10
13.777977
20
44.110474
42
-0.015530
0
VERTEX
8
1
10
13.018394
20
45.250652
42
-0.074785
0
VERTEX
8
1
10
12.844778
20
45.704330
42
-0.107853
0
VERTEX
8
1
10
12.815254
20
46.518620
42
-0.192607
0
VERTEX
8
1
10
13.330107
20
47.292130
0
VERTEX
8
1
10
13.419621
20
47.351257
42
-0.114212
0
VERTEX
8
1
10
14.082287
20
47.482819
42
-0.174217
0
VERTEX
8
1
10
14.805704
20
47.160805
42
-0.065359
0
VERTEX
8
1
10
14.960453
20
46.857971
42
-0.047245
0
VERTEX
8
1
10
15.135000
20
46.256477
42
-0.012212
0
SEQEND
0
POLYLINE
8
1
66
1
70
1
0
VERTEX
8
1
10
11.907944
20
48.470306
0
VERTEX
8
1
10
12.323574
20
50.299065
0
VERTEX
8
1
10
12.060572
20
50.358841
0
VERTEX
8
1
10
12.129908
20
50.663918
0
VERTEX
8
1
10
13.024120
20
50.460686
0
VERTEX
8
1
10
12.954782
20
50.155609
0
VERTEX
8
1
10
12.691780
20
50.215378
0
VERTEX
8
1
10
12.276148
20
48.386627
0
VERTEX
8
1
10
12.539152
20
48.326851
0
VERTEX
8
1
10
12.469814
20
48.021767
0
VERTEX
8
1
10
11.575602
20
48.224998
0
VERTEX
8
1
10
11.644939
20
48.530083
0
SEQEND
0
POLYLINE
8
1
66
1
70
1
0
VERTEX
8
1
10
25.192987
20
43.490768
42
-0.145757
0
VERTEX
8
1
10
25.792448
20
44.045956
42
-0.190116
0
VERTEX
8
1
10
26.536587
20
44.080967
42
-0.057895
0
VERTEX
8
1
10
26.841057
20
43.944366
42
-0.111088
0
VERTEX
8
1
10
27.032436
20
43.713486
42
-0.218248
0
VERTEX
8
1
10
27.139513
20
42.581211
42
-0.127286
0
VERTEX
8
1
10
26.767271
20
42.046822
42
-0.072890
0
VERTEX
8
1
10
25.482582
20
41.183769
42
0.009176
0
VERTEX
8
1
10
24.571844
20
40.779465
0
VERTEX
8
1
10
24.551394
20
40.768372
0
VERTEX
8
1
10
24.531153
20
40.756905
42
-0.019056
0
VERTEX
8
1
10
24.045498
20
41.349670
42
-0.016261
0
VERTEX
8
1
10
23.232746
20
42.443890
42
-0.070052
0
VERTEX
8
1
10
23.060177
20
42.830772
42
-0.106348
0
VERTEX
8
1
10
22.981911
20
43.603809
42
-0.196449
0
VERTEX
8
1
10
23.433348
20
44.379822
0
VERTEX
8
1
10
23.517084
20
44.441528
42
-0.118582
0
VERTEX
8
1
10
24.154654
20
44.597141
42
-0.168171
0
VERTEX
8
1
10
24.833916
20
44.331238
42
-0.067889
0
VERTEX
8
1
10
24.998524
20
44.047035
42
-0.047553
0
VERTEX
8
1
10
25.191124
20
43.487442
0
SEQEND
0
POLYLINE
8
1
66
1
70
1
0
VERTEX
8
1
10
22.034090
20
45.427528
0
VERTEX
8
1
10
22.339737
20
47.176765
0
VERTEX
8
1
10
22.088169
20
47.220726
0
VERTEX
8
1
10
22.139158
20
47.512535
0
VERTEX
8
1
10
22.994486
20
47.363083
0
VERTEX
8
1
10
22.943497
20
47.071266
0
VERTEX
8
1
10
22.691931
20
47.115227
0
VERTEX
8
1
10
22.386284
20
45.365990
0
VERTEX
8
1
10
22.637852
20
45.322037
0
VERTEX
8
1
10
22.586863
20
45.030220
0
VERTEX
8
1
10
21.731535
20
45.179672
0
VERTEX
8
1
10
21.782524
20
45.471489
0
SEQEND
0
POLYLINE
8
1
66
1
70
1
0
VERTEX
8
1
10
30.043526
20
49.579391
42
-0.139227
0
VERTEX
8
1
10
30.715349
20
50.281868
42
-0.197796
0
VERTEX
8
1
10
31.663492
20
50.384632
42
-0.059524
0
VERTEX
8
1
10
32.043934
20
50.234642
42
-0.114533
0
VERTEX
8
1
10
32.333450
20
49.894409
42
-0.184290
0
VERTEX
8
1
10
32.523033
20
48.698948
42
-0.143060
0
VERTEX
8
1
10
32.096764
20
47.932846
42
-0.071660
0
VERTEX
8
1
10
30.603951
20
46.790932
42
0.001917
0
VERTEX
8
1
10
29.503687
20
46.234985
0
VERTEX
8
1
10
29.455812
20
46.207245
0
VERTEX
8
1
10
29.408634
20
46.178337
0
VERTEX
8
1
10
29.384499
20
46.192543
42
-0.016577
0
VERTEX
8
1
10
28.733307
20
46.911942
42
-0.015016
0
VERTEX
8
1
10
27.715952
20
48.143444
42
-0.068303
0
VERTEX
8
1
10
27.501678
20
48.532753
42
-0.106441
0
VERTEX
8
1
10
27.313093
20
49.487457
42
-0.214211
0
VERTEX
8
1
10
27.831964
20
50.564262
0
VERTEX
8
1
10
27.921848
20
50.637482
42
-0.112290
0
VERTEX
8
1
10
28.660568
20
50.868305
42
-0.159046
0
VERTEX
8
1
10
29.464960
20
50.642693
0
VERTEX
8
1
10
29.504047
20
50.617214
0
VERTEX
8
1
10
29.542366
20
50.590599
42
-0.067824
0
VERTEX
8
1
10
29.725266
20
50.325539
42
-0.052567
0
VERTEX
8
1
10
30.040123
20
49.572594
0
SEQEND
0
POLYLINE
8
1
66
1
70
1
0
VERTEX
8
1
10
26.036695
20
51.754570
0
VERTEX
8
1
10
26.300817
20
53.923515
0
VERTEX
8
1
10
25.988890
20
53.961502
0
VERTEX
8
1
10
26.032951
20
54.323334
0
VERTEX
8
1
10
27.093508
20
54.194183
0
VERTEX
8
1
10
27.049446
20
53.832352
0
VERTEX
8
1
10
26.737516
20
53.870338
0
VERTEX
8
1
10
26.473394
20
51.701393
0
VERTEX
8
1
10
26.785322
20
51.663406
0
VERTEX
8
1
10
26.741261
20
51.301575
0
VERTEX
8
1
10
25.680704
20
51.430725
0
VERTEX
8
1
10
25.724766
20
51.792557
0
SEQEND
0
POLYLINE
8
1
66
1
70
1
0
VERTEX
8
1
10
34.569252
20
40.335960
42
-0.135098
0
VERTEX
8
1
10
35.209045
20
41.034088
42
-0.198248
0
VERTEX
8
1
10
36.164417
20
41.164928
42
-0.058467
0
VERTEX
8
1
10
36.544437
20
41.028313
42
-0.112906
0
VERTEX
8
1
10
36.847469
20
40.693905
42
-0.183891
0
VERTEX
8
1
10
37.078598
20
39.499474
42
-0.143510
0
VERTEX
8
1
10
36.673874
20
38.710686
42
-0.071038
0
VERTEX
8
1
10
35.224197
20
37.515335
42
0.003189
0
VERTEX
8
1
10
34.109409
20
36.898735
0
VERTEX
8
1
10
34.073692
20
36.876041
0
VERTEX
8
1
10
34.038467
20
36.852592
0
VERTEX
8
1
10
34.020321
20
36.854881
42
-0.017275
0
VERTEX
8
1
10
33.348087
20
37.543762
42
-0.016312
0
VERTEX
8
1
10
32.237865
20
38.794117
42
-0.064159
0
VERTEX
8
1
10
32.010883
20
39.191677
42
-0.105816
0
VERTEX
8
1
10
31.804152
20
40.148327
42
-0.228508
0
VERTEX
8
1
10
32.394627
20
41.296700
42
-0.104396
0
VERTEX
8
1
10
33.083687
20
41.542492
42
-0.150622
0
VERTEX
8
1
10
33.854122
20
41.388645
42
-0.035110
0
VERTEX
8
1
10
34.015018
20
41.291924
42
-0.062554
0
VERTEX
8
1
10
34.208858
20
41.027534
42
-0.050398
0
VERTEX
8
1
10
34.547859
20
40.291977
42
-0.011441
0
SEQEND
0
POLYLINE
8
1
66
1
70
1
0
VERTEX
8
1
10
30.437054
20
42.341576
0
VERTEX
8
1
10
30.623806
20
44.534920
0
VERTEX
8
1
10
30.308369
20
44.561775
0
VERTEX
8
1
10
30.339523
20
44.927681
0
VERTEX
8
1
10
31.412010
20
44.836365
0
VERTEX
8
1
10
31.380856
20
44.470459
0
VERTEX
8
1
10
31.065418
20
44.497322
0
VERTEX
8
1
10
30.878666
20
42.303978
0
VERTEX
8
1
10
31.194103
20
42.277115
0
VERTEX
8
1
10
31.162949
20
41.911217
0
VERTEX
8
1
10
30.090462
20
42.002533
0
VERTEX
8
1
10
30.121616
20
42.368431
0
SEQEND
0
POLYLINE
8
1
66
1
70
1
0
VERTEX
8
1
10
20.215433
20
36.098228
42
-0.123306
0
VERTEX
8
1
10
20.889347
20
36.674469
42
-0.212476
0
VERTEX
8
1
10
21.923315
20
36.691216
42
-0.057565
0
VERTEX
8
1
10
22.273678
20
36.504517
42
-0.111302
0
VERTEX
8
1
10
22.527229
20
36.128086
42
-0.183490
0
VERTEX
8
1
10
22.588419
20
34.911980
42
-0.143050
0
VERTEX
8
1
10
22.078203
20
34.186951
42
-0.070747
0
VERTEX
8
1
10
20.478067
20
33.202408
42
-0.001156
0
VERTEX
8
1
10
19.338785
20
32.767445
42
0.020061
0
VERTEX
8
1
10
19.192144
20
32.700424
42
-0.016655
0
VERTEX
8
1
10
18.653395
20
33.427090
42
-0.014733
0
VERTEX
8
1
10
17.692152
20
34.865597
42
-0.070184
0
VERTEX
8
1
10
17.501276
20
35.346149
42
-0.106263
0
VERTEX
8
1
10
17.442560
20
36.308842
42
-0.203382
0
VERTEX
8
1
10
18.066681
20
37.276733
0
VERTEX
8
1
10
18.163923
20
37.340591
42
-0.111043
0
VERTEX
8
1
10
18.924240
20
37.496765
42
-0.150933
0
VERTEX
8
1
10
19.668533
20
37.222301
42
-0.020289
0
VERTEX
8
1
10
19.784967
20
37.130402
42
-0.070050
0
VERTEX
8
1
10
19.960682
20
36.803581
42
-0.050317
0
VERTEX
8
1
10
20.183264
20
36.050453
42
-0.014989
0
SEQEND
0
POLYLINE
8
1
66
1
70
1
0
VERTEX
8
1
10
16.383841
20
38.658325
0
VERTEX
8
1
10
16.873268
20
40.811783
0
VERTEX
8
1
10
16.563568
20
40.882164
0
VERTEX
8
1
10
16.645216
20
41.241417
0
VERTEX
8
1
10
17.698196
20
41.002098
0
VERTEX
8
1
10
17.616549
20
40.642853
0
VERTEX
8
1
10
17.306849
20
40.713234
0
VERTEX
8
1
10
16.817421
20
38.559784
0
VERTEX
8
1
10
17.127121
20
38.489395
0
VERTEX
8
1
10
17.045473
20
38.130150
0
VERTEX
8
1
10
15.992493
20
38.369461
0
VERTEX
8
1
10
16.074141
20
38.728714
0
SEQEND
0
POLYLINE
8
1
66
1
70
1
0
VERTEX
8
1
10
14.733496
20
30.381660
42
-0.130946
0
VERTEX
8
1
10
15.377026
20
30.973009
42
-0.201409
0
VERTEX
8
1
10
16.301210
20
31.021984
42
-0.059438
0
VERTEX
8
1
10
16.649450
20
30.859665
42
-0.112550
0
VERTEX
8
1
10
16.912100
20
30.504719
42
-0.193085
0
VERTEX
8
1
10
17.001451
20
29.312641
42
-0.131646
0
VERTEX
8
1
10
16.575611
20
28.669897
42
-0.070451
0
VERTEX
8
1
10
15.123149
20
27.669596
42
0.002359
0
VERTEX
8
1
10
14.012901
20
27.176411
0
VERTEX
8
1
10
13.972491
20
27.155254
0
VERTEX
8
1
10
13.932635
20
27.133070
42
-0.017985
0
VERTEX
8
1
10
13.355520
20
27.837019
42
-0.015603
0
VERTEX
8
1
10
12.419856
20
29.093594
42
-0.071890
0
VERTEX
8
1
10
12.209860
20
29.554892
42
-0.107176
0
VERTEX
8
1
10
12.114960
20
30.462675
42
-0.198534
0
VERTEX
8
1
10
12.650942
20
31.382271
0
VERTEX
8
1
10
12.741915
20
31.449028
42
-0.105503
0
VERTEX
8
1
10
13.426310
20
31.632320
42
-0.155397
0
VERTEX
8
1
10
14.159748
20
31.412394
42
-0.020884
0
VERTEX
8
1
10
14.277113
20
31.329338
42
-0.070860
0
VERTEX
8
1
10
14.463669
20
31.018654
42
-0.049944
0
VERTEX
8
1
10
14.703821
20
30.332497
42
-0.015556
0
SEQEND
0
POLYLINE
8
1
66
1
70
1
0
VERTEX
8
1
10
11.003803
20
32.603081
0
VERTEX
8
1
10
11.360600
20
34.652611
0
VERTEX
8
1
10
11.065845
20
34.703918
0
VERTEX
8
1
10
11.125368
20
35.045830
0
VERTEX
8
1
10
12.127531
20
34.871368
0
VERTEX
8
1
10
12.068008
20
34.529457
0
VERTEX
8
1
10
11.773254
20
34.580772
0
VERTEX
8
1
10
11.416458
20
32.531242
0
VERTEX
8
1
10
11.711212
20
32.479935
0
VERTEX
8
1
10
11.651690
20
32.138023
0
VERTEX
8
1
10
10.649527
20
32.312485
0
VERTEX
8
1
10
10.709049
20
32.654396
0
SEQEND
0
POLYLINE
8
1
66
1
70
1
0
VERTEX
8
1
10
28.229130
20
34.526421
42
-0.131200
0
VERTEX
8
1
10
28.853043
20
35.109043
42
-0.199882
0
VERTEX
8
1
10
29.719046
20
35.162437
42
-0.059993
0
VERTEX
8
1
10
30.052059
20
35.011559
0
VERTEX
8
1
10
30.079723
20
34.990845
42
-0.110061
0
VERTEX
8
1
10
30.333462
20
34.622795
42
-0.197096
0
VERTEX
8
1
10
30.376553
20
33.428833
42
-0.118277
0
VERTEX
8
1
10
29.987417
20
32.864513
42
-0.072046
0
VERTEX
8
1
10
28.562441
20
31.873840
42
0.004389
0
VERTEX
8
1
10
27.532476
20
31.408541
0
VERTEX
8
1
10
27.496246
20
31.389482
0
VERTEX
8
1
10
27.460436
20
31.369644
0
VERTEX
8
1
10
27.443497
20
31.373337
42
-0.017255
0
VERTEX
8
1
10
26.879341
20
32.077934
42
-0.017882
0
VERTEX
8
1
10
25.987411
20
33.309746
42
-0.132699
0
VERTEX
8
1
10
25.709938
20
34.441826
42
-0.251246
0
VERTEX
8
1
10
26.346951
20
35.575394
42
-0.112776
0
VERTEX
8
1
10
27.021124
20
35.746391
42
-0.157801
0
VERTEX
8
1
10
27.726950
20
35.505535
0
VERTEX
8
1
10
27.763855
20
35.478672
0
VERTEX
8
1
10
27.799944
20
35.450722
42
-0.070132
0
VERTEX
8
1
10
27.980907
20
35.138863
42
-0.045859
0
VERTEX
8
1
10
28.204037
20
34.484299
42
-0.012076
0
SEQEND
0
POLYLINE
8
1
66
1
70
1
0
VERTEX
8
1
10
24.667971
20
36.687279
0
VERTEX
8
1
10
25.017897
20
38.684448
0
VERTEX
8
1
10
24.735771
20
38.733879
0
VERTEX
8
1
10
24.794147
20
39.067055
0
VERTEX
8
1
10
25.753372
20
38.898987
0
VERTEX
8
1
10
25.694996
20
38.565811
0
VERTEX
8
1
10
25.412870
20
38.615242
0
VERTEX
8
1
10
25.062944
20
36.618073
0
VERTEX
8
1
10
25.345070
20
36.568642
0
VERTEX
8
1
10
25.286694
20
36.235466
0
VERTEX
8
1
10
24.327469
20
36.403534
0
VERTEX
8
1
10
24.385845
20
36.736710
0
SEQEND
0
POLYLINE
8
1
66
1
70
1
0
VERTEX
8
1
10
36.111309
20
31.969688
42
-0.141711
0
VERTEX
8
1
10
36.674889
20
32.545124
42
-0.179751
0
VERTEX
8
1
10
37.383270
20
32.631195
42
-0.067263
0
VERTEX
8
1
10
37.733841
20
32.504395
42
-0.100900
0
VERTEX
8
1
10
37.914085
20
32.320522
42
-0.228203
0
VERTEX
8
1
10
38.121159
20
31.145161
42
-0.128885
0
VERTEX
8
1
10
37.770855
20
30.573212
42
-0.071239
0
VERTEX
8
1
10
36.560055
20
29.637737
42
0.007131
0
VERTEX
8
1
10
35.653381
20
29.162056
0
VERTEX
8
1
10
35.631866
20
29.148653
0
VERTEX
8
1
10
35.610630
20
29.134819
0
VERTEX
8
1
10
35.582428
20
29.157946
0
VERTEX
8
1
10
35.450336
20
29.294245
0
VERTEX
8
1
10
35.319973
20
29.432194
42
-0.016544
0
VERTEX
8
1
10
34.222401
20
30.703285
42
-0.080862
0
VERTEX
8
1
10
33.992340
20
31.110128
42
-0.117445
0
VERTEX
8
1
10
33.858440
20
31.949467
42
-0.214355
0
VERTEX
8
1
10
34.356529
20
32.798004
42
-0.121075
0
VERTEX
8
1
10
34.991638
20
32.988499
42
-0.147543
0
VERTEX
8
1
10
35.611988
20
32.808311
42
-0.129983
0
VERTEX
8
1
10
35.713066
20
32.721840
42
-0.055539
0
VERTEX
8
1
10
35.867229
20
32.478508
42
-0.046214
0
VERTEX
8
1
10
36.093918
20
31.935654
42
-0.012008
0
SEQEND
0
POLYLINE
8
1
66
1
70
1
0
VERTEX
8
1
10
32.775646
20
33.686317
0
VERTEX
8
1
10
32.968521
20
35.473846
0
VERTEX
8
1
10
32.711445
20
35.501587
0
VERTEX
8
1
10
32.743622
20
35.799789
0
VERTEX
8
1
10
33.617676
20
35.705482
0
VERTEX
8
1
10
33.585499
20
35.407280
0
VERTEX
8
1
10
33.328423
20
35.435013
0
VERTEX
8
1
10
33.135551
20
33.647484
0
VERTEX
8
1
10
33.392628
20
33.619743
0
VERTEX
8
1
10
33.360451
20
33.321541
0
VERTEX
8
1
10
32.486397
20
33.415848
0
VERTEX
8
1
10
32.518574
20
33.714050
0
SEQEND
0
POLYLINE
8
1
66
1
70
1
0
VERTEX
8
1
10
26.462870
20
23.752182
42
-0.128612
0
VERTEX
8
1
10
27.122829
20
24.357744
42
-0.198248
0
VERTEX
8
1
10
28.067123
20
24.418840
42
-0.060705
0
VERTEX
8
1
10
28.443874
20
24.249054
0
VERTEX
8
1
10
28.473068
20
24.226593
0
VERTEX
8
1
10
28.503048
20
24.199562
42
-0.114522
0
VERTEX
8
1
10
28.811357
20
23.664429
42
-0.202487
0
VERTEX
8
1
10
28.722727
20
22.407808
42
-0.092674
0
VERTEX
8
1
10
28.372450
20
21.961487
42
-0.071710
0
VERTEX
8
1
10
26.833616
20
20.912493
42
0.002321
0
VERTEX
8
1
10
25.717772
20
20.421761
0
VERTEX
8
1
10
25.669462
20
20.396971
0
VERTEX
8
1
10
25.621807
20
20.370949
0
VERTEX
8
1
10
25.592764
20
20.398163
42
-0.016306
0
VERTEX
8
1
10
25.036480
20
21.081963
42
-0.016831
0
VERTEX
8
1
10
24.039196
20
22.430510
42
-0.065036
0
VERTEX
8
1
10
23.851830
20
22.833609
42
-0.095911
0
VERTEX
8
1
10
23.723110
20
23.711800
42
-0.240612
0
VERTEX
8
1
10
24.379980
20
24.853855
42
-0.146693
0
VERTEX
8
1
10
25.257477
20
25.046068
42
-0.133976
0
VERTEX
8
1
10
25.926805
20
24.780373
42
-0.122760
0
VERTEX
8
1
10
26.029724
20
24.681265
42
-0.054938
0
VERTEX
8
1
10
26.175426
20
24.423233
42
-0.050406
0
VERTEX
8
1
10
26.429279
20
23.697090
42
-0.016025
0
SEQEND
0
POLYLINE
8
1
66
1
70
1
0
VERTEX
8
1
10
22.584106
20
26.068886
0
VERTEX
8
1
10
22.960417
20
28.200943
0
VERTEX
8
1
10
22.653793
20
28.255066
0
VERTEX
8
1
10
22.716570
20
28.610741
0
VERTEX
8
1
10
23.759089
20
28.426735
0
VERTEX
8
1
10
23.696312
20
28.071060
0
VERTEX
8
1
10
23.389688
20
28.125175
0
VERTEX
8
1
10
23.013378
20
25.993118
0
VERTEX
8
1
10
23.320002
20
25.939003
0
VERTEX
8
1
10
23.257225
20
25.583321
0
VERTEX
8
1
10
22.214706
20
25.767326
0
VERTEX
8
1
10
22.277483
20
26.123009
0
SEQEND
0
POLYLINE
8
1
66
1
70
1
0
VERTEX
8
1
10
35.790539
20
22.619858
42
-0.134102
0
VERTEX
8
1
10
36.454460
20
23.347935
42
-0.199246
0
VERTEX
8
1
10
37.449539
20
23.488113
42
-0.060027
0
VERTEX
8
1
10
37.855892
20
23.339951
0
VERTEX
8
1
10
37.887241
20
23.319763
42
-0.105101
0
VERTEX
8
1
10
38.188263
20
22.958509
42
-0.182702
0
VERTEX
8
1
10
38.388882
20
21.724035
42
-0.142601
0
VERTEX
8
1
10
37.949184
20
20.919962
42
-0.071723
0
VERTEX
8
1
10
36.408058
20
19.704771
42
0.001081
0
VERTEX
8
1
10
35.301590
20
19.122326
42
0.018897
0
VERTEX
8
1
10
35.181190
20
19.048027
0
VERTEX
8
1
10
35.084187
20
19.144262
0
VERTEX
8
1
10
34.988419
20
19.241732
42
-0.019320
0
VERTEX
8
1
10
33.390503
20
21.064301
42
-0.072670
0
VERTEX
8
1
10
33.135284
20
21.516510
42
-0.093677
0
VERTEX
8
1
10
32.938717
20
22.408974
42
-0.224151
0
VERTEX
8
1
10
33.462986
20
23.603722
0
VERTEX
8
1
10
33.553570
20
23.680084
42
-0.108607
0
VERTEX
8
1
10
34.301529
20
23.933260
42
-0.155930
0
VERTEX
8
1
10
35.126724
20
23.736158
42
-0.024636
0
VERTEX
8
1
10
35.250031
20
23.656975
42
-0.062978
0
VERTEX
8
1
10
35.441853
20
23.387604
42
-0.053258
0
VERTEX
8
1
10
35.783985
20
22.606285
0
SEQEND
0
POLYLINE
8
1
66
1
70
1
0
VERTEX
8
1
10
31.565159
20
24.811752
0
VERTEX
8
1
10
31.801178
20
27.080818
0
VERTEX
8
1
10
31.474854
20
27.114761
0
VERTEX
8
1
10
31.514225
20
27.493301
0
VERTEX
8
1
10
32.623741
20
27.377892
0
VERTEX
8
1
10
32.584366
20
26.999359
0
VERTEX
8
1
10
32.258038
20
27.033302
0
VERTEX
8
1
10
32.022015
20
24.764229
0
VERTEX
8
1
10
32.348343
20
24.730286
0
VERTEX
8
1
10
32.308968
20
24.351753
0
VERTEX
8
1
10
31.199455
20
24.467163
0
VERTEX
8
1
10
31.238831
20
24.845695
0
SEQEND
0
POLYLINE
8
1
66
1
70
1
0
VERTEX
8
1
10
45.862625
20
49.216583
42
-0.140231
0
VERTEX
8
1
10
46.315319
20
49.770424
42
-0.186943
0
VERTEX
8
1
10
46.970867
20
49.903896
42
-0.067234
0
VERTEX
8
1
10
47.286488
20
49.813438
42
-0.118829
0
VERTEX
8
1
10
47.561596
20
49.517838
42
-0.199773
0
VERTEX
8
1
10
47.715637
20
48.585907
42
-0.119291
0
VERTEX
8
1
10
47.453083
20
48.087982
42
-0.085625
0
VERTEX
8
1
10
46.242443
20
47.030159
42
0.007197
0
VERTEX
8
1
10
45.676880
20
46.664383
0
VERTEX
8
1
10
45.657467
20
46.649815
0
VERTEX
8
1
10
45.638359
20
46.634850
0
VERTEX
8
1
10
45.609810
20
46.654327
42
-0.016474
0
VERTEX
8
1
10
44.892502
20
47.310165
42
-0.018685
0
VERTEX
8
1
10
44.205917
20
48.000641
42
-0.148758
0
VERTEX
8
1
10
43.844685
20
48.954292
42
-0.226282
0
VERTEX
8
1
10
44.224617
20
49.816154
42
-0.129599
0
VERTEX
8
1
10
44.809772
20
50.039894
42
-0.151360
0
VERTEX
8
1
10
45.407631
20
49.891678
42
-0.066543
0
VERTEX
8
1
10
45.587193
20
49.672417
42
-0.048777
0
VERTEX
8
1
10
45.848377
20
49.181526
42
-0.012748
0
SEQEND
0
POLYLINE
8
1
66
1
70
1
0
VERTEX
8
1
10
42.737457
20
50.485497
0
VERTEX
8
1
10
42.768059
20
52.101677
0
VERTEX
8
1
10
42.535629
20
52.106079
0
VERTEX
8
1
10
42.540733
20
52.375694
0
VERTEX
8
1
10
43.331001
20
52.360733
0
VERTEX
8
1
10
43.325897
20
52.091110
0
VERTEX
8
1
10
43.093464
20
52.095512
0
VERTEX
8
1
10
43.062862
20
50.479332
0
VERTEX
8
1
10
43.295292
20
50.474930
0
VERTEX
8
1
10
43.290188
20
50.205315
0
VERTEX
8
1
10
42.499920
20
50.220276
0
VERTEX
8
1
10
42.505024
20
50.489899
0
SEQEND
0
POLYLINE
8
1
66
1
70
1
0
VERTEX
8
1
10
44.314636
20
42.857651
42
-0.137243
0
VERTEX
8
1
10
44.725258
20
43.367069
42
-0.198124
0
VERTEX
8
1
10
45.371315
20
43.493820
42
-0.060771
0
VERTEX
8
1
10
45.635208
20
43.415359
42
-0.122849
0
VERTEX
8
1
10
45.900410
20
43.127319
42
-0.223653
0
VERTEX
8
1
10
46.004101
20
42.170467
42
-0.085840
0
VERTEX
8
1
10
45.819530
20
41.846863
42
-0.089014
0
VERTEX
8
1
10
44.658859
20
40.825417
42
0.009774
0
VERTEX
8
1
10
44.129971
20
40.480991
0
VERTEX
8
1
10
44.117592
20
40.471466
0
VERTEX
8
1
10
44.105354
20
40.461761
42
-0.018927
0
VERTEX
8
1
10
43.605591
20
40.910080
42
-0.018097
0
VERTEX
8
1
10
42.792099
20
41.714584
42
-0.074173
0
VERTEX
8
1
10
42.584167
20
42.052746
42
-0.115899
0
VERTEX
8
1
10
42.444550
20
42.709263
42
-0.199414
0
VERTEX
8
1
10
42.780865
20
43.406952
42
-0.123155
0
VERTEX
8
1
10
43.304821
20
43.620979
42
-0.148825
0
VERTEX
8
1
10
43.838825
20
43.516716
0
VERTEX
8
1
10
43.888355
20
43.490852
42
-0.072611
0
VERTEX
8
1
10
44.061096
20
43.281601
42
-0.048784
0
VERTEX
8
1
10
44.302391
20
42.827332
42
-0.012869
0
SEQEND
0
POLYLINE
8
1
66
1
70
1
0
VERTEX
8
1
10
41.414707
20
44.037971
0
VERTEX
8
1
10
41.443115
20
45.538216
0
VERTEX
8
1
10
41.227356
20
45.542305
0
VERTEX
8
1
10
41.232094
20
45.792580
0
VERTEX
8
1
10
41.965675
20
45.778687
0
VERTEX
8
1
10
41.960934
20
45.528412
0
VERTEX
8
1
10
41.745178
20
45.532494
0
VERTEX
8
1
10
41.716766
20
44.032249
0
VERTEX
8
1
10
41.932526
20
44.028168
0
VERTEX
8
1
10
41.927788
20
43.777893
0
VERTEX
8
1
10
41.194210
20
43.791779
0
VERTEX
8
1
10
41.198948
20
44.042053
0
SEQEND
0
POLYLINE
8
1
66
1
70
1
0
VERTEX
8
1
10
44.892262
20
36.619453
42
-0.137265
0
VERTEX
8
1
10
45.309135
20
37.123775
42
-0.198128
0
VERTEX
8
1
10
45.956703
20
37.242542
42
-0.060752
0
VERTEX
8
1
10
46.219608
20
37.160835
42
-0.122867
0
VERTEX
8
1
10
46.481236
20
36.869553
42
-0.223659
0
VERTEX
8
1
10
46.573120
20
35.911491
42
-0.085835
0
VERTEX
8
1
10
46.384575
20
35.590187
42
-0.088806
0
VERTEX
8
1
10
45.211575
20
34.582832
42
0.009025
0
VERTEX
8
1
10
44.678303
20
34.245251
0
VERTEX
8
1
10
44.665806
20
34.235882
0
VERTEX
8
1
10
44.653446
20
34.226334
42
-0.018904
0
VERTEX
8
1
10
44.159252
20
34.680771
42
-0.018098
0
VERTEX
8
1
10
43.355740
20
35.495262
42
-0.074178
0
VERTEX
8
1
10
43.152000
20
35.835957
42
-0.115883
0
VERTEX
8
1
10
43.020485
20
36.494144
42
-0.199404
0
VERTEX
8
1
10
43.365379
20
37.187637
42
-0.123168
0
VERTEX
8
1
10
43.891933
20
37.395184
42
-0.148803
0
VERTEX
8
1
10
44.424610
20
37.284340
0
VERTEX
8
1
10
44.473820
20
37.257866
42
-0.072582
0
VERTEX
8
1
10
44.643967
20
37.046509
42
-0.048757
0
VERTEX
8
1
10
44.879642
20
36.589287
42
-0.012653
0
SEQEND
0
POLYLINE
8
1
66
1
70
1
0
VERTEX
8
1
10
42.007107
20
37.835449
0
VERTEX
8
1
10
42.054012
20
39.335236
0
VERTEX
8
1
10
41.838322
20
39.341980
0
VERTEX
8
1
10
41.846146
20
39.592178
0
VERTEX
8
1
10
42.579498
20
39.569244
0
VERTEX
8
1
10
42.571674
20
39.319046
0
VERTEX
8
1
10
42.355984
20
39.325790
0
VERTEX
8
1
10
42.309074
20
37.826012
0
VERTEX
8
1
10
42.524765
20
37.819260
0
VERTEX
8
1
10
42.516941
20
37.569061
0
VERTEX
8
1
10
41.783588
20
37.592003
0
VERTEX
8
1
10
41.791416
20
37.842201
0
SEQEND
0
POLYLINE
8
1
66
1
70
1
0
VERTEX
8
1
10
46.139961
20
30.621437
42
-0.137247
0
VERTEX
8
1
10
46.522137
20
31.152533
42
-0.198118
0
VERTEX
8
1
10
47.160309
20
31.314383
42
-0.060763
0
VERTEX
8
1
10
47.428093
20
31.250450
42
-0.122843
0
VERTEX
8
1
10
47.708637
20
30.977341
42
-0.223649
0
VERTEX
8
1
10
47.864449
20
30.027582
42
-0.085850
0
VERTEX
8
1
10
47.697834
20
29.694374
42
-0.088810
0
VERTEX
8
1
10
46.594902
20
28.610760
42
0.009037
0
VERTEX
8
1
10
46.085423
20
28.238230
0
VERTEX
8
1
10
46.073582
20
28.228045
0
VERTEX
8
1
10
46.061890
20
28.217690
42
-0.018924
0
VERTEX
8
1
10
45.538376
20
28.638033
42
-0.018104
0
VERTEX
8
1
10
44.682148
20
29.396898
42
-0.074182
0
VERTEX
8
1
10
44.456055
20
29.723188
42
-0.115897
0
VERTEX
8
1
10
44.280777
20
30.371096
42
-0.199411
0
VERTEX
8
1
10
44.578472
20
31.086128
42
-0.123149
0
VERTEX
8
1
10
45.089951
20
31.328453
42
-0.148831
0
VERTEX
8
1
10
45.628853
20
31.253517
0
VERTEX
8
1
10
45.679722
20
31.230392
42
-0.072670
0
VERTEX
8
1
10
45.863636
20
31.030899
42
-0.048807
0
VERTEX
8
1
10
46.129391
20
30.590492
42
-0.012211
0
SEQEND
0
POLYLINE
8
1
66
1
70
1
0
VERTEX
8
1
10
43.179878
20
31.641556
0
VERTEX
8
1
10
43.126278
20
33.141113
0
VERTEX
8
1
10
42.910618
20
33.133408
0
VERTEX
8
1
10
42.901676
20
33.383568
0
VERTEX
8
1
10
43.634922
20
33.409775
0
VERTEX
8
1
10
43.643860
20
33.159615
0
VERTEX
8
1
10
43.428204
20
33.151909
0
VERTEX
8
1
10
43.481800
20
31.652351
0
VERTEX
8
1
10
43.697460
20
31.660057
0
VERTEX
8
1
10
43.706402
20
31.409897
0
VERTEX
8
1
10
42.973160
20
31.383690
0
VERTEX
8
1
10
42.964218
20
31.633850
0
SEQEND
0
POLYLINE
8
1
66
1
70
1
0
VERTEX
8
1
10
54.574715
20
48.723488
42
-0.132906
0
VERTEX
8
1
10
55.030239
20
49.308468
42
-0.200640
0
VERTEX
8
1
10
55.786175
20
49.474842
42
-0.053080
0
VERTEX
8
1
10
56.077724
20
49.398033
0
VERTEX
8
1
10
56.106461
20
49.383736
42
-0.115576
0
VERTEX
8
1
10
56.398426
20
49.080086
42
-0.189253
0
VERTEX
8
1
10
56.596786
20
48.122726
42
-0.130347
0
VERTEX
8
1
10
56.311897
20
47.528404
42
-0.069498
0
VERTEX
8
1
10
55.252831
20
46.519627
42
0.007439
0
VERTEX
8
1
10
54.408863
20
45.961380
0
VERTEX
8
1
10
54.388626
20
45.945866
0
VERTEX
8
1
10
54.368698
20
45.929962
0
VERTEX
8
1
10
54.345783
20
45.940132
42
-0.016367
0
VERTEX
8
1
10
53.821068
20
46.398834
42
-0.015719
0
VERTEX
8
1
10
52.838432
20
47.340271
42
-0.076870
0
VERTEX
8
1
10
52.579494
20
47.735584
42
-0.115602
0
VERTEX
8
1
10
52.397125
20
48.505402
42
-0.181581
0
VERTEX
8
1
10
52.707180
20
49.260765
0
VERTEX
8
1
10
52.778896
20
49.334900
42
-0.119692
0
VERTEX
8
1
10
53.376953
20
49.590672
42
-0.169196
0
VERTEX
8
1
10
54.078251
20
49.439484
42
-0.066050
0
VERTEX
8
1
10
54.286861
20
49.184288
42
-0.045985
0
VERTEX
8
1
10
54.558887
20
48.683350
42
-0.013020
0
SEQEND
0
POLYLINE
8
1
66
1
70
1
0
VERTEX
8
1
10
51.179340
20
50.049454
0
VERTEX
8
1
10
51.190445
20
51.796280
0
VERTEX
8
1
10
50.939224
20
51.797874
0
VERTEX
8
1
10
50.941078
20
52.089287
0
VERTEX
8
1
10
51.795227
20
52.083862
0
VERTEX
8
1
10
51.793373
20
51.792450
0
VERTEX
8
1
10
51.542152
20
51.794044
0
VERTEX
8
1
10
51.531048
20
50.047218
0
VERTEX
8
1
10
51.782269
20
50.045624
0
VERTEX
8
1
10
51.780415
20
49.754211
0
VERTEX
8
1
10
50.926266
20
49.759644
0
VERTEX
8
1
10
50.928120
20
50.051056
0
SEQEND
0
POLYLINE
8
1
66
1
70
1
0
VERTEX
8
1
10
55.176758
20
37.866081
42
-0.141119
0
VERTEX
8
1
10
55.595490
20
38.411148
42
-0.195420
0
VERTEX
8
1
10
56.247925
20
38.551842
42
-0.053038
0
VERTEX
8
1
10
56.502651
20
38.486801
42
-0.108291
0
VERTEX
8
1
10
56.689377
20
38.334469
42
-0.234035
0
VERTEX
8
1
10
56.962818
20
37.326832
42
-0.122166
0
VERTEX
8
1
10
56.720036
20
36.833595
42
-0.071574
0
VERTEX
8
1
10
55.771812
20
35.917862
42
0.009321
0
VERTEX
8
1
10
55.052734
20
35.428299
0
VERTEX
8
1
10
55.033375
20
35.412659
0
VERTEX
8
1
10
55.018021
20
35.413177
42
-0.017868
0
VERTEX
8
1
10
54.495052
20
35.859879
42
-0.017486
0
VERTEX
8
1
10
53.649227
20
36.654545
42
-0.073507
0
VERTEX
8
1
10
53.429356
20
36.988567
42
-0.111353
0
VERTEX
8
1
10
53.262466
20
37.643120
42
-0.212759
0
VERTEX
8
1
10
53.605019
20
38.406143
42
-0.150382
0
VERTEX
8
1
10
54.218529
20
38.636448
42
-0.131976
0
VERTEX
8
1
10
54.726631
20
38.509117
42
-0.070964
0
VERTEX
8
1
10
54.907234
20
38.300751
42
-0.045669
0
VERTEX
8
1
10
55.167843
20
37.842194
0
SEQEND
0
POLYLINE
8
1
66
1
70
1
0
VERTEX
8
1
10
52.171360
20
39.007729
0
VERTEX
8
1
10
52.161472
20
40.548508
0
VERTEX
8
1
10
51.939884
20
40.547089
0
VERTEX
8
1
10
51.938232
20
40.804123
0
VERTEX
8
1
10
52.691631
20
40.808960
0
VERTEX
8
1
10
52.693279
20
40.551918
0
VERTEX
8
1
10
52.471695
20
40.550499
0
VERTEX
8
1
10
52.481583
20
39.009720
0
VERTEX
8
1
10
52.703171
20
39.011147
0
VERTEX
8
1
10
52.704819
20
38.754105
0
VERTEX
8
1
10
51.951420
20
38.749268
0
VERTEX
8
1
10
51.949772
20
39.006310
0
SEQEND
0
POLYLINE
8
1
66
1
70
1
0
VERTEX
8
1
10
49.509686
20
16.846657
42
-0.101610
0
VERTEX
8
1
10
50.450016
20
18.006310
42
-0.212808
0
VERTEX
8
1
10
52.432518
20
18.545483
42
-0.069965
0
VERTEX
8
1
10
53.371841
20
18.273857
0
VERTEX
8
1
10
53.415398
20
18.251022
42
-0.090535
0
VERTEX
8
1
10
53.853149
20
17.852104
42
-0.181812
0
VERTEX
8
1
10
54.597023
20
15.518659
42
-0.131224
0
VERTEX
8
1
10
54.071655
20
13.961296
0
VERTEX
8
1
10
53.987553
20
13.837151
42
-0.038733
0
VERTEX
8
1
10
52.720448
20
12.509518
42
-0.045957
0
VERTEX
8
1
10
50.852180
20
11.088550
0
VERTEX
8
1
10
50.719646
20
11.009147
42
0.002777
0
VERTEX
8
1
10
48.806686
20
9.909709
42
0.020148
0
VERTEX
8
1
10
48.533264
20
9.728745
0
VERTEX
8
1
10
48.488239
20
9.762278
42
-0.014151
0
VERTEX
8
1
10
47.522449
20
10.700196
42
-0.013234
0
VERTEX
8
1
10
45.061012
20
13.317122
42
-0.016708
0
VERTEX
8
1
10
44.728420
20
13.724626
42
-0.112850
0
VERTEX
8
1
10
43.940464
20
15.826684
42
-0.099208
0
VERTEX
8
1
10
44.041328
20
17.136049
42
-0.124324
0
VERTEX
8
1
10
44.782841
20
18.375551
42
-0.036577
0
VERTEX
8
1
10
45.044231
20
18.611526
42
-0.080758
0
VERTEX
8
1
10
46.172157
20
19.095718
42
-0.161683
0
VERTEX
8
1
10
47.823437
20
18.938107
42
-0.041332
0
VERTEX
8
1
10
48.305904
20
18.685959
42
-0.058568
0
VERTEX
8
1
10
48.626320
20
18.292908
42
-0.058490
0
VERTEX
8
1
10
49.429783
20
16.679993
42
-0.018767
0
SEQEND
0
POLYLINE
8
1
66
1
70
1
0
VERTEX
8
1
10
41.071594
20
20.641647
0
VERTEX
8
1
10
41.357712
20
25.064926
0
VERTEX
8
1
10
40.721577
20
25.106071
0
VERTEX
8
1
10
40.769306
20
25.843979
0
VERTEX
8
1
10
42.932167
20
25.704079
0
VERTEX
8
1
10
42.884438
20
24.966164
0
VERTEX
8
1
10
42.248302
20
25.007317
0
VERTEX
8
1
10
41.962185
20
20.584038
0
VERTEX
8
1
10
42.598320
20
20.542892
0
VERTEX
8
1
10
42.550587
20
19.804985
0
VERTEX
8
1
10
40.387726
20
19.944885
0
VERTEX
8
1
10
40.435459
20
20.682793
0
SEQEND
0
POLYLINE
8
1
66
1
70
1
0
VERTEX
8
1
10
49.127380
20
24.014885
42
-0.139951
0
VERTEX
8
1
10
49.575504
20
24.558722
42
-0.205342
0
VERTEX
8
1
10
50.286217
20
24.675077
42
-0.050077
0
VERTEX
8
1
10
50.525124
20
24.598839
42
-0.123976
0
VERTEX
8
1
10
50.793331
20
24.311966
42
-0.201355
0
VERTEX
8
1
10
50.939980
20
23.390364
42
-0.120722
0
VERTEX
8
1
10
50.673721
20
22.900192
42
-0.086956
0
VERTEX
8
1
10
49.459877
20
21.873413
42
0.009468
0
VERTEX
8
1
10
48.911354
20
21.527470
0
VERTEX
8
1
10
48.896454
20
21.516533
0
VERTEX
8
1
10
48.881718
20
21.505379
0
VERTEX
8
1
10
48.860096
20
21.515671
42
-0.017189
0
VERTEX
8
1
10
48.162197
20
22.170410
42
-0.019069
0
VERTEX
8
1
10
47.492836
20
22.862267
42
-0.142865
0
VERTEX
8
1
10
47.155056
20
23.771488
42
-0.204751
0
VERTEX
8
1
10
47.452290
20
24.557739
0
VERTEX
8
1
10
47.522259
20
24.626640
42
-0.143298
0
VERTEX
8
1
10
48.145721
20
24.848701
42
-0.142848
0
VERTEX
8
1
10
48.694973
20
24.696335
42
-0.069347
0
VERTEX
8
1
10
48.869900
20
24.477287
42
-0.048071
0
VERTEX
8
1
10
49.118977
20
23.994476
0
SEQEND
0
POLYLINE
8
1
66
1
70
1
0
VERTEX
8
1
10
46.090492
20
25.311691
0
VERTEX
8
1
10
46.141922
20
26.893501
0
VERTEX
8
1
10
45.914433
20
26.900894
0
VERTEX
8
1
10
45.923012
20
27.164780
0
VERTEX
8
1
10
46.696476
20
27.139633
0
VERTEX
8
1
10
46.687897
20
26.875748
0
VERTEX
8
1
10
46.460407
20
26.883148
0
VERTEX
8
1
10
46.408974
20
25.301338
0
VERTEX
8
1
10
46.636463
20
25.293938
0
VERTEX
8
1
10
46.627884
20
25.030052
0
VERTEX
8
1
10
45.854420
20
25.055206
0
VERTEX
8
1
10
45.863003
20
25.319084
0
SEQEND
0
POLYLINE
8
1
66
1
70
1
0
VERTEX
8
1
10
57.962093
20
31.136536
42
-0.141725
0
VERTEX
8
1
10
58.456123
20
31.771658
42
-0.179739
0
VERTEX
8
1
10
59.149418
20
31.937511
42
-0.067234
0
VERTEX
8
1
10
59.511753
20
31.851479
42
-0.100793
0
VERTEX
8
1
10
59.711525
20
31.689440
42
-0.227700
0
VERTEX
8
1
10
60.050945
20
30.548523
42
-0.126822
0
VERTEX
8
1
10
59.777660
20
29.951851
42
-0.087523
0
VERTEX
8
1
10
58.439350
20
28.717703
42
0.008560
0
VERTEX
8
1
10
57.816418
20
28.290152
0
VERTEX
8
1
10
57.801636
20
28.278233
0
VERTEX
8
1
10
57.787037
20
28.266090
0
VERTEX
8
1
10
57.756420
20
28.285828
0
VERTEX
8
1
10
57.609848
20
28.406111
0
VERTEX
8
1
10
57.464794
20
28.528227
42
-0.016545
0
VERTEX
8
1
10
56.231133
20
29.665176
42
-0.080869
0
VERTEX
8
1
10
55.956608
20
30.042839
42
-0.117457
0
VERTEX
8
1
10
55.728409
20
30.860687
42
-0.214341
0
VERTEX
8
1
10
56.126423
20
31.759422
42
-0.121082
0
VERTEX
8
1
10
56.735149
20
32.020599
42
-0.147542
0
VERTEX
8
1
10
57.371304
20
31.912193
42
-0.130095
0
VERTEX
8
1
10
57.481449
20
31.837835
42
-0.055554
0
VERTEX
8
1
10
57.662075
20
31.613846
42
-0.046204
0
VERTEX
8
1
10
57.948704
20
31.100800
42
-0.011957
0
SEQEND
0
POLYLINE
8
1
66
1
70
1
0
VERTEX
8
1
10
54.456539
20
32.461578
0
VERTEX
8
1
10
54.445011
20
34.257614
0
VERTEX
8
1
10
54.186714
20
34.255959
0
VERTEX
8
1
10
54.184792
20
34.555580
0
VERTEX
8
1
10
55.063004
20
34.561211
0
VERTEX
8
1
10
55.064926
20
34.261589
0
VERTEX
8
1
10
54.806629
20
34.259933
0
VERTEX
8
1
10
54.818153
20
32.463905
0
VERTEX
8
1
10
55.076450
20
32.465561
0
VERTEX
8
1
10
55.078373
20
32.165939
0
VERTEX
8
1
10
54.200165
20
32.160301
0
VERTEX
8
1
10
54.198242
20
32.459923
0
SEQEND
0
POLYLINE
8
1
66
1
70
1
0
VERTEX
8
1
10
58.507328
20
22.807831
42
-0.137297
0
VERTEX
8
1
10
58.928230
20
23.399708
42
-0.202340
0
VERTEX
8
1
10
59.646004
20
23.580530
42
-0.051131
0
VERTEX
8
1
10
59.913445
20
23.519875
42
-0.106548
0
VERTEX
8
1
10
60.109936
20
23.371765
42
-0.239810
0
VERTEX
8
1
10
60.443535
20
22.274422
42
-0.118393
0
VERTEX
8
1
10
60.204380
20
21.754097
42
-0.072093
0
VERTEX
8
1
10
59.208378
20
20.732267
42
0.008575
0
VERTEX
8
1
10
58.461586
20
20.191494
0
VERTEX
8
1
10
58.446884
20
20.179138
0
VERTEX
8
1
10
58.432358
20
20.166580
0
VERTEX
8
1
10
58.416409
20
20.166641
42
-0.017322
0
VERTEX
8
1
10
57.889191
20
20.588707
42
-0.017818
0
VERTEX
8
1
10
56.901997
20
21.460245
42
-0.071330
0
VERTEX
8
1
10
56.664146
20
21.796926
42
-0.118359
0
VERTEX
8
1
10
56.456432
20
22.535738
42
-0.206442
0
VERTEX
8
1
10
56.799950
20
23.339500
42
-0.128831
0
VERTEX
8
1
10
57.382023
20
23.600842
42
-0.152119
0
VERTEX
8
1
10
58.003227
20
23.486717
42
-0.072171
0
VERTEX
8
1
10
58.215725
20
23.252853
42
-0.044286
0
VERTEX
8
1
10
58.499115
20
22.783531
0
SEQEND
0
POLYLINE
8
1
66
1
70
1
0
VERTEX
8
1
10
55.239502
20
23.940750
0
VERTEX
8
1
10
55.179367
20
25.597275
0
VERTEX
8
1
10
54.941135
20
25.588631
0
VERTEX
8
1
10
54.931103
20
25.864975
0
VERTEX
8
1
10
55.741100
20
25.894379
0
VERTEX
8
1
10
55.751129
20
25.618034
0
VERTEX
8
1
10
55.512897
20
25.609383
0
VERTEX
8
1
10
55.573029
20
23.952858
0
VERTEX
8
1
10
55.811264
20
23.961502
0
VERTEX
8
1
10
55.821297
20
23.685158
0
VERTEX
8
1
10
55.011299
20
23.655754
0
VERTEX
8
1
10
55.001270
20
23.932098
0
SEQEND
0
POLYLINE
8
1
66
1
70
1
0
VERTEX
8
1
10
58.336063
20
16.809052
42
-0.158578
0
VERTEX
8
1
10
58.674507
20
17.228504
42
-0.191593
0
VERTEX
8
1
10
59.148746
20
17.297977
42
-0.047918
0
VERTEX
8
1
10
59.299370
20
17.252205
0
VERTEX
8
1
10
59.323849
20
17.237267
0
VERTEX
8
1
10
59.349617
20
17.218140
42
-0.305275
0
VERTEX
8
1
10
59.582081
20
16.319738
42
-0.083256
0
VERTEX
8
1
10
59.447964
20
16.086853
42
-0.089649
0
VERTEX
8
1
10
58.602535
20
15.312157
42
0.019748
0
VERTEX
8
1
10
58.235756
20
15.056747
42
-0.020398
0
VERTEX
8
1
10
57.568199
20
15.638962
42
-0.026116
0
VERTEX
8
1
10
57.218922
20
15.979996
42
-0.143296
0
VERTEX
8
1
10
56.972088
20
16.608967
42
-0.220266
0
VERTEX
8
1
10
57.203491
20
17.188507
42
-0.155558
0
VERTEX
8
1
10
57.658787
20
17.362041
42
-0.128458
0
VERTEX
8
1
10
58.013710
20
17.273033
42
-0.073993
0
VERTEX
8
1
10
58.138336
20
17.132164
42
-0.050801
0
VERTEX
8
1
10
58.331055
20
16.795174
0
SEQEND
0
POLYLINE
8
1
66
1
70
1
0
VERTEX
8
1
10
56.188770
20
17.622749
0
VERTEX
8
1
10
56.178417
20
18.723259
0
VERTEX
8
1
10
56.020149
20
18.721771
0
VERTEX
8
1
10
56.018421
20
18.905357
0
VERTEX
8
1
10
56.556538
20
18.910423
0
VERTEX
8
1
10
56.558266
20
18.726830
0
VERTEX
8
1
10
56.399994
20
18.725342
0
VERTEX
8
1
10
56.410347
20
17.624840
0
VERTEX
8
1
10
56.568615
20
17.626328
0
VERTEX
8
1
10
56.570343
20
17.442734
0
VERTEX
8
1
10
56.032227
20
17.437675
0
VERTEX
8
1
10
56.030499
20
17.621262
0
SEQEND
0
POLYLINE
8
1
66
1
70
1
0
VERTEX
8
1
10
63.624592
20
19.483017
42
-0.154607
0
VERTEX
8
1
10
63.981762
20
19.933683
42
-0.186523
0
VERTEX
8
1
10
64.474152
20
20.022932
42
-0.057427
0
VERTEX
8
1
10
64.672775
20
19.967209
0
VERTEX
8
1
10
64.698265
20
19.951859
0
VERTEX
8
1
10
64.725098
20
19.932289
42
-0.289897
0
VERTEX
8
1
10
64.998474
20
19.001581
42
-0.097218
0
VERTEX
8
1
10
64.838600
20
18.701874
42
-0.086213
0
VERTEX
8
1
10
63.961712
20
17.885849
42
0.018138
0
VERTEX
8
1
10
63.515820
20
17.576401
42
-0.020166
0
VERTEX
8
1
10
62.817585
20
18.183914
42
-0.024226
0
VERTEX
8
1
10
62.408764
20
18.581551
42
-0.143734
0
VERTEX
8
1
10
62.139343
20
19.270555
42
-0.218026
0
VERTEX
8
1
10
62.391956
20
19.897285
42
-0.146375
0
VERTEX
8
1
10
62.864742
20
20.085480
42
-0.138273
0
VERTEX
8
1
10
63.274075
20
19.989319
42
-0.079620
0
VERTEX
8
1
10
63.439465
20
19.793312
42
-0.044707
0
VERTEX
8
1
10
63.619572
20
19.469063
0
SEQEND
0
POLYLINE
8
1
66
1
70
1
0
VERTEX
8
1
10
61.287220
20
20.370064
0
VERTEX
8
1
10
61.275944
20
21.568214
0
VERTEX
8
1
10
61.103634
20
21.566589
0
VERTEX
8
1
10
61.101757
20
21.766472
0
VERTEX
8
1
10
61.687611
20
21.771980
0
VERTEX
8
1
10
61.689495
20
21.572105
0
VERTEX
8
1
10
61.517185
20
21.570480
0
VERTEX
8
1
10
61.528454
20
20.372337
0
VERTEX
8
1
10
61.700764
20
20.373955
0
VERTEX
8
1
10
61.702648
20
20.174080
0
VERTEX
8
1
10
61.116787
20
20.168564
0
VERTEX
8
1
10
61.114902
20
20.368446
0
SEQEND
0
POLYLINE
8
1
66
1
70
1
0
VERTEX
8
1
10
68.738922
20
20.387192
42
-0.140171
0
VERTEX
8
1
10
69.125664
20
20.893423
42
-0.194464
0
VERTEX
8
1
10
69.726776
20
21.028360
42
-0.055162
0
VERTEX
8
1
10
69.972153
20
20.967293
42
-0.109301
0
VERTEX
8
1
10
70.152039
20
20.819565
42
-0.228222
0
VERTEX
8
1
10
70.406464
20
19.900515
42
-0.117028
0
VERTEX
8
1
10
70.205254
20
19.462715
42
-0.089660
0
VERTEX
8
1
10
69.111046
20
18.446959
42
0.008550
0
VERTEX
8
1
10
68.640152
20
18.122326
0
VERTEX
8
1
10
68.625862
20
18.111023
0
VERTEX
8
1
10
68.611740
20
18.099518
0
VERTEX
8
1
10
68.596893
20
18.099983
42
-0.018666
0
VERTEX
8
1
10
68.045586
20
18.570518
42
-0.020260
0
VERTEX
8
1
10
67.297676
20
19.275742
42
-0.141571
0
VERTEX
8
1
10
66.958527
20
20.081753
42
-0.234993
0
VERTEX
8
1
10
67.272926
20
20.884605
42
-0.158089
0
VERTEX
8
1
10
67.868355
20
21.100964
42
-0.124892
0
VERTEX
8
1
10
68.317162
20
20.983246
42
-0.071922
0
VERTEX
8
1
10
68.492592
20
20.780190
42
-0.044192
0
VERTEX
8
1
10
68.730057
20
20.363319
0
SEQEND
0
POLYLINE
8
1
66
1
70
1
0
VERTEX
8
1
10
65.935066
20
21.440720
0
VERTEX
8
1
10
65.921562
20
22.876167
0
VERTEX
8
1
10
65.715118
20
22.874222
0
VERTEX
8
1
10
65.712868
20
23.113693
0
VERTEX
8
1
10
66.414764
20
23.120293
0
VERTEX
8
1
10
66.417015
20
22.880829
0
VERTEX
8
1
10
66.210579
20
22.878883
0
VERTEX
8
1
10
66.224083
20
21.443436
0
VERTEX
8
1
10
66.430519
20
21.445381
0
VERTEX
8
1
10
66.432770
20
21.205910
0
VERTEX
8
1
10
65.730873
20
21.199310
0
VERTEX
8
1
10
65.728622
20
21.438774
0
SEQEND
0
POLYLINE
8
1
66
1
70
1
0
VERTEX
8
1
10
74.118401
20
21.101463
42
-0.137303
0
VERTEX
8
1
10
74.427696
20
21.680277
42
-0.198109
0
VERTEX
8
1
10
75.040596
20
21.926073
42
-0.060770
0
VERTEX
8
1
10
75.315323
20
21.898132
42
-0.122856
0
VERTEX
8
1
10
75.630547
20
21.663929
42
-0.223977
0
VERTEX
8
1
10
75.911530
20
20.739466
42
-0.095278
0
VERTEX
8
1
10
75.766693
20
20.342171
42
-0.085621
0
VERTEX
8
1
10
74.838097
20
19.163055
42
0.009035
0
VERTEX
8
1
10
74.381149
20
18.724951
0
VERTEX
8
1
10
74.370735
20
18.713251
0
VERTEX
8
1
10
74.360489
20
18.701401
42
-0.018938
0
VERTEX
8
1
10
73.784134
20
19.049652
42
-0.017903
0
VERTEX
8
1
10
72.832626
20
19.689501
0
VERTEX
8
1
10
72.795113
20
19.720911
42
-0.156431
0
VERTEX
8
1
10
72.310204
20
20.562025
42
-0.210838
0
VERTEX
8
1
10
72.504227
20
21.355751
42
-0.123143
0
VERTEX
8
1
10
72.980492
20
21.664686
42
-0.148836
0
VERTEX
8
1
10
73.526199
20
21.661865
0
VERTEX
8
1
10
73.579849
20
21.645653
42
-0.072533
0
VERTEX
8
1
10
73.789223
20
21.471786
42
-0.048769
0
VERTEX
8
1
10
74.112000
20
21.069290
42
-0.012566
0
SEQEND
0
POLYLINE
8
1
66
1
70
1
0
VERTEX
8
1
10
71.039940
20
21.721916
0
VERTEX
8
1
10
70.787209
20
23.205566
0
VERTEX
8
1
10
70.573837
20
23.169220
0
VERTEX
8
1
10
70.531677
20
23.416733
0
VERTEX
8
1
10
71.257141
20
23.540306
0
VERTEX
8
1
10
71.299301
20
23.292801
0
VERTEX
8
1
10
71.085930
20
23.256454
0
VERTEX
8
1
10
71.338661
20
21.772797
0
VERTEX
8
1
10
71.552040
20
21.809143
0
VERTEX
8
1
10
71.594200
20
21.561638
0
VERTEX
8
1
10
70.868736
20
21.438057
0
VERTEX
8
1
10
70.826569
20
21.685562
0
SEQEND
0
POLYLINE
8
1
66
1
70
1
0
VERTEX
8
1
10
79.360985
20
10.375717
42
-0.154593
0
VERTEX
8
1
10
79.680099
20
10.854081
42
-0.186536
0
VERTEX
8
1
10
80.163528
20
10.983309
42
-0.057441
0
VERTEX
8
1
10
80.366043
20
10.944016
0
VERTEX
8
1
10
80.392708
20
10.930809
0
VERTEX
8
1
10
80.421036
20
10.913498
42
-0.288807
0
VERTEX
8
1
10
80.770386
20
10.011559
42
-0.095320
0
VERTEX
8
1
10
80.641357
20
9.706932
42
-0.090956
0
VERTEX
8
1
10
79.768829
20
8.764450
42
0.020385
0
VERTEX
8
1
10
79.408539
20
8.466591
42
-0.020158
0
VERTEX
8
1
10
78.662949
20
9.014960
42
-0.024205
0
VERTEX
8
1
10
78.222969
20
9.377823
42
-0.143721
0
VERTEX
8
1
10
77.898094
20
10.042474
42
-0.218048
0
VERTEX
8
1
10
78.098602
20
10.687775
42
-0.146379
0
VERTEX
8
1
10
78.554398
20
10.914004
42
-0.138314
0
VERTEX
8
1
10
78.970215
20
10.851654
42
-0.079638
0
VERTEX
8
1
10
79.151093
20
10.669830
42
-0.044703
0
VERTEX
8
1
10
79.357124
20
10.361397
0
SEQEND
0
POLYLINE
8
1
66
1
70
1
0
VERTEX
8
1
10
76.958885
20
11.068604
0
VERTEX
8
1
10
76.849648
20
12.261810
0
VERTEX
8
1
10
76.678047
20
12.246101
0
VERTEX
8
1
10
76.659821
20
12.445152
0
VERTEX
8
1
10
77.243263
20
12.498566
0
VERTEX
8
1
10
77.261490
20
12.299515
0
VERTEX
8
1
10
77.089890
20
12.283806
0
VERTEX
8
1
10
77.199127
20
11.090591
0
VERTEX
8
1
10
77.370728
20
11.106308
0
VERTEX
8
1
10
77.388954
20
10.907249
0
VERTEX
8
1
10
76.805504
20
10.853836
0
VERTEX
8
1
10
76.787285
20
11.052895
0
SEQEND
0
POLYLINE
8
1
66
1
70
1
0
VERTEX
8
1
10
78.180161
20
23.052467
42
-0.154624
0
VERTEX
8
1
10
78.537323
20
23.503122
42
-0.186570
0
VERTEX
8
1
10
79.029709
20
23.592373
42
-0.057439
0
VERTEX
8
1
10
79.228333
20
23.536652
0
VERTEX
8
1
10
79.253822
20
23.521301
0
VERTEX
8
1
10
79.280647
20
23.501747
42
-0.289899
0
VERTEX
8
1
10
79.554031
20
22.571024
42
-0.097218
0
VERTEX
8
1
10
79.394157
20
22.271317
42
-0.089999
0
VERTEX
8
1
10
78.454834
20
21.413223
42
0.020367
0
VERTEX
8
1
10
78.071381
20
21.145844
42
-0.020174
0
VERTEX
8
1
10
77.373146
20
21.753365
42
-0.024226
0
VERTEX
8
1
10
76.964325
20
22.151001
42
-0.143712
0
VERTEX
8
1
10
76.694901
20
22.840000
42
-0.218032
0
VERTEX
8
1
10
76.947517
20
23.466736
42
-0.146375
0
VERTEX
8
1
10
77.420296
20
23.654924
42
-0.138289
0
VERTEX
8
1
10
77.829636
20
23.558769
42
-0.072481
0
VERTEX
8
1
10
77.975014
20
23.391731
42
-0.048899
0
VERTEX
8
1
10
78.175133
20
23.038506
0
SEQEND
0
POLYLINE
8
1
66
1
70
1
0
VERTEX
8
1
10
75.842773
20
23.939514
0
VERTEX
8
1
10
75.831505
20
25.137657
0
VERTEX
8
1
10
75.659195
20
25.136032
0
VERTEX
8
1
10
75.657310
20
25.335915
0
VERTEX
8
1
10
76.243172
20
25.341423
0
VERTEX
8
1
10
76.245056
20
25.141548
0
VERTEX
8
1
10
76.072739
20
25.139923
0
VERTEX
8
1
10
76.084015
20
23.941780
0
VERTEX
8
1
10
76.256325
20
23.943398
0
VERTEX
8
1
10
76.258202
20
23.743523
0
VERTEX
8
1
10
75.672340
20
23.738014
0
VERTEX
8
1
10
75.670464
20
23.937889
0
SEQEND
0
POLYLINE
8
1
66
1
70
1
0
VERTEX
8
1
10
81.024353
20
26.939346
42
-0.149010
0
VERTEX
8
1
10
81.298500
20
27.414087
42
-0.189230
0
VERTEX
8
1
10
81.762039
20
27.576298
42
-0.058611
0
VERTEX
8
1
10
81.972481
20
27.549782
42
-0.134539
0
VERTEX
8
1
10
82.242416
20
27.326639
42
-0.276992
0
VERTEX
8
1
10
82.353096
20
26.441353
42
-0.083082
0
VERTEX
8
1
10
81.657738
20
25.532623
0
VERTEX
8
1
10
81.437706
20
25.338058
42
0.023845
0
VERTEX
8
1
10
81.166924
20
25.089699
0
VERTEX
8
1
10
81.147003
20
25.095261
42
-0.019576
0
VERTEX
8
1
10
80.389595
20
25.599312
42
-0.024613
0
VERTEX
8
1
10
79.967377
20
25.914139
42
-0.143265
0
VERTEX
8
1
10
79.616066
20
26.544304
42
-0.219817
0
VERTEX
8
1
10
79.779701
20
27.189156
42
-0.148303
0
VERTEX
8
1
10
80.218216
20
27.432484
42
-0.138417
0
VERTEX
8
1
10
80.625259
20
27.388710
42
-0.078254
0
VERTEX
8
1
10
80.818306
20
27.208897
42
-0.040333
0
VERTEX
8
1
10
81.022820
20
26.932053
0
SEQEND
0
POLYLINE
8
1
66
1
70
1
0
VERTEX
8
1
10
78.650024
20
27.505981
0
VERTEX
8
1
10
78.486382
20
28.664360
0
VERTEX
8
1
10
78.319786
20
28.640831
0
VERTEX
8
1
10
78.292488
20
28.834076
0
VERTEX
8
1
10
78.858910
20
28.914093
0
VERTEX
8
1
10
78.886208
20
28.720848
0
VERTEX
8
1
10
78.719612
20
28.697311
0
VERTEX
8
1
10
78.883255
20
27.538925
0
VERTEX
8
1
10
79.049850
20
27.562462
0
VERTEX
8
1
10
79.077148
20
27.369217
0
VERTEX
8
1
10
78.510727
20
27.289200
0
VERTEX
8
1
10
78.483429
20
27.482445
0
SEQEND
0
POLYLINE
8
1
66
1
70
1
0
VERTEX
8
1
10
67.576149
20
25.640038
42
-0.159488
0
VERTEX
8
1
10
67.826157
20
26.006037
42
-0.199084
0
VERTEX
8
1
10
68.223808
20
26.092060
0
VERTEX
8
1
10
68.261368
20
26.085701
42
-0.184720
0
VERTEX
8
1
10
68.439514
20
25.991350
42
-0.381549
0
VERTEX
8
1
10
68.516235
20
25.096977
42
-0.087638
0
VERTEX
8
1
10
67.873672
20
24.424034
42
0.022132
0
VERTEX
8
1
10
67.605713
20
24.206306
0
VERTEX
8
1
10
67.588417
20
24.212234
42
-0.023618
0
VERTEX
8
1
10
66.732964
20
24.877197
42
-0.166359
0
VERTEX
8
1
10
66.468880
20
25.437597
42
-0.202485
0
VERTEX
8
1
10
66.626808
20
25.884857
42
-0.178850
0
VERTEX
8
1
10
67.033676
20
26.057154
42
-0.108603
0
VERTEX
8
1
10
67.287773
20
26.001793
42
-0.082072
0
VERTEX
8
1
10
67.429955
20
25.853058
42
-0.039371
0
VERTEX
8
1
10
67.574181
20
25.632889
0
SEQEND
0
POLYLINE
8
1
66
1
70
1
0
VERTEX
8
1
10
65.769531
20
26.178154
0
VERTEX
8
1
10
65.693626
20
27.078407
0
VERTEX
8
1
10
65.564156
20
27.067490
0
VERTEX
8
1
10
65.551491
20
27.217674
0
VERTEX
8
1
10
65.991692
20
27.254791
0
VERTEX
8
1
10
66.004356
20
27.104607
0
VERTEX
8
1
10
65.874886
20
27.093689
0
VERTEX
8
1
10
65.950790
20
26.193436
0
VERTEX
8
1
10
66.080261
20
26.204353
0
VERTEX
8
1
10
66.092926
20
26.054169
0
VERTEX
8
1
10
65.652725
20
26.017059
0
VERTEX
8
1
10
65.640060
20
26.167236
0
SEQEND
0
POLYLINE
8
1
66
1
70
1
0
VERTEX
8
1
10
71.739418
20
29.947426
42
-0.152224
0
VERTEX
8
1
10
72.020691
20
30.363592
42
-0.182235
0
VERTEX
8
1
10
72.436516
20
30.478004
42
-0.079331
0
VERTEX
8
1
10
72.642281
20
30.433800
0
VERTEX
8
1
10
72.668198
20
30.418800
42
-0.309833
0
VERTEX
8
1
10
72.967598
20
29.570620
42
-0.084773
0
VERTEX
8
1
10
72.853859
20
29.333344
42
-0.088022
0
VERTEX
8
1
10
72.119179
20
28.549297
42
0.014876
0
VERTEX
8
1
10
71.768776
20
28.262604
0
VERTEX
8
1
10
71.737244
20
28.283524
42
-0.022562
0
VERTEX
8
1
10
70.755447
20
29.047798
42
-0.161395
0
VERTEX
8
1
10
70.445236
20
29.682543
42
-0.210542
0
VERTEX
8
1
10
70.628113
20
30.228882
42
-0.159829
0
VERTEX
8
1
10
71.061241
20
30.428482
42
-0.129071
0
VERTEX
8
1
10
71.403786
20
30.363586
42
-0.077186
0
VERTEX
8
1
10
71.559067
20
30.201973
42
-0.044164
0
VERTEX
8
1
10
71.735443
20
29.933212
0
SEQEND
0
POLYLINE
8
1
66
1
70
1
0
VERTEX
8
1
10
69.625854
20
30.571785
0
VERTEX
8
1
10
69.537109
20
31.624298
0
VERTEX
8
1
10
69.385742
20
31.611534
0
VERTEX
8
1
10
69.370934
20
31.787117
0
VERTEX
8
1
10
69.885590
20
31.830513
0
VERTEX
8
1
10
69.900391
20
31.654930
0
VERTEX
8
1
10
69.749023
20
31.642166
0
VERTEX
8
1
10
69.837769
20
30.589653
0
VERTEX
8
1
10
69.989136
20
30.602417
0
VERTEX
8
1
10
70.003944
20
30.426834
0
VERTEX
8
1
10
69.489296
20
30.383438
0
VERTEX
8
1
10
69.474487
20
30.559021
0
SEQEND
0
POLYLINE
8
1
66
1
70
1
0
VERTEX
8
1
10
63.120205
20
34.394112
42
-0.148545
0
VERTEX
8
1
10
63.469181
20
34.942444
42
-0.202175
0
VERTEX
8
1
10
64.074585
20
35.110329
42
-0.053112
0
VERTEX
8
1
10
64.293510
20
35.065628
42
-0.128443
0
VERTEX
8
1
10
64.580376
20
34.804604
42
-0.283678
0
VERTEX
8
1
10
64.669113
20
33.726364
42
-0.095366
0
VERTEX
8
1
10
63.645245
20
32.583099
42
0.009184
0
VERTEX
8
1
10
63.190155
20
32.213867
0
VERTEX
8
1
10
63.179153
20
32.203426
0
VERTEX
8
1
10
63.168308
20
32.192825
42
-0.019776
0
VERTEX
8
1
10
62.598156
20
32.607574
42
-0.020663
0
VERTEX
8
1
10
61.814388
20
33.240707
42
-0.145865
0
VERTEX
8
1
10
61.425613
20
34.016346
42
-0.222177
0
VERTEX
8
1
10
61.660336
20
34.780945
42
-0.130329
0
VERTEX
8
1
10
62.143932
20
35.033459
42
-0.153569
0
VERTEX
8
1
10
62.673794
20
34.965950
42
-0.073550
0
VERTEX
8
1
10
62.860729
20
34.780907
42
-0.048691
0
SEQEND
0
POLYLINE
8
1
66
1
70
1
0
VERTEX
8
1
10
60.338791
20
35.230278
0
VERTEX
8
1
10
60.219219
20
36.616959
0
VERTEX
8
1
10
60.019791
20
36.599762
0
VERTEX
8
1
10
59.999844
20
36.831093
0
VERTEX
8
1
10
60.677891
20
36.889557
0
VERTEX
8
1
10
60.697838
20
36.658226
0
VERTEX
8
1
10
60.498413
20
36.641029
0
VERTEX
8
1
10
60.617989
20
35.254356
0
VERTEX
8
1
10
60.817413
20
35.271553
0
VERTEX
8
1
10
60.837360
20
35.040222
0
VERTEX
8
1
10
60.159313
20
34.981750
0
VERTEX
8
1
10
60.139366
20
35.213081
0
SEQEND
0
POLYLINE
8
1
66
1
70
1
0
VERTEX
8
1
10
69.811989
20
41.388390
42
-0.148068
0
VERTEX
8
1
10
70.150902
20
41.897312
42
-0.187761
0
VERTEX
8
1
10
70.682549
20
42.048756
42
-0.067051
0
VERTEX
8
1
10
70.927025
20
42.000351
0
VERTEX
8
1
10
70.955276
20
41.985619
0
VERTEX
8
1
10
70.985100
20
41.966774
42
-0.277984
0
VERTEX
8
1
10
71.368484
20
41.004448
42
-0.102532
0
VERTEX
8
1
10
71.220917
20
40.641891
42
-0.073809
0
VERTEX
8
1
10
70.452835
20
39.763855
42
0.015042
0
VERTEX
8
1
10
69.855339
20
39.280769
0
VERTEX
8
1
10
69.834534
20
39.287811
42
-0.018976
0
VERTEX
8
1
10
69.003502
20
39.908699
42
-0.021872
0
VERTEX
8
1
10
68.561897
20
40.275734
42
-0.139776
0
VERTEX
8
1
10
68.199921
20
40.988213
42
-0.227232
0
VERTEX
8
1
10
68.420021
20
41.733490
42
-0.135792
0
VERTEX
8
1
10
68.894257
20
41.975883
42
-0.154908
0
VERTEX
8
1
10
69.392662
20
41.901894
42
-0.072026
0
VERTEX
8
1
10
69.588730
20
41.696716
42
-0.042421
0
VERTEX
8
1
10
69.806000
20
41.367241
0
SEQEND
0
POLYLINE
8
1
66
1
70
1
0
VERTEX
8
1
10
67.165588
20
42.160011
0
VERTEX
8
1
10
67.052086
20
43.476273
0
VERTEX
8
1
10
66.862793
20
43.459946
0
VERTEX
8
1
10
66.843857
20
43.679527
0
VERTEX
8
1
10
67.487473
20
43.735031
0
VERTEX
8
1
10
67.506409
20
43.515442
0
VERTEX
8
1
10
67.317108
20
43.499123
0
VERTEX
8
1
10
67.430611
20
42.182861
0
VERTEX
8
1
10
67.619911
20
42.199188
0
VERTEX
8
1
10
67.638840
20
41.979599
0
VERTEX
8
1
10
66.995224
20
41.924103
0
VERTEX
8
1
10
66.976295
20
42.143684
0
SEQEND
0
POLYLINE
8
1
66
1
70
1
0
VERTEX
8
1
10
67.931801
20
35.780502
42
-0.158910
0
VERTEX
8
1
10
68.228279
20
36.211632
42
-0.200153
0
VERTEX
8
1
10
68.699974
20
36.310825
42
-0.037935
0
VERTEX
8
1
10
68.825142
20
36.282372
42
-0.144725
0
VERTEX
8
1
10
69.071747
20
36.043297
42
-0.311123
0
VERTEX
8
1
10
69.052155
20
35.163734
42
-0.074575
0
VERTEX
8
1
10
68.423096
20
34.467636
0
VERTEX
8
1
10
68.228600
20
34.316406
42
0.024608
0
VERTEX
8
1
10
67.953873
20
34.094780
0
VERTEX
8
1
10
67.929039
20
34.108490
42
-0.022486
0
VERTEX
8
1
10
66.946037
20
34.882607
42
-0.163968
0
VERTEX
8
1
10
66.630341
20
35.528839
42
-0.220886
0
VERTEX
8
1
10
66.829376
20
36.089828
42
-0.197153
0
VERTEX
8
1
10
67.344749
20
36.278175
42
-0.097215
0
VERTEX
8
1
10
67.604202
20
36.206909
42
-0.072481
0
VERTEX
8
1
10
67.759468
20
36.040291
42
-0.042696
0
VERTEX
8
1
10
67.930313
20
35.775085
0
SEQEND
0
POLYLINE
8
1
66
1
70
1
0
VERTEX
8
1
10
65.811256
20
36.432350
0
VERTEX
8
1
10
65.729279
20
37.492401
0
VERTEX
8
1
10
65.576828
20
37.480606
0
VERTEX
8
1
10
65.563156
20
37.657448
0
VERTEX
8
1
10
66.081490
20
37.697533
0
VERTEX
8
1
10
66.095161
20
37.520691
0
VERTEX
8
1
10
65.942711
20
37.508904
0
VERTEX
8
1
10
66.024689
20
36.448860
0
VERTEX
8
1
10
66.177139
20
36.460648
0
VERTEX
8
1
10
66.190819
20
36.283806
0
VERTEX
8
1
10
65.672485
20
36.243721
0
VERTEX
8
1
10
65.658806
20
36.420563
0
SEQEND
0
POLYLINE
8
1
66
1
70
1
0
VERTEX
8
1
10
73.124107
20
35.713982
42
-0.144826
0
VERTEX
8
1
10
73.469193
20
36.248001
42
-0.202194
0
VERTEX
8
1
10
74.074593
20
36.415886
42
-0.053119
0
VERTEX
8
1
10
74.293510
20
36.371185
42
-0.128486
0
VERTEX
8
1
10
74.580368
20
36.110153
42
-0.283687
0
VERTEX
8
1
10
74.669113
20
35.031921
42
-0.082507
0
VERTEX
8
1
10
73.791168
20
34.002785
42
0.016195
0
VERTEX
8
1
10
73.168312
20
33.498383
42
-0.018836
0
VERTEX
8
1
10
72.657349
20
33.868210
42
-0.020340
0
VERTEX
8
1
10
71.814392
20
34.546265
42
-0.145842
0
VERTEX
8
1
10
71.425613
20
35.321896
42
-0.222163
0
VERTEX
8
1
10
71.660332
20
36.086494
42
-0.130393
0
VERTEX
8
1
10
72.143944
20
36.339016
42
-0.153573
0
VERTEX
8
1
10
72.673798
20
36.271507
42
-0.073571
0
VERTEX
8
1
10
72.860733
20
36.086464
42
-0.048645
0
VERTEX
8
1
10
73.120209
20
35.699669
0
SEQEND
0
POLYLINE
8
1
66
1
70
1
0
VERTEX
8
1
10
70.338799
20
36.535835
0
VERTEX
8
1
10
70.219223
20
37.922508
0
VERTEX
8
1
10
70.019798
20
37.905312
0
VERTEX
8
1
10
69.999847
20
38.136642
0
VERTEX
8
1
10
70.677895
20
38.195114
0
VERTEX
8
1
10
70.697845
20
37.963783
0
VERTEX
8
1
10
70.498421
20
37.946587
0
VERTEX
8
1
10
70.617989
20
36.559914
0
VERTEX
8
1
10
70.817413
20
36.577110
0
VERTEX
8
1
10
70.837364
20
36.345779
0
VERTEX
8
1
10
70.159317
20
36.287308
0
VERTEX
8
1
10
70.139374
20
36.518639
0
SEQEND
0
POLYLINE
8
1
66
1
70
1
0
VERTEX
8
1
10
76.708290
20
32.374329
42
-0.171802
0
VERTEX
8
1
10
76.950821
20
32.716679
42
-0.180995
0
VERTEX
8
1
10
77.277878
20
32.783241
0
VERTEX
8
1
10
77.314362
20
32.777710
42
-0.189556
0
VERTEX
8
1
10
77.482826
20
32.690887
42
-0.292363
0
VERTEX
8
1
10
77.638985
20
32.057861
42
-0.072327
0
VERTEX
8
1
10
77.527390
20
31.855461
42
-0.088796
0
VERTEX
8
1
10
76.926514
20
31.249153
42
0.016975
0
VERTEX
8
1
10
76.736252
20
31.090431
0
VERTEX
8
1
10
76.714317
20
31.102348
42
-0.024303
0
VERTEX
8
1
10
75.949402
20
31.696381
42
-0.165608
0
VERTEX
8
1
10
75.716797
20
32.198860
42
-0.435821
0
VERTEX
8
1
10
76.232330
20
32.748005
42
-0.116560
0
VERTEX
8
1
10
76.457016
20
32.694389
42
-0.089983
0
VERTEX
8
1
10
76.706841
20
32.368927
0
SEQEND
0
POLYLINE
8
1
66
1
70
1
0
VERTEX
8
1
10
75.089706
20
32.854836
0
VERTEX
8
1
10
75.020187
20
33.661034
0
VERTEX
8
1
10
74.904243
20
33.651031
0
VERTEX
8
1
10
74.892647
20
33.785522
0
VERTEX
8
1
10
75.286850
20
33.819519
0
VERTEX
8
1
10
75.298447
20
33.685028
0
VERTEX
8
1
10
75.182503
20
33.675026
0
VERTEX
8
1
10
75.252022
20
32.868828
0
VERTEX
8
1
10
75.367966
20
32.878830
0
VERTEX
8
1
10
75.379562
20
32.744339
0
VERTEX
8
1
10
74.985359
20
32.710342
0
VERTEX
8
1
10
74.973763
20
32.844833
0
SEQEND
0
POLYLINE
8
1
66
1
70
1
0
VERTEX
8
1
10
78.880745
20
38.194260
42
-0.149720
0
VERTEX
8
1
10
79.116608
20
38.626034
42
-0.195482
0
VERTEX
8
1
10
79.551369
20
38.780819
42
-0.064121
0
VERTEX
8
1
10
79.728745
20
38.755844
0
VERTEX
8
1
10
79.755554
20
38.743622
42
-0.311034
0
VERTEX
8
1
10
80.126671
20
37.930458
42
-0.085164
0
VERTEX
8
1
10
80.034081
20
37.685143
42
-0.093616
0
VERTEX
8
1
10
79.316658
20
36.793964
42
0.015883
0
VERTEX
8
1
10
79.058563
20
36.541626
0
VERTEX
8
1
10
79.045914
20
36.539970
42
-0.025399
0
VERTEX
8
1
10
77.977806
20
37.231674
42
-0.154578
0
VERTEX
8
1
10
77.627815
20
37.815567
42
-0.223795
0
VERTEX
8
1
10
77.770485
20
38.391541
42
-0.199339
0
VERTEX
8
1
10
78.262779
20
38.623177
42
-0.086845
0
VERTEX
8
1
10
78.509552
20
38.582703
42
-0.081406
0
VERTEX
8
1
10
78.693710
20
38.420158
42
-0.035754
0
VERTEX
8
1
10
78.879036
20
38.185165
0
SEQEND
0
POLYLINE
8
1
66
1
70
1
0
VERTEX
8
1
10
76.740700
20
38.634377
0
VERTEX
8
1
10
76.563538
20
39.666405
0
VERTEX
8
1
10
76.415115
20
39.640923
0
VERTEX
8
1
10
76.385559
20
39.813095
0
VERTEX
8
1
10
76.890190
20
39.899719
0
VERTEX
8
1
10
76.919746
20
39.727554
0
VERTEX
8
1
10
76.771324
20
39.702072
0
VERTEX
8
1
10
76.948494
20
38.670044
0
VERTEX
8
1
10
77.096916
20
38.695526
0
VERTEX
8
1
10
77.126472
20
38.523354
0
VERTEX
8
1
10
76.621834
20
38.436729
0
VERTEX
8
1
10
76.592278
20
38.608894
0
SEQEND
0
POLYLINE
8
1
66
1
70
1
0
VERTEX
8
1
10
82.081902
20
35.580826
42
-0.054213
0
VERTEX
8
1
10
82.157341
20
35.489922
42
-0.248692
0
VERTEX
8
1
10
82.282486
20
35.651745
42
-0.181904
0
VERTEX
8
1
10
82.416862
20
35.649471
42
-0.419193
0
VERTEX
8
1
10
82.485695
20
35.332817
42
-0.092931
0
VERTEX
8
1
10
82.245819
20
35.050022
42
0.014952
0
VERTEX
8
1
10
82.208923
20
35.012863
0
VERTEX
8
1
10
82.194321
20
35.019417
42
-0.027298
0
VERTEX
8
1
10
81.889244
20
35.219444
42
-0.215465
0
VERTEX
8
1
10
81.791710
20
35.444950
42
-0.518657
0
VERTEX
8
1
10
82.062912
20
35.597095
42
-0.029064
0
SEQEND
0
POLYLINE
8
1
66
1
70
1
0
VERTEX
8
1
10
81.537094
20
35.620605
0
VERTEX
8
1
10
81.485703
20
35.919991
0
VERTEX
8
1
10
81.442650
20
35.912598
0
VERTEX
8
1
10
81.434074
20
35.962540
0
VERTEX
8
1
10
81.580467
20
35.987671
0
VERTEX
8
1
10
81.589035
20
35.937729
0
VERTEX
8
1
10
81.545982
20
35.930336
0
VERTEX
8
1
10
81.597374
20
35.630951
0
VERTEX
8
1
10
81.640434
20
35.638344
0
VERTEX
8
1
10
81.649002
20
35.588402
0
VERTEX
8
1
10
81.502617
20
35.563271
0
VERTEX
8
1
10
81.494041
20
35.613213
0
SEQEND
0
POLYLINE
8
1
66
1
70
1
0
VERTEX
8
1
10
84.477310
20
35.608292
42
-0.049485
0
VERTEX
8
1
10
84.507210
20
35.560951
42
-0.208064
0
VERTEX
8
1
10
84.541901
20
35.632050
42
-0.346489
0
VERTEX
8
1
10
84.595062
20
35.623817
42
-0.311267
0
VERTEX
8
1
10
84.619926
20
35.475548
42
-0.074074
0
VERTEX
8
1
10
84.535355
20
35.336266
42
-0.052433
0
VERTEX
8
1
10
84.407898
20
35.462814
42
-0.248281
0
VERTEX
8
1
10
84.401100
20
35.603794
42
-0.486112
0
SEQEND
0
POLYLINE
8
1
66
1
70
1
0
VERTEX
8
1
10
84.294922
20
35.636482
0
VERTEX
8
1
10
84.270683
20
35.777702
0
VERTEX
8
1
10
84.256325
20
35.775238
0
VERTEX
8
1
10
84.252281
20
35.798798
0
VERTEX
8
1
10
84.301094
20
35.807175
0
VERTEX
8
1
10
84.305138
20
35.783615
0
VERTEX
8
1
10
84.290779
20
35.781151
0
VERTEX
8
1
10
84.315025
20
35.639938
0
VERTEX
8
1
10
84.329384
20
35.642403
0
VERTEX
8
1
10
84.333427
20
35.618843
0
VERTEX
8
1
10
84.284615
20
35.610458
0
VERTEX
8
1
10
84.280571
20
35.634018
0
SEQEND
0
POLYLINE
8
1
66
1
70
1
0
VERTEX
8
1
10
85.242439
20
39.623657
42
-0.054026
0
VERTEX
8
1
10
85.261993
20
39.506035
42
-0.248721
0
VERTEX
8
1
10
85.453377
20
39.583485
42
-0.181978
0
VERTEX
8
1
10
85.569382
20
39.513161
42
-0.419089
0
VERTEX
8
1
10
85.468361
20
39.202103
42
-0.092980
0
VERTEX
8
1
10
85.115433
20
39.077553
42
0.015073
0
VERTEX
8
1
10
85.064369
20
39.063904
0
VERTEX
8
1
10
85.054970
20
39.077042
42
-0.027253
0
VERTEX
8
1
10
84.890709
20
39.406578
42
-0.215409
0
VERTEX
8
1
10
84.920372
20
39.652763
42
-0.518738
0
VERTEX
8
1
10
85.234154
20
39.647491
42
-0.028790
0
SEQEND
0
POLYLINE
8
1
66
1
70
1
0
VERTEX
8
1
10
84.787712
20
39.935371
0
VERTEX
8
1
10
84.895142
20
40.222511
0
VERTEX
8
1
10
84.853851
20
40.237961
0
VERTEX
8
1
10
84.871773
20
40.285866
0
VERTEX
8
1
10
85.012177
20
40.233330
0
VERTEX
8
1
10
84.994247
20
40.185432
0
VERTEX
8
1
10
84.952957
20
40.200882
0
VERTEX
8
1
10
84.845520
20
39.913742
0
VERTEX
8
1
10
84.886818
20
39.898293
0
VERTEX
8
1
10
84.868896
20
39.850395
0
VERTEX
8
1
10
84.728493
20
39.902924
0
VERTEX
8
1
10
84.746414
20
39.950829
0
SEQEND
0
POLYLINE
8
1
66
1
70
1
0
VERTEX
8
1
10
83.759796
20
44.160118
42
-0.169091
0
VERTEX
8
1
10
83.970406
20
44.540379
42
-0.191384
0
VERTEX
8
1
10
84.325851
20
44.647381
0
VERTEX
8
1
10
84.360214
20
44.644661
42
-0.169761
0
VERTEX
8
1
10
84.507118
20
44.590557
42
-0.303425
0
VERTEX
8
1
10
84.758400
20
43.934643
42
-0.071436
0
VERTEX
8
1
10
84.666557
20
43.716789
42
-0.089546
0
VERTEX
8
1
10
84.099411
20
43.011536
42
0.018332
0
VERTEX
8
1
10
83.927711
20
42.833824
42
-0.025526
0
VERTEX
8
1
10
83.050087
20
43.375854
42
-0.159710
0
VERTEX
8
1
10
82.755959
20
43.852791
42
-0.209056
0
VERTEX
8
1
10
82.855576
20
44.296814
0
VERTEX
8
1
10
82.874794
20
44.316536
0
VERTEX
8
1
10
82.894600
20
44.335670
42
-0.292568
0
VERTEX
8
1
10
83.454155
20
44.472458
42
-0.080103
0
VERTEX
8
1
10
83.605339
20
44.345436
42
-0.042250
0
VERTEX
8
1
10
83.759224
20
44.156387
0
SEQEND
0
POLYLINE
8
1
66
1
70
1
0
VERTEX
8
1
10
82.031265
20
44.483650
0
VERTEX
8
1
10
81.871376
20
45.311127
0
VERTEX
8
1
10
81.752373
20
45.288132
0
VERTEX
8
1
10
81.725693
20
45.426170
0
VERTEX
8
1
10
82.130310
20
45.504356
0
VERTEX
8
1
10
82.156982
20
45.366310
0
VERTEX
8
1
10
82.037979
20
45.343315
0
VERTEX
8
1
10
82.197876
20
44.515839
0
VERTEX
8
1
10
82.316879
20
44.538834
0
VERTEX
8
1
10
82.343552
20
44.400795
0
VERTEX
8
1
10
81.938934
20
44.322609
0
VERTEX
8
1
10
81.912262
20
44.460648
0
SEQEND
0
POLYLINE
8
1
66
1
70
1
0
VERTEX
8
1
10
87.294403
20
41.878220
42
-0.052230
0
VERTEX
8
1
10
87.375626
20
41.783569
42
-0.228798
0
VERTEX
8
1
10
87.495728
20
41.957825
42
-0.184294
0
VERTEX
8
1
10
87.647141
20
41.968700
42
-0.431426
0
VERTEX
8
1
10
87.739677
20
41.620804
42
-0.093181
0
VERTEX
8
1
10
87.505806
20
41.328007
0
VERTEX
8
1
10
87.474022
20
41.295528
0
VERTEX
8
1
10
87.442978
20
41.262352
42
-0.034638
0
VERTEX
8
1
10
87.083275
20
41.485802
42
-0.201198
0
VERTEX
8
1
10
86.975365
20
41.715115
42
-0.543870
0
VERTEX
8
1
10
87.273552
20
41.895985
42
-0.025678
0
SEQEND
0
POLYLINE
8
1
66
1
70
1
0
VERTEX
8
1
10
86.693504
20
41.912506
0
VERTEX
8
1
10
86.630386
20
42.239143
0
VERTEX
8
1
10
86.583412
20
42.230064
0
VERTEX
8
1
10
86.572884
20
42.284554
0
VERTEX
8
1
10
86.732597
20
42.315414
0
VERTEX
8
1
10
86.743126
20
42.260925
0
VERTEX
8
1
10
86.696152
20
42.251846
0
VERTEX
8
1
10
86.759270
20
41.925209
0
VERTEX
8
1
10
86.806244
20
41.934288
0
VERTEX
8
1
10
86.816772
20
41.879799
0
VERTEX
8
1
10
86.657059
20
41.848938
0
VERTEX
8
1
10
86.646530
20
41.903427
0
SEQEND
0
POLYLINE
8
1
66
1
70
1
0
VERTEX
8
1
10
88.632988
20
41.901711
42
-0.041627
0
VERTEX
8
1
10
88.681778
20
41.849144
42
-0.495573
0
VERTEX
8
1
10
88.826706
20
41.938290
42
-0.394718
0
VERTEX
8
1
10
88.870796
20
41.770737
42
-0.092238
0
VERTEX
8
1
10
88.717506
20
41.583031
0
VERTEX
8
1
10
88.712120
20
41.582184
42
-0.036727
0
VERTEX
8
1
10
88.528572
20
41.698654
42
-0.282052
0
VERTEX
8
1
10
88.484787
20
41.848629
42
-0.460986
0
SEQEND
0
POLYLINE
8
1
66
1
70
1
0
VERTEX
8
1
10
88.333153
20
41.913033
0
VERTEX
8
1
10
88.300926
20
42.079819
0
VERTEX
8
1
10
88.276939
20
42.075188
0
VERTEX
8
1
10
88.271561
20
42.103012
0
VERTEX
8
1
10
88.353119
20
42.118767
0
VERTEX
8
1
10
88.358490
20
42.090942
0
VERTEX
8
1
10
88.334503
20
42.086311
0
VERTEX
8
1
10
88.366737
20
41.919525
0
VERTEX
8
1
10
88.390724
20
41.924156
0
VERTEX
8
1
10
88.396095
20
41.896332
0
VERTEX
8
1
10
88.314545
20
41.880577
0
VERTEX
8
1
10
88.309166
20
41.908401
0
SEQEND
0
POLYLINE
8
1
66
1
70
1
0
VERTEX
8
1
10
89.249603
20
43.577660
42
-0.051373
0
VERTEX
8
1
10
89.369652
20
43.453110
42
-0.192042
0
VERTEX
8
1
10
89.488945
20
43.676620
42
-0.214136
0
VERTEX
8
1
10
89.721306
20
43.721031
42
-0.425081
0
VERTEX
8
1
10
89.874954
20
43.266983
42
-0.089454
0
VERTEX
8
1
10
89.619644
20
42.895027
42
0.017401
0
VERTEX
8
1
10
89.497307
20
42.756485
0
VERTEX
8
1
10
89.484291
20
42.758797
42
-0.029391
0
VERTEX
8
1
10
89.002487
20
43.026398
42
-0.186827
0
VERTEX
8
1
10
88.836800
20
43.311401
42
-0.539219
0
VERTEX
8
1
10
89.205658
20
43.608421
42
-0.046163
0
SEQEND
0
POLYLINE
8
1
66
1
70
1
0
VERTEX
8
1
10
88.442139
20
43.578758
0
VERTEX
8
1
10
88.334480
20
44.014206
0
VERTEX
8
1
10
88.271858
20
43.998726
0
VERTEX
8
1
10
88.253899
20
44.071365
0
VERTEX
8
1
10
88.466820
20
44.124008
0
VERTEX
8
1
10
88.484779
20
44.051369
0
VERTEX
8
1
10
88.422157
20
44.035881
0
VERTEX
8
1
10
88.529816
20
43.600433
0
VERTEX
8
1
10
88.592438
20
43.615921
0
VERTEX
8
1
10
88.610397
20
43.543274
0
VERTEX
8
1
10
88.397476
20
43.490631
0
VERTEX
8
1
10
88.379517
20
43.563278
0
SEQEND
0
POLYLINE
8
1
66
1
70
1
0
VERTEX
8
1
10
86.118423
20
47.902908
42
-0.051256
0
VERTEX
8
1
10
86.246010
20
47.786087
42
-0.192148
0
VERTEX
8
1
10
86.351112
20
48.016617
42
-0.214153
0
VERTEX
8
1
10
86.580231
20
48.075470
42
-0.425090
0
VERTEX
8
1
10
86.761955
20
47.631905
42
-0.089451
0
VERTEX
8
1
10
86.530365
20
47.244720
42
0.017441
0
VERTEX
8
1
10
86.416924
20
47.098808
0
VERTEX
8
1
10
86.403793
20
47.100296
42
-0.029393
0
VERTEX
8
1
10
85.906212
20
47.337296
42
-0.186833
0
VERTEX
8
1
10
85.723045
20
47.611382
42
-0.539212
0
VERTEX
8
1
10
86.072639
20
47.930862
42
-0.046028
0
SEQEND
0
POLYLINE
8
1
66
1
70
1
0
VERTEX
8
1
10
85.312462
20
47.853569
0
VERTEX
8
1
10
85.177818
20
48.281441
0
VERTEX
8
1
10
85.116280
20
48.262077
0
VERTEX
8
1
10
85.093819
20
48.333458
0
VERTEX
8
1
10
85.303040
20
48.399300
0
VERTEX
8
1
10
85.325500
20
48.327919
0
VERTEX
8
1
10
85.263962
20
48.308556
0
VERTEX
8
1
10
85.398605
20
47.880684
0
VERTEX
8
1
10
85.460144
20
47.900047
0
VERTEX
8
1
10
85.482605
20
47.828667
0
VERTEX
8
1
10
85.273384
20
47.762825
0
VERTEX
8
1
10
85.250923
20
47.834206
0
SEQEND
0
POLYLINE
8
1
66
1
70
1
0
VERTEX
8
1
10
88.298477
20
45.875435
42
-0.051293
0
VERTEX
8
1
10
88.408447
20
45.741905
42
-0.192121
0
VERTEX
8
1
10
88.544807
20
45.955437
42
-0.214157
0
VERTEX
8
1
10
88.779915
20
45.981594
42
-0.425072
0
VERTEX
8
1
10
88.897705
20
45.516953
42
-0.089442
0
VERTEX
8
1
10
88.614151
20
45.166046
42
0.017472
0
VERTEX
8
1
10
88.481392
20
45.037453
0
VERTEX
8
1
10
88.468605
20
45.040756
42
-0.029413
0
VERTEX
8
1
10
88.009132
20
45.345131
42
-0.186865
0
VERTEX
8
1
10
87.866158
20
45.642181
42
-0.539216
0
VERTEX
8
1
10
88.257057
20
45.909531
42
-0.045978
0
SEQEND
0
POLYLINE
8
1
66
1
70
1
0
VERTEX
8
1
10
87.493553
20
45.939499
0
VERTEX
8
1
10
87.420174
20
46.382019
0
VERTEX
8
1
10
87.356537
20
46.371468
0
VERTEX
8
1
10
87.344292
20
46.445290
0
VERTEX
8
1
10
87.560677
20
46.481163
0
VERTEX
8
1
10
87.572914
20
46.407341
0
VERTEX
8
1
10
87.509270
20
46.396790
0
VERTEX
8
1
10
87.582649
20
45.954277
0
VERTEX
8
1
10
87.646286
20
45.964828
0
VERTEX
8
1
10
87.658531
20
45.891006
0
VERTEX
8
1
10
87.442154
20
45.855125
0
VERTEX
8
1
10
87.429909
20
45.928947
0
SEQEND
0
POLYLINE
8
1
66
1
70
1
0
VERTEX
8
1
10
90.137772
20
48.798347
42
-0.168096
0
VERTEX
8
1
10
90.399544
20
49.117462
42
-0.240523
0
VERTEX
8
1
10
90.861664
20
49.119644
42
-0.339196
0
VERTEX
8
1
10
91.039261
20
48.411587
42
-0.072558
0
VERTEX
8
1
10
90.911308
20
48.217964
42
-0.088959
0
VERTEX
8
1
10
90.262589
20
47.661472
42
0.018019
0
VERTEX
8
1
10
90.062202
20
47.519356
42
-0.026789
0
VERTEX
8
1
10
89.324158
20
48.192398
42
-0.158913
0
VERTEX
8
1
10
89.138405
20
48.695816
42
-0.204849
0
VERTEX
8
1
10
89.310104
20
49.086235
42
-0.176560
0
VERTEX
8
1
10
89.683495
20
49.211456
42
-0.113011
0
VERTEX
8
1
10
89.910072
20
49.142059
42
-0.084987
0
VERTEX
8
1
10
90.072739
20
48.921711
42
-0.026119
0
VERTEX
8
1
10
90.136513
20
48.794762
0
SEQEND
0
POLYLINE
8
1
66
1
70
1
0
VERTEX
8
1
10
88.566605
20
49.407440
0
VERTEX
8
1
10
88.561783
20
50.215004
0
VERTEX
8
1
10
88.445641
20
50.214310
0
VERTEX
8
1
10
88.444839
20
50.349037
0
VERTEX
8
1
10
88.839722
20
50.351395
0
VERTEX
8
1
10
88.840523
20
50.216667
0
VERTEX
8
1
10
88.724380
20
50.215981
0
VERTEX
8
1
10
88.729202
20
49.408409
0
VERTEX
8
1
10
88.845345
20
49.409103
0
VERTEX
8
1
10
88.846146
20
49.274376
0
VERTEX
8
1
10
88.451271
20
49.272018
0
VERTEX
8
1
10
88.450462
20
49.406746
0
SEQEND
0
POLYLINE
8
1
66
1
70
1
0
VERTEX
8
1
10
12.777411
20
13.529648
42
-0.127577
0
VERTEX
8
1
10
13.257087
20
14.227695
42
-0.202342
0
VERTEX
8
1
10
14.133924
20
14.486094
42
-0.061512
0
VERTEX
8
1
10
14.519213
20
14.403496
42
-0.115862
0
VERTEX
8
1
10
14.847185
20
14.121143
42
-0.193951
0
VERTEX
8
1
10
15.188298
20
12.987917
42
-0.132554
0
VERTEX
8
1
10
14.910869
20
12.275157
42
-0.071119
0
VERTEX
8
1
10
13.709266
20
11.001467
42
0.001418
0
VERTEX
8
1
10
12.774369
20
10.320564
0
VERTEX
8
1
10
12.732510
20
10.286332
0
VERTEX
8
1
10
12.691509
20
10.251076
0
VERTEX
8
1
10
12.666250
20
10.260887
42
-0.017171
0
VERTEX
8
1
10
12.000230
20
10.790887
42
-0.017501
0
VERTEX
8
1
10
10.793038
20
11.849191
42
-0.065327
0
VERTEX
8
1
10
10.529386
20
12.209908
42
-0.107069
0
VERTEX
8
1
10
10.243944
20
13.066598
42
-0.199954
0
VERTEX
8
1
10
10.567564
20
14.070526
0
VERTEX
8
1
10
10.641796
20
14.154373
42
-0.106761
0
VERTEX
8
1
10
11.268273
20
14.474582
42
-0.163858
0
VERTEX
8
1
10
12.067274
20
14.393114
0
VERTEX
8
1
10
12.108498
20
14.374952
0
VERTEX
8
1
10
12.149155
20
14.355553
42
-0.066391
0
VERTEX
8
1
10
12.365400
20
14.128967
42
-0.051640
0
VERTEX
8
1
10
12.763525
20
13.488449
42
-0.011869
0
SEQEND
0
POLYLINE
8
1
66
1
70
1
0
VERTEX
8
1
10
8.728037
20
14.903908
0
VERTEX
8
1
10
8.645096
20
16.951622
0
VERTEX
8
1
10
8.350603
20
16.939697
0
VERTEX
8
1
10
8.336765
20
17.281303
0
VERTEX
8
1
10
9.338043
20
17.321861
0
VERTEX
8
1
10
9.351879
20
16.980255
0
VERTEX
8
1
10
9.057386
20
16.968323
0
VERTEX
8
1
10
9.140327
20
14.920609
0
VERTEX
8
1
10
9.434820
20
14.932541
0
VERTEX
8
1
10
9.448656
20
14.590927
0
VERTEX
8
1
10
8.447380
20
14.550377
0
VERTEX
8
1
10
8.433544
20
14.891983
0
SEQEND
0
POLYLINE
8
1
66
1
70
1
0
VERTEX
8
1
10
37.399830
20
3.715836
42
-0.178686
0
VERTEX
8
1
10
37.677494
20
3.800425
42
-0.167530
0
VERTEX
8
1
10
37.861359
20
3.712494
0
VERTEX
8
1
10
37.902981
20
3.668503
0
VERTEX
8
1
10
37.920280
20
3.644547
42
-0.439345
0
VERTEX
8
1
10
37.656322
20
3.120728
42
-0.085637
0
VERTEX
8
1
10
37.135384
20
3.033871
42
0.015994
0
VERTEX
8
1
10
36.900013
20
3.024994
0
VERTEX
8
1
10
36.892017
20
3.036957
42
-0.025438
0
VERTEX
8
1
10
36.724022
20
3.672348
42
-0.173865
0
VERTEX
8
1
10
36.817490
20
4.042201
42
-0.209207
0
VERTEX
8
1
10
37.061192
20
4.178665
42
-0.320079
0
VERTEX
8
1
10
37.399872
20
3.982849
42
-0.081911
0
SEQEND
0
POLYLINE
8
1
66
1
70
1
0
VERTEX
8
1
10
36.737156
20
4.627228
0
VERTEX
8
1
10
37.026249
20
5.083344
0
VERTEX
8
1
10
36.960651
20
5.124908
0
VERTEX
8
1
10
37.008881
20
5.201004
0
VERTEX
8
1
10
37.231907
20
5.059647
0
VERTEX
8
1
10
37.183681
20
4.983551
0
VERTEX
8
1
10
37.118084
20
5.025131
0
VERTEX
8
1
10
36.828991
20
4.569016
0
VERTEX
8
1
10
36.894588
20
4.527435
0
VERTEX
8
1
10
36.846363
20
4.451355
0
VERTEX
8
1
10
36.623333
20
4.592712
0
VERTEX
8
1
10
36.671562
20
4.668793
0
SEQEND
0
POLYLINE
8
1
66
1
70
1
0
VERTEX
8
1
10
64.806595
20
44.836609
42
0.051930
0
VERTEX
8
1
10
65.057808
20
45.267258
42
0.086364
0
VERTEX
8
1
10
65.085426
20
45.416115
0
VERTEX
8
1
10
65.075409
20
45.451645
42
0.259341
0
VERTEX
8
1
10
64.913109
20
45.525520
42
0.217406
0
VERTEX
8
1
10
64.789886
20
45.413322
42
0.022924
0
VERTEX
8
1
10
64.592850
20
45.031242
42
0.084447
0
VERTEX
8
1
10
64.555206
20
44.835007
42
-0.234457
0
VERTEX
8
1
10
64.382668
20
44.539604
42
0.172753
0
VERTEX
8
1
10
64.101456
20
44.320343
42
0.084767
0
VERTEX
8
1
10
64.034309
20
44.081444
42
-0.034789
0
VERTEX
8
1
10
63.986679
20
43.901531
42
-0.152705
0
VERTEX
8
1
10
63.952534
20
43.864983
42
-0.132629
0
VERTEX
8
1
10
63.631260
20
43.953346
42
-0.306130
0
VERTEX
8
1
10
63.604198
20
44.043106
42
0.078268
0
VERTEX
8
1
10
63.671558
20
44.217628
0
VERTEX
8
1
10
63.687237
20
44.280144
42
-0.141430
0
VERTEX
8
1
10
63.844315
20
44.574173
42
0.010663
0
VERTEX
8
1
10
64.135590
20
44.875526
42
0.096160
0
VERTEX
8
1
10
64.167412
20
44.947327
0
VERTEX
8
1
10
64.117104
20
44.911415
0
VERTEX
8
1
10
64.115959
20
44.911896
42
0.005525
0
VERTEX
8
1
10
63.942184
20
45.118366
42
-0.218999
0
VERTEX
8
1
10
63.912823
20
45.283318
0
VERTEX
8
1
10
63.911457
20
45.288513
42
0.157039
0
VERTEX
8
1
10
63.843067
20
45.334778
42
-0.046795
0
VERTEX
8
1
10
63.690632
20
45.404739
42
-0.217320
0
VERTEX
8
1
10
63.605152
20
45.562485
42
-0.052039
0
VERTEX
8
1
10
63.603092
20
45.712173
42
-0.042825
0
VERTEX
8
1
10
63.549099
20
46.130470
42
0.222782
0
VERTEX
8
1
10
63.508831
20
46.177940
0
VERTEX
8
1
10
63.490574
20
46.187706
42
0.057243
0
VERTEX
8
1
10
63.188320
20
46.262177
42
-0.150832
0
VERTEX
8
1
10
63.099049
20
46.321266
42
-0.169639
0
VERTEX
8
1
10
63.081181
20
46.460716
42
0.101039
0
VERTEX
8
1
10
63.072933
20
46.575127
0
VERTEX
8
1
10
63.063351
20
46.593513
0
VERTEX
8
1
10
63.050396
20
46.611115
42
0.168755
0
VERTEX
8
1
10
62.808735
20
46.728992
42
0.004561
0
VERTEX
8
1
10
61.963200
20
46.700836
42
0.034567
0
VERTEX
8
1
10
61.249126
20
46.917290
42
0.009630
0
VERTEX
8
1
10
60.334011
20
47.065849
42
-0.038920
0
VERTEX
8
1
10
59.892956
20
47.524048
42
-0.150104
0
VERTEX
8
1
10
59.743835
20
47.973602
42
0.019265
0
VERTEX
8
1
10
59.306622
20
47.947372
0
VERTEX
8
1
10
59.305813
20
47.951279
0
VERTEX
8
1
10
59.223179
20
48.584793
0
VERTEX
8
1
10
59.222137
20
48.586220
42
0.155895
0
VERTEX
8
1
10
58.903286
20
48.453251
0
VERTEX
8
1
10
58.872681
20
48.428211
42
-0.082702
0
VERTEX
8
1
10
58.621929
20
48.241699
42
-0.089705
0
VERTEX
8
1
10
58.100952
20
48.058071
42
-0.060875
0
VERTEX
8
1
10
57.989098
20
48.063980
42
0.041143
0
VERTEX
8
1
10
57.877277
20
48.063889
0
VERTEX
8
1
10
57.731533
20
48.008965
42
-0.063740
0
VERTEX
8
1
10
57.505550
20
47.940460
42
0.082225
0
VERTEX
8
1
10
57.403343
20
47.830025
42
0.025958
0
VERTEX
8
1
10
57.282730
20
47.647873
42
0.049450
0
VERTEX
8
1
10
57.170410
20
47.091797
42
-0.092270
0
VERTEX
8
1
10
57.165531
20
46.711067
42
-0.105619
0
VERTEX
8
1
10
57.047382
20
46.407455
42
-0.151884
0
VERTEX
8
1
10
56.743507
20
46.101440
42
0.150926
0
VERTEX
8
1
10
56.530586
20
45.835548
42
0.027860
0
VERTEX
8
1
10
56.462082
20
45.653458
42
-0.107778
0
VERTEX
8
1
10
56.615505
20
45.340446
42
-0.015781
0
VERTEX
8
1
10
56.702606
20
45.008087
0
VERTEX
8
1
10
56.698044
20
44.920082
42
-0.033364
0
VERTEX
8
1
10
56.635197
20
44.407871
0
VERTEX
8
1
10
56.630539
20
44.370213
42
0.011759
0
VERTEX
8
1
10
56.618912
20
43.957916
0
VERTEX
8
1
10
56.623806
20
43.936928
42
0.050563
0
VERTEX
8
1
10
56.968235
20
43.632690
42
-0.025010
0
VERTEX
8
1
10
57.344379
20
43.305656
42
-0.114942
0
VERTEX
8
1
10
57.782303
20
43.016777
42
0.015740
0
VERTEX
8
1
10
58.073479
20
42.734768
42
-0.002086
0
VERTEX
8
1
10
58.636257
20
42.325180
42
-0.061927
0
VERTEX
8
1
10
58.986835
20
41.970299
42
-0.087866
0
VERTEX
8
1
10
59.061512
20
41.804108
0
VERTEX
8
1
10
59.063957
20
41.754791
0
VERTEX
8
1
10
59.059433
20
41.720551
42
0.048877
0
VERTEX
8
1
10
59.088226
20
41.195641
0
VERTEX
8
1
10
59.097256
20
41.175621
42
-0.046887
0
VERTEX
8
1
10
59.275639
20
40.807083
0
VERTEX
8
1
10
59.281845
20
40.782791
42
0.061178
0
VERTEX
8
1
10
59.326527
20
40.571014
42
-0.089548
0
VERTEX
8
1
10
59.341866
20
40.361298
42
0.018102
0
VERTEX
8
1
10
59.307270
20
40.220322
42
0.186092
0
VERTEX
8
1
10
59.349873
20
40.085258
42
-0.033905
0
VERTEX
8
1
10
59.560860
20
39.781219
42
0.153292
0
VERTEX
8
1
10
59.654671
20
39.705414
42
-0.154083
0
VERTEX
8
1
10
59.870899
20
39.627010
42
-0.058653
0
VERTEX
8
1
10
60.086098
20
39.450417
0
VERTEX
8
1
10
60.106766
20
39.347160
0
VERTEX
8
1
10
60.120392
20
39.347755
0
VERTEX
8
1
10
64.442131
20
39.645798
0
VERTEX
8
1
10
64.464050
20
39.650826
42
-0.074993
0
VERTEX
8
1
10
64.494034
20
39.800804
42
0.083375
0
VERTEX
8
1
10
64.545662
20
40.337555
42
0.093266
0
VERTEX
8
1
10
64.478905
20
40.540749
42
0.097875
0
VERTEX
8
1
10
64.204460
20
40.787804
42
-0.278868
0
VERTEX
8
1
10
64.114372
20
40.960911
42
-0.098183
0
VERTEX
8
1
10
64.167290
20
41.323021
42
0.072710
0
VERTEX
8
1
10
64.325981
20
42.177757
42
-0.007303
0
VERTEX
8
1
10
64.368034
20
42.599373
0
VERTEX
8
1
10
64.368408
20
42.636623
42
-0.043601
0
VERTEX
8
1
10
64.365395
20
43.018414
42
-0.088196
0
VERTEX
8
1
10
64.392754
20
43.092468
0
VERTEX
8
1
10
64.410881
20
43.110199
42
-0.053964
0
VERTEX
8
1
10
64.561180
20
43.157669
42
0.350570
0
VERTEX
8
1
10
64.598663
20
43.232727
0
VERTEX
8
1
10
64.595505
20
43.259880
42
0.012327
0
VERTEX
8
1
10
64.480049
20
43.632805
42
-0.136507
0
VERTEX
8
1
10
64.480400
20
43.815933
42
-0.035927
0
VERTEX
8
1
10
64.549217
20
44.166096
42
-0.052279
0
VERTEX
8
1
10
64.640923
20
44.363472
42
0.047533
0
SEQEND
0
POLYLINE
8
1
66
1
70
1
0
VERTEX
8
1
10
69.889435
20
47.350502
0
VERTEX
8
1
10
69.862000
20
47.624847
42
-0.023303
0
VERTEX
8
1
10
69.220596
20
47.680916
42
-0.166844
0
VERTEX
8
1
10
69.077110
20
47.777916
42
0.057879
0
VERTEX
8
1
10
68.905037
20
47.970215
42
-0.123582
0
VERTEX
8
1
10
68.853958
20
48.061768
42
-0.060947
0
VERTEX
8
1
10
68.778473
20
48.485901
42
0.123501
0
VERTEX
8
1
10
68.489525
20
48.310799
42
-0.229423
0
VERTEX
8
1
10
68.317894
20
48.210968
42
-0.044070
0
VERTEX
8
1
10
68.125725
20
48.214302
0
VERTEX
8
1
10
68.097221
20
48.213837
0
VERTEX
8
1
10
68.070717
20
48.211098
42
-0.063678
0
VERTEX
8
1
10
67.686783
20
48.181595
0
VERTEX
8
1
10
67.672920
20
48.190506
42
-0.155442
0
VERTEX
8
1
10
67.649597
20
48.292938
42
-0.014801
0
VERTEX
8
1
10
67.667419
20
48.586761
42
0.147562
0
VERTEX
8
1
10
67.639046
20
48.687180
42
0.038208
0
VERTEX
8
1
10
67.458382
20
48.912083
0
VERTEX
8
1
10
67.447182
20
48.926109
42
0.418265
0
VERTEX
8
1
10
67.399719
20
48.944431
42
0.131271
0
VERTEX
8
1
10
67.314949
20
48.903740
42
-0.012710
0
VERTEX
8
1
10
67.109619
20
48.748306
42
0.059342
0
VERTEX
8
1
10
66.934540
20
48.648460
42
-0.116618
0
VERTEX
8
1
10
66.779121
20
48.593437
0
VERTEX
8
1
10
66.754654
20
48.596191
42
0.132937
0
VERTEX
8
1
10
66.514587
20
48.586792
0
VERTEX
8
1
10
66.445000
20
48.569763
42
-0.023169
0
VERTEX
8
1
10
65.978912
20
48.494316
0
VERTEX
8
1
10
65.917557
20
48.485954
0
VERTEX
8
1
10
65.445313
20
48.152596
42
0.022307
0
VERTEX
8
1
10
65.208939
20
47.857117
42
-0.382120
0
VERTEX
8
1
10
65.129478
20
47.852264
0
VERTEX
8
1
10
65.113853
20
47.861168
42
0.122810
0
VERTEX
8
1
10
64.713188
20
48.020920
42
0.274746
0
VERTEX
8
1
10
64.607559
20
47.979851
42
-0.186913
0
VERTEX
8
1
10
64.496384
20
47.923859
42
-0.128813
0
VERTEX
8
1
10
64.270714
20
47.933479
0
VERTEX
8
1
10
64.251305
20
47.944016
0
VERTEX
8
1
10
64.230598
20
47.958931
42
-0.090474
0
VERTEX
8
1
10
63.994122
20
48.275909
42
0.133142
0
VERTEX
8
1
10
63.818886
20
48.411831
42
-0.053386
0
VERTEX
8
1
10
63.655842
20
48.523949
0
VERTEX
8
1
10
63.632786
20
48.538315
0
VERTEX
8
1
10
63.606060
20
48.549744
42
0.098529
0
VERTEX
8
1
10
63.334591
20
48.569328
0
VERTEX
8
1
10
63.056660
20
48.513786
42
-0.065547
0
VERTEX
8
1
10
62.698856
20
48.512886
42
-0.353786
0
VERTEX
8
1
10
62.658184
20
48.557838
0
VERTEX
8
1
10
62.657490
20
48.583153
42
-0.094153
0
VERTEX
8
1
10
62.750874
20
48.819275
0
VERTEX
8
1
10
62.887821
20
48.983612
0
VERTEX
8
1
10
63.084255
20
49.236008
0
VERTEX
8
1
10
63.251003
20
49.486107
42
-0.037828
0
VERTEX
8
1
10
63.619068
20
49.853394
0
VERTEX
8
1
10
63.625751
20
49.871635
0
VERTEX
8
1
10
63.606045
20
49.883224
0
VERTEX
8
1
10
63.564198
20
49.889046
0
VERTEX
8
1
10
63.504490
20
49.889961
42
0.025592
0
VERTEX
8
1
10
62.861446
20
49.819008
0
VERTEX
8
1
10
62.585506
20
49.681053
0
VERTEX
8
1
10
62.583553
20
49.679733
0
VERTEX
8
1
10
62.362743
20
49.458931
0
VERTEX
8
1
10
62.361881
20
49.457123
0
VERTEX
8
1
10
62.334278
20
49.208748
0
VERTEX
8
1
10
62.333111
20
49.208183
0
VERTEX
8
1
10
62.140049
20
49.208183
42
0.107668
0
VERTEX
8
1
10
61.974499
20
48.963425
42
-0.199796
0
VERTEX
8
1
10
61.799000
20
48.716591
42
0.053165
0
VERTEX
8
1
10
61.487133
20
48.554855
42
0.006141
0
VERTEX
8
1
10
61.297512
20
48.436562
42
-0.090070
0
VERTEX
8
1
10
60.806423
20
48.319275
0
VERTEX
8
1
10
60.003769
20
47.814758
0
VERTEX
8
1
10
59.993439
20
47.810547
42
0.102552
0
VERTEX
8
1
10
59.877342
20
47.950661
0
VERTEX
8
1
10
59.869808
20
47.953255
42
0.172110
0
VERTEX
8
1
10
60.027702
20
47.555290
42
0.030077
0
VERTEX
8
1
10
60.380543
20
47.192932
0
VERTEX
8
1
10
60.399185
20
47.182449
42
-0.013037
0
VERTEX
8
1
10
61.326305
20
47.028542
42
-0.031309
0
VERTEX
8
1
10
61.974842
20
46.829735
0
VERTEX
8
1
10
61.997433
20
46.827179
42
-0.004882
0
VERTEX
8
1
10
62.821049
20
46.853462
42
-0.190521
0
VERTEX
8
1
10
63.157478
20
46.675900
42
-0.197994
0
VERTEX
8
1
10
63.205219
20
46.456242
42
0.030142
0
VERTEX
8
1
10
63.203014
20
46.391479
42
0.102898
0
VERTEX
8
1
10
63.253574
20
46.377075
42
-0.048686
0
VERTEX
8
1
10
63.530102
20
46.307392
42
-0.155982
0
VERTEX
8
1
10
63.656410
20
46.200661
42
-0.139783
0
VERTEX
8
1
10
63.675503
20
46.090324
42
0.030230
0
VERTEX
8
1
10
63.730938
20
45.709923
42
0.129452
0
VERTEX
8
1
10
63.743671
20
45.527908
42
0.182082
0
VERTEX
8
1
10
63.806026
20
45.485756
42
-0.066468
0
VERTEX
8
1
10
63.989628
20
45.390903
42
-0.308540
0
VERTEX
8
1
10
64.031548
20
45.235947
42
0.206716
0
VERTEX
8
1
10
64.068169
20
45.160141
42
-0.014057
0
VERTEX
8
1
10
64.200127
20
45.008224
0
VERTEX
8
1
10
64.202827
20
45.008575
0
VERTEX
8
1
10
64.334198
20
45.235916
0
VERTEX
8
1
10
64.417557
20
45.430405
42
-0.006625
0
VERTEX
8
1
10
64.651527
20
45.811440
42
0.067106
0
VERTEX
8
1
10
64.708687
20
46.038467
42
0.077254
0
VERTEX
8
1
10
64.750282
20
46.358414
0
VERTEX
8
1
10
64.750778
20
46.380470
0
VERTEX
8
1
10
64.751152
20
46.402527
0
VERTEX
8
1
10
65.081848
20
46.292313
0
VERTEX
8
1
10
65.084267
20
46.291763
0
VERTEX
8
1
10
65.111847
20
46.457268
0
VERTEX
8
1
10
65.112396
20
46.458580
0
VERTEX
8
1
10
65.277985
20
46.624168
0
VERTEX
8
1
10
65.279442
20
46.624840
0
VERTEX
8
1
10
65.500244
20
46.624847
0
VERTEX
8
1
10
65.500488
20
46.623779
0
VERTEX
8
1
10
65.417717
20
46.403046
0
VERTEX
8
1
10
65.251068
20
46.180649
0
VERTEX
8
1
10
65.252663
20
46.179749
0
VERTEX
8
1
10
65.473000
20
46.097115
0
VERTEX
8
1
10
65.695305
20
46.319260
42
0.061191
0
VERTEX
8
1
10
65.959106
20
46.735649
42
-0.244389
0
VERTEX
8
1
10
66.195374
20
46.847084
0
VERTEX
8
1
10
66.639854
20
46.958221
0
VERTEX
8
1
10
66.862053
20
47.069458
0
VERTEX
8
1
10
66.917686
20
47.263794
0
VERTEX
8
1
10
67.073570
20
47.315742
42
-0.093085
0
VERTEX
8
1
10
67.136429
20
47.326942
42
-0.030163
0
VERTEX
8
1
10
67.425751
20
47.294052
42
-0.123174
0
VERTEX
8
1
10
67.665230
20
47.236900
42
-0.023214
0
VERTEX
8
1
10
67.778130
20
47.180710
0
VERTEX
8
1
10
68.111412
20
46.958572
0
VERTEX
8
1
10
68.112549
20
46.959267
0
VERTEX
8
1
10
68.195251
20
47.124680
0
VERTEX
8
1
10
68.278625
20
47.402504
0
VERTEX
8
1
10
69.889587
20
47.347076
0
SEQEND
0
POLYLINE
8
1
66
1
70
1
0
VERTEX
8
1
10
61.100910
20
43.934875
42
-0.137283
0
VERTEX
8
1
10
61.513004
20
44.529343
42
-0.202337
0
VERTEX
8
1
10
62.225662
20
44.718010
42
-0.051117
0
VERTEX
8
1
10
62.492733
20
44.660797
42
-0.106502
0
VERTEX
8
1
10
62.690182
20
44.515652
42
-0.239812
0
VERTEX
8
1
10
63.035538
20
43.426811
42
-0.118378
0
VERTEX
8
1
10
62.803600
20
42.905762
42
-0.072238
0
VERTEX
8
1
10
61.823914
20
41.876232
42
0.011992
0
VERTEX
8
1
10
61.072174
20
41.316265
0
VERTEX
8
1
10
61.057858
20
41.303581
0
VERTEX
8
1
10
61.041973
20
41.303459
42
-0.017324
0
VERTEX
8
1
10
60.511879
20
41.717476
42
-0.017813
0
VERTEX
8
1
10
59.518318
20
42.573620
42
-0.071323
0
VERTEX
8
1
10
59.277416
20
42.906075
42
-0.118364
0
VERTEX
8
1
10
59.061722
20
43.639362
42
-0.206448
0
VERTEX
8
1
10
59.394203
20
44.443916
42
-0.128817
0
VERTEX
8
1
10
59.970760
20
44.711147
42
-0.152154
0
VERTEX
8
1
10
60.590763
20
44.604919
42
-0.072084
0
VERTEX
8
1
10
60.805191
20
44.374573
42
-0.044317
0
VERTEX
8
1
10
61.093029
20
43.910553
0
SEQEND
0
POLYLINE
8
1
66
1
70
1
0
VERTEX
8
1
10
57.832989
20
45.024025
0
VERTEX
8
1
10
57.753284
20
46.673012
0
VERTEX
8
1
10
57.516132
20
46.661545
0
VERTEX
8
1
10
57.502834
20
46.936638
0
VERTEX
8
1
10
58.309147
20
46.975609
0
VERTEX
8
1
10
58.322445
20
46.700523
0
VERTEX
8
1
10
58.085293
20
46.689056
0
VERTEX
8
1
10
58.165001
20
45.040070
0
VERTEX
8
1
10
58.402149
20
45.051537
0
VERTEX
8
1
10
58.415447
20
44.776443
0
VERTEX
8
1
10
57.609135
20
44.737473
0
VERTEX
8
1
10
57.595840
20
45.012558
0
SEQEND
0
POLYLINE
8
1
66
1
70
1
0
VERTEX
8
1
10
80.836548
20
31.185890
42
-0.162926
0
VERTEX
8
1
10
81.083870
20
31.598957
42
-0.190022
0
VERTEX
8
1
10
81.488495
20
31.712980
42
-0.053492
0
VERTEX
8
1
10
81.623375
20
31.688522
0
VERTEX
8
1
10
81.649048
20
31.676117
0
VERTEX
8
1
10
81.679962
20
31.655622
42
-0.402825
0
VERTEX
8
1
10
81.876518
20
30.681938
42
-0.087673
0
VERTEX
8
1
10
81.238243
20
29.910583
42
0.021199
0
VERTEX
8
1
10
80.977921
20
29.666336
0
VERTEX
8
1
10
80.965736
20
29.664917
42
-0.025097
0
VERTEX
8
1
10
79.996025
20
30.312775
42
-0.160197
0
VERTEX
8
1
10
79.678482
20
30.870609
42
-0.216672
0
VERTEX
8
1
10
79.820557
20
31.381096
0
VERTEX
8
1
10
79.842171
20
31.401299
42
-0.295081
0
VERTEX
8
1
10
80.500916
20
31.546303
42
-0.078046
0
VERTEX
8
1
10
80.661072
20
31.402390
42
-0.036400
0
VERTEX
8
1
10
80.834686
20
31.176849
0
SEQEND
0
POLYLINE
8
1
66
1
70
1
0
VERTEX
8
1
10
78.878342
20
31.617096
0
VERTEX
8
1
10
78.729385
20
32.566483
0
VERTEX
8
1
10
78.592850
20
32.545059
0
VERTEX
8
1
10
78.568001
20
32.703438
0
VERTEX
8
1
10
79.032227
20
32.776276
0
VERTEX
8
1
10
79.057076
20
32.617897
0
VERTEX
8
1
10
78.920540
20
32.596474
0
VERTEX
8
1
10
79.069489
20
31.647087
0
VERTEX
8
1
10
79.206024
20
31.668510
0
VERTEX
8
1
10
79.230873
20
31.510132
0
VERTEX
8
1
10
78.766655
20
31.437294
0
VERTEX
8
1
10
78.741806
20
31.595673
0
SEQEND
0
ENDSEC
0
EOF
