  0
SECTION
  2
HEADER
  9
$ACADVER
  1
AC1021
  9
$ACADMAINTVER
 70
    25
  9
$DWGCODEPAGE
  3
ANSI_1252
  9
$INSBASE
 10
0.0
 20
0.0
 30
0.0
  9
$EXTMIN
 10
-13.65603149606299
 20
-11.34897244094488
 30
0.0
  9
$EXTMAX
 10
19.1865905511811
 20
5.524818897637795
 30
0.0
  9
$LIMMIN
 10
0.0
 20
0.0
  9
$LIMMAX
 10
12.0
 20
9.0
  9
$ORTHOMODE
 70
     0
  9
$REGENMODE
 70
     1
  9
$FILLMODE
 70
     1
  9
$QTEXTMODE
 70
     0
  9
$MIRRTEXT
 70
     1
  9
$LTSCALE
 40
1.0
  9
$ATTMODE
 70
     1
  9
$TEXTSIZE
 40
0.2
  9
$TRACEWID
 40
0.05
  9
$TEXTSTYLE
  7
Standard
  9
$CLAYER
  8
0
  9
$CELTYPE
  6
ByLayer
  9
$CECOLOR
 62
   256
  9
$CELTSCALE
 40
1.0
  9
$DISPSILH
 70
     0
  9
$DIMSCALE
 40
1.0
  9
$DIMASZ
 40
0.18
  9
$DIMEXO
 40
0.0625
  9
$DIMDLI
 40
0.38
  9
$DIMRND
 40
0.0
  9
$DIMDLE
 40
0.0
  9
$DIMEXE
 40
0.18
  9
$DIMTP
 40
0.0
  9
$DIMTM
 40
0.0
  9
$DIMTXT
 40
0.18
  9
$DIMCEN
 40
0.09
  9
$DIMTSZ
 40
0.0
  9
$DIMTOL
 70
     0
  9
$DIMLIM
 70
     0
  9
$DIMTIH
 70
     1
  9
$DIMTOH
 70
     1
  9
$DIMSE1
 70
     0
  9
$DIMSE2
 70
     0
  9
$DIMTAD
 70
     0
  9
$DIMZIN
 70
     0
  9
$DIMBLK
  1

  9
$DIMASO
 70
     1
  9
$DIMSHO
 70
     1
  9
$DIMPOST
  1

  9
$DIMAPOST
  1

  9
$DIMALT
 70
     0
  9
$DIMALTD
 70
     2
  9
$DIMALTF
 40
25.4
  9
$DIMLFAC
 40
1.0
  9
$DIMTOFL
 70
     0
  9
$DIMTVP
 40
0.0
  9
$DIMTIX
 70
     0
  9
$DIMSOXD
 70
     0
  9
$DIMSAH
 70
     0
  9
$DIMBLK1
  1

  9
$DIMBLK2
  1

  9
$DIMSTYLE
  2
Standard
  9
$DIMCLRD
 70
     0
  9
$DIMCLRE
 70
     0
  9
$DIMCLRT
 70
     0
  9
$DIMTFAC
 40
1.0
  9
$DIMGAP
 40
0.09
  9
$DIMJUST
 70
     0
  9
$DIMSD1
 70
     0
  9
$DIMSD2
 70
     0
  9
$DIMTOLJ
 70
     1
  9
$DIMTZIN
 70
     0
  9
$DIMALTZ
 70
     0
  9
$DIMALTTZ
 70
     0
  9
$DIMUPT
 70
     0
  9
$DIMDEC
 70
     4
  9
$DIMTDEC
 70
     4
  9
$DIMALTU
 70
     2
  9
$DIMALTTD
 70
     2
  9
$DIMTXSTY
  7
Standard
  9
$DIMAUNIT
 70
     0
  9
$DIMADEC
 70
     0
  9
$DIMALTRND
 40
0.0
  9
$DIMAZIN
 70
     0
  9
$DIMDSEP
 70
    46
  9
$DIMATFIT
 70
     3
  9
$DIMFRAC
 70
     0
  9
$DIMLDRBLK
  1

  9
$DIMLUNIT
 70
     2
  9
$DIMLWD
 70
    -2
  9
$DIMLWE
 70
    -2
  9
$DIMTMOVE
 70
     0
  9
$DIMFXL
 40
1.0
  9
$DIMFXLON
 70
     0
  9
$DIMJOGANG
 40
0.7853981633974483
  9
$DIMTFILL
 70
     0
  9
$DIMTFILLCLR
 70
     0
  9
$DIMARCSYM
 70
     0
  9
$DIMLTYPE
  6

  9
$DIMLTEX1
  6

  9
$DIMLTEX2
  6

  9
$LUNITS
 70
     2
  9
$LUPREC
 70
     4
  9
$SKETCHINC
 40
0.1
  9
$FILLETRAD
 40
0.5
  9
$AUNITS
 70
     0
  9
$AUPREC
 70
     0
  9
$MENU
  1
.
  9
$ELEVATION
 40
0.0
  9
$PELEVATION
 40
0.0
  9
$THICKNESS
 40
0.0
  9
$LIMCHECK
 70
     0
  9
$CHAMFERA
 40
0.0
  9
$CHAMFERB
 40
0.0
  9
$CHAMFERC
 40
0.0
  9
$CHAMFERD
 40
0.0
  9
$SKPOLY
 70
     0
  9
$TDCREATE
 40
2457904.654808287
  9
$TDUCREATE
 40
2457904.821474954
  9
$TDUPDATE
 40
2457904.654808322
  9
$TDUUPDATE
 40
2457904.821474988
  9
$TDINDWG
 40
0.0000000116
  9
$TDUSRTIMER
 40
0.0000000116
  9
$USRTIMER
 70
     1
  9
$ANGBASE
 50
0.0
  9
$ANGDIR
 70
     0
  9
$PDMODE
 70
     0
  9
$PDSIZE
 40
0.0
  9
$PLINEWID
 40
0.0
  9
$SPLFRAME
 70
     0
  9
$SPLINETYPE
 70
     6
  9
$SPLINESEGS
 70
     8
  9
$HANDSEED
  5
E5
  9
$SURFTAB1
 70
     6
  9
$SURFTAB2
 70
     6
  9
$SURFTYPE
 70
     6
  9
$SURFU
 70
     6
  9
$SURFV
 70
     6
  9
$UCSBASE
  2

  9
$UCSNAME
  2

  9
$UCSORG
 10
0.0
 20
0.0
 30
0.0
  9
$UCSXDIR
 10
1.0
 20
0.0
 30
0.0
  9
$UCSYDIR
 10
0.0
 20
1.0
 30
0.0
  9
$UCSORTHOREF
  2

  9
$UCSORTHOVIEW
 70
     0
  9
$UCSORGTOP
 10
0.0
 20
0.0
 30
0.0
  9
$UCSORGBOTTOM
 10
0.0
 20
0.0
 30
0.0
  9
$UCSORGLEFT
 10
0.0
 20
0.0
 30
0.0
  9
$UCSORGRIGHT
 10
0.0
 20
0.0
 30
0.0
  9
$UCSORGFRONT
 10
0.0
 20
0.0
 30
0.0
  9
$UCSORGBACK
 10
0.0
 20
0.0
 30
0.0
  9
$PUCSBASE
  2

  9
$PUCSNAME
  2

  9
$PUCSORG
 10
0.0
 20
0.0
 30
0.0
  9
$PUCSXDIR
 10
1.0
 20
0.0
 30
0.0
  9
$PUCSYDIR
 10
0.0
 20
1.0
 30
0.0
  9
$PUCSORTHOREF
  2

  9
$PUCSORTHOVIEW
 70
     0
  9
$PUCSORGTOP
 10
0.0
 20
0.0
 30
0.0
  9
$PUCSORGBOTTOM
 10
0.0
 20
0.0
 30
0.0
  9
$PUCSORGLEFT
 10
0.0
 20
0.0
 30
0.0
  9
$PUCSORGRIGHT
 10
0.0
 20
0.0
 30
0.0
  9
$PUCSORGFRONT
 10
0.0
 20
0.0
 30
0.0
  9
$PUCSORGBACK
 10
0.0
 20
0.0
 30
0.0
  9
$USERI1
 70
     0
  9
$USERI2
 70
     0
  9
$USERI3
 70
     0
  9
$USERI4
 70
     0
  9
$USERI5
 70
     0
  9
$USERR1
 40
0.0
  9
$USERR2
 40
0.0
  9
$USERR3
 40
0.0
  9
$USERR4
 40
0.0
  9
$USERR5
 40
0.0
  9
$WORLDVIEW
 70
     1
  9
$SHADEDGE
 70
     3
  9
$SHADEDIF
 70
    70
  9
$TILEMODE
 70
     1
  9
$MAXACTVP
 70
    64
  9
$PINSBASE
 10
0.0
 20
0.0
 30
0.0
  9
$PLIMCHECK
 70
     0
  9
$PEXTMIN
 10
1.000000000000000E+20
 20
1.000000000000000E+20
 30
1.000000000000000E+20
  9
$PEXTMAX
 10
-1.000000000000000E+20
 20
-1.000000000000000E+20
 30
-1.000000000000000E+20
  9
$PLIMMIN
 10
0.0
 20
0.0
  9
$PLIMMAX
 10
12.0
 20
9.0
  9
$UNITMODE
 70
     0
  9
$VISRETAIN
 70
     1
  9
$PLINEGEN
 70
     0
  9
$PSLTSCALE
 70
     1
  9
$TREEDEPTH
 70
  3020
  9
$CMLSTYLE
  2
Standard
  9
$CMLJUST
 70
     0
  9
$CMLSCALE
 40
1.0
  9
$PROXYGRAPHICS
 70
     1
  9
$MEASUREMENT
 70
     0
  9
$CELWEIGHT
370
    -1
  9
$ENDCAPS
280
     0
  9
$JOINSTYLE
280
     0
  9
$LWDISPLAY
290
     0
  9
$INSUNITS
 70
     1
  9
$HYPERLINKBASE
  1

  9
$STYLESHEET
  1

  9
$XEDIT
290
     1
  9
$CEPSNTYPE
380
     0
  9
$PSTYLEMODE
290
     1
  9
$FINGERPRINTGUID
  2
{879F6F73-64D5-4EFF-8354-A4BD1963D296}
  9
$VERSIONGUID
  2
{FAEB1C32-E019-11D5-929B-00C0DF256EC4}
  9
$EXTNAMES
290
     1
  9
$PSVPSCALE
 40
0.0
  9
$OLESTARTUP
290
     0
  9
$SORTENTS
280
   127
  9
$INDEXCTL
280
     0
  9
$HIDETEXT
280
     1
  9
$XCLIPFRAME
290
     0
  9
$HALOGAP
280
     0
  9
$OBSCOLOR
 70
   257
  9
$OBSLTYPE
280
     0
  9
$INTERSECTIONDISPLAY
280
     0
  9
$INTERSECTIONCOLOR
 70
   257
  9
$DIMASSOC
280
     2
  9
$PROJECTNAME
  1

  9
$CAMERADISPLAY
290
     0
  9
$LENSLENGTH
 40
50.0
  9
$CAMERAHEIGHT
 40
0.0
  9
$STEPSPERSEC
 40
2.0
  9
$STEPSIZE
 40
6.0
  9
$3DDWFPREC
 40
2.0
  9
$PSOLWIDTH
 40
0.25
  9
$PSOLHEIGHT
 40
4.0
  9
$LOFTANG1
 40
1.570796326794897
  9
$LOFTANG2
 40
1.570796326794897
  9
$LOFTMAG1
 40
0.0
  9
$LOFTMAG2
 40
0.0
  9
$LOFTPARAM
 70
     7
  9
$LOFTNORMALS
280
     1
  9
$LATITUDE
 40
37.795
  9
$LONGITUDE
 40
-122.394
  9
$NORTHDIRECTION
 40
0.0
  9
$TIMEZONE
 70
 -8000
  9
$LIGHTGLYPHDISPLAY
280
     1
  9
$TILEMODELIGHTSYNCH
280
     1
  9
$CMATERIAL
347
44
  9
$SOLIDHIST
280
     0
  9
$SHOWHIST
280
     1
  9
$DWFFRAME
280
     2
  9
$DGNFRAME
280
     2
  9
$REALWORLDSCALE
290
     1
  9
$INTERFERECOLOR
 62
   256
  9
$CSHADOW
280
     0
  9
$SHADOWPLANELOCATION
 40
0.0
  0
ENDSEC
  0
SECTION
  2
CLASSES
  0
CLASS
  1
ACDBDICTIONARYWDFLT
  2
AcDbDictionaryWithDefault
  3
ObjectDBX Classes
 90
        0
 91
        4
280
     0
281
     0
  0
CLASS
  1
VISUALSTYLE
  2
AcDbVisualStyle
  3
ObjectDBX Classes
 90
     4095
 91
        4
280
     0
281
     0
  0
CLASS
  1
MATERIAL
  2
AcDbMaterial
  3
ObjectDBX Classes
 90
     1153
 91
        4
280
     0
281
     0
  0
CLASS
  1
SCALE
  2
AcDbScale
  3
ObjectDBX Classes
 90
     1153
 91
        4
280
     0
281
     0
  0
CLASS
  1
TABLESTYLE
  2
AcDbTableStyle
  3
ObjectDBX Classes
 90
     4095
 91
        4
280
     0
281
     0
  0
CLASS
  1
MLEADERSTYLE
  2
AcDbMLeaderStyle
  3
ACDB_MLEADERSTYLE_CLASS
 90
     4095
 91
        4
280
     0
281
     0
  0
CLASS
  1
SUN
  2
AcDbSun
  3
SCENEOE
 90
     1153
 91
        4
280
     0
281
     0
  0
CLASS
  1
DICTIONARYVAR
  2
AcDbDictionaryVar
  3
ObjectDBX Classes
 90
        0
 91
        4
280
     0
281
     0
  0
CLASS
  1
CELLSTYLEMAP
  2
AcDbCellStyleMap
  3
ObjectDBX Classes
 90
     1152
 91
        4
280
     0
281
     0
  0
ENDSEC
  0
SECTION
  2
TABLES
  0
TABLE
  2
VPORT
  5
8
330
0
100
AcDbSymbolTable
 70
     1
  0
VPORT
  5
29
330
8
100
AcDbSymbolTableRecord
100
AcDbViewportTableRecord
  2
*Active
 70
     0
 10
0.0
 20
0.0
 11
1.0
 21
1.0
 12
10.42990654205607
 22
4.5
 13
0.0
 23
0.0
 14
0.5
 24
0.5
 15
0.5
 25
0.5
 16
0.0
 26
0.0
 36
1.0
 17
0.0
 27
0.0
 37
0.0
 40
9.0
 41
1.972972972850329
 42
50.0
 43
0.0
 44
0.0
 50
0.0
 51
0.0
 71
     0
 72
   100
 73
     1
 74
     3
 75
     0
 76
     0
 77
     0
 78
     0
281
     0
 65
     1
110
0.0
120
0.0
130
0.0
111
1.0
121
0.0
131
0.0
112
0.0
122
1.0
132
0.0
 79
     0
146
0.0
 60
     3
 61
     5
292
     1
282
     1
141
0.0
142
0.0
 63
   250
361
6D
  0
ENDTAB
  0
TABLE
  2
LTYPE
  5
5
330
0
100
AcDbSymbolTable
 70
     1
  0
LTYPE
  5
14
330
5
100
AcDbSymbolTableRecord
100
AcDbLinetypeTableRecord
  2
ByBlock
 70
     0
  3

 72
    65
 73
     0
 40
0.0
  0
LTYPE
  5
15
330
5
100
AcDbSymbolTableRecord
100
AcDbLinetypeTableRecord
  2
ByLayer
 70
     0
  3

 72
    65
 73
     0
 40
0.0
  0
LTYPE
  5
16
330
5
100
AcDbSymbolTableRecord
100
AcDbLinetypeTableRecord
  2
Continuous
 70
     0
  3
Solid line
 72
    65
 73
     0
 40
0.0
  0
ENDTAB
  0
TABLE
  2
LAYER
  5
2
330
0
100
AcDbSymbolTable
 70
     2
  0
LAYER
  5
10
330
2
100
AcDbSymbolTableRecord
100
AcDbLayerTableRecord
  2
0
 70
     0
 62
     7
  6
Continuous
370
    -3
390
F
347
46
  0
LAYER
  5
6F
330
2
100
AcDbSymbolTableRecord
100
AcDbLayerTableRecord
  2
Layer 1
 70
     0
 62
     7
  6
Continuous
370
    -3
390
F
347
46
  0
ENDTAB
  0
TABLE
  2
STYLE
  5
3
330
0
100
AcDbSymbolTable
 70
     1
  0
STYLE
  5
11
330
3
100
AcDbSymbolTableRecord
100
AcDbTextStyleTableRecord
  2
Standard
 70
     0
 40
0.0
 41
1.0
 50
0.0
 71
     0
 42
0.2
  3
txt
  4

  0
ENDTAB
  0
TABLE
  2
VIEW
  5
6
330
0
100
AcDbSymbolTable
 70
     0
  0
ENDTAB
  0
TABLE
  2
UCS
  5
7
330
0
100
AcDbSymbolTable
 70
     0
  0
ENDTAB
  0
TABLE
  2
APPID
  5
9
330
0
100
AcDbSymbolTable
 70
     3
  0
APPID
  5
12
330
9
100
AcDbSymbolTableRecord
100
AcDbRegAppTableRecord
  2
ACAD
 70
     0
  0
APPID
  5
6E
330
9
100
AcDbSymbolTableRecord
100
AcDbRegAppTableRecord
  2
ODA
 70
     0
  0
APPID
  5
DD
330
9
100
AcDbSymbolTableRecord
100
AcDbRegAppTableRecord
  2
ACAD_MLEADERVER
 70
     0
  0
ENDTAB
  0
TABLE
  2
DIMSTYLE
  5
A
330
0
100
AcDbSymbolTable
 70
     1
100
AcDbDimStyleTable
  0
DIMSTYLE
105
27
330
A
100
AcDbSymbolTableRecord
100
AcDbDimStyleTableRecord
  2
Standard
 70
     0
178
     0
340
11
  0
ENDTAB
  0
TABLE
  2
BLOCK_RECORD
  5
1
330
0
100
AcDbSymbolTable
 70
     1
  0
BLOCK_RECORD
  5
1F
330
1
100
AcDbSymbolTableRecord
100
AcDbBlockTableRecord
  2
*Model_Space
340
22
 70
     0
280
     1
281
     0
  0
BLOCK_RECORD
  5
1B
330
1
100
AcDbSymbolTableRecord
100
AcDbBlockTableRecord
  2
*Paper_Space
340
1E
 70
     0
280
     1
281
     0
  0
BLOCK_RECORD
  5
23
330
1
100
AcDbSymbolTableRecord
100
AcDbBlockTableRecord
  2
*Paper_Space0
340
26
 70
     0
280
     1
281
     0
  0
ENDTAB
  0
ENDSEC
  0
SECTION
  2
BLOCKS
  0
BLOCK
  5
20
330
1F
100
AcDbEntity
  8
0
100
AcDbBlockBegin
  2
*Model_Space
 70
     0
 10
0.0
 20
0.0
 30
0.0
  3
*Model_Space
  1
*Model_Space
  0
ENDBLK
  5
21
330
1F
100
AcDbEntity
  8
0
100
AcDbBlockEnd
  0
BLOCK
  5
1C
330
1B
100
AcDbEntity
 67
     1
  8
0
100
AcDbBlockBegin
  2
*Paper_Space
 70
     0
 10
0.0
 20
0.0
 30
0.0
  3
*Paper_Space
  1
*Paper_Space
  0
ENDBLK
  5
1D
330
1B
100
AcDbEntity
 67
     1
  8
0
100
AcDbBlockEnd
  0
BLOCK
  5
24
330
23
100
AcDbEntity
  8
0
100
AcDbBlockBegin
  2
*Paper_Space0
 70
     0
 10
0.0
 20
0.0
 30
0.0
  3
*Paper_Space0
  1
*Paper_Space0
  0
ENDBLK
  5
25
330
23
100
AcDbEntity
  8
0
100
AcDbBlockEnd
  0
ENDSEC
  0
SECTION
  2
ENTITIES
  0
SPLINE
  5
70
330
1F
100
AcDbEntity
  8
Layer 1
 62
   250
370
    18
100
AcDbSpline
210
0.0
220
0.0
230
1.0
 70
    11
 71
     3
 72
  1224
 73
  1220
 74
     0
 42
0.000000001
 43
0.0000000001
 40
0.0
 40
0.0
 40
0.0
 40
0.0
 40
0.0032679738562092
 40
0.0032679738562092
 40
0.0032679738562092
 40
0.0032679738562092
 40
0.0065359477124183
 40
0.0065359477124183
 40
0.0065359477124183
 40
0.0065359477124183
 40
0.0098039215686275
 40
0.0098039215686275
 40
0.0098039215686275
 40
0.0098039215686275
 40
0.0130718954248366
 40
0.0130718954248366
 40
0.0130718954248366
 40
0.0130718954248366
 40
0.0163398692810458
 40
0.0163398692810458
 40
0.0163398692810458
 40
0.0163398692810458
 40
0.0196078431372549
 40
0.0196078431372549
 40
0.0196078431372549
 40
0.0196078431372549
 40
0.0228758169934641
 40
0.0228758169934641
 40
0.0228758169934641
 40
0.0228758169934641
 40
0.0261437908496732
 40
0.0261437908496732
 40
0.0261437908496732
 40
0.0261437908496732
 40
0.0294117647058824
 40
0.0294117647058824
 40
0.0294117647058824
 40
0.0294117647058824
 40
0.0326797385620915
 40
0.0326797385620915
 40
0.0326797385620915
 40
0.0326797385620915
 40
0.0359477124183007
 40
0.0359477124183007
 40
0.0359477124183007
 40
0.0359477124183007
 40
0.0392156862745098
 40
0.0392156862745098
 40
0.0392156862745098
 40
0.0392156862745098
 40
0.042483660130719
 40
0.042483660130719
 40
0.042483660130719
 40
0.042483660130719
 40
0.0457516339869281
 40
0.0457516339869281
 40
0.0457516339869281
 40
0.0457516339869281
 40
0.0490196078431373
 40
0.0490196078431373
 40
0.0490196078431373
 40
0.0490196078431373
 40
0.0522875816993464
 40
0.0522875816993464
 40
0.0522875816993464
 40
0.0522875816993464
 40
0.0555555555555556
 40
0.0555555555555556
 40
0.0555555555555556
 40
0.0555555555555556
 40
0.0588235294117647
 40
0.0588235294117647
 40
0.0588235294117647
 40
0.0588235294117647
 40
0.0620915032679739
 40
0.0620915032679739
 40
0.0620915032679739
 40
0.0620915032679739
 40
0.065359477124183
 40
0.065359477124183
 40
0.065359477124183
 40
0.065359477124183
 40
0.0686274509803922
 40
0.0686274509803922
 40
0.0686274509803922
 40
0.0686274509803922
 40
0.0718954248366013
 40
0.0718954248366013
 40
0.0718954248366013
 40
0.0718954248366013
 40
0.0751633986928105
 40
0.0751633986928105
 40
0.0751633986928105
 40
0.0751633986928105
 40
0.0784313725490196
 40
0.0784313725490196
 40
0.0784313725490196
 40
0.0784313725490196
 40
0.0816993464052288
 40
0.0816993464052288
 40
0.0816993464052288
 40
0.0816993464052288
 40
0.0849673202614379
 40
0.0849673202614379
 40
0.0849673202614379
 40
0.0849673202614379
 40
0.0882352941176471
 40
0.0882352941176471
 40
0.0882352941176471
 40
0.0882352941176471
 40
0.0915032679738562
 40
0.0915032679738562
 40
0.0915032679738562
 40
0.0915032679738562
 40
0.0947712418300654
 40
0.0947712418300654
 40
0.0947712418300654
 40
0.0947712418300654
 40
0.0980392156862745
 40
0.0980392156862745
 40
0.0980392156862745
 40
0.0980392156862745
 40
0.1013071895424837
 40
0.1013071895424837
 40
0.1013071895424837
 40
0.1013071895424837
 40
0.1045751633986928
 40
0.1045751633986928
 40
0.1045751633986928
 40
0.1045751633986928
 40
0.107843137254902
 40
0.107843137254902
 40
0.107843137254902
 40
0.107843137254902
 40
0.1111111111111111
 40
0.1111111111111111
 40
0.1111111111111111
 40
0.1111111111111111
 40
0.1143790849673203
 40
0.1143790849673203
 40
0.1143790849673203
 40
0.1143790849673203
 40
0.1176470588235294
 40
0.1176470588235294
 40
0.1176470588235294
 40
0.1176470588235294
 40
0.1209150326797386
 40
0.1209150326797386
 40
0.1209150326797386
 40
0.1209150326797386
 40
0.1241830065359477
 40
0.1241830065359477
 40
0.1241830065359477
 40
0.1241830065359477
 40
0.1274509803921569
 40
0.1274509803921569
 40
0.1274509803921569
 40
0.1274509803921569
 40
0.130718954248366
 40
0.130718954248366
 40
0.130718954248366
 40
0.130718954248366
 40
0.1339869281045752
 40
0.1339869281045752
 40
0.1339869281045752
 40
0.1339869281045752
 40
0.1372549019607843
 40
0.1372549019607843
 40
0.1372549019607843
 40
0.1372549019607843
 40
0.1405228758169935
 40
0.1405228758169935
 40
0.1405228758169935
 40
0.1405228758169935
 40
0.1437908496732026
 40
0.1437908496732026
 40
0.1437908496732026
 40
0.1437908496732026
 40
0.1470588235294118
 40
0.1470588235294118
 40
0.1470588235294118
 40
0.1470588235294118
 40
0.1503267973856209
 40
0.1503267973856209
 40
0.1503267973856209
 40
0.1503267973856209
 40
0.1535947712418301
 40
0.1535947712418301
 40
0.1535947712418301
 40
0.1535947712418301
 40
0.1568627450980392
 40
0.1568627450980392
 40
0.1568627450980392
 40
0.1568627450980392
 40
0.1601307189542484
 40
0.1601307189542484
 40
0.1601307189542484
 40
0.1601307189542484
 40
0.1633986928104575
 40
0.1633986928104575
 40
0.1633986928104575
 40
0.1633986928104575
 40
0.1666666666666667
 40
0.1666666666666667
 40
0.1666666666666667
 40
0.1666666666666667
 40
0.1699346405228758
 40
0.1699346405228758
 40
0.1699346405228758
 40
0.1699346405228758
 40
0.173202614379085
 40
0.173202614379085
 40
0.173202614379085
 40
0.173202614379085
 40
0.1764705882352941
 40
0.1764705882352941
 40
0.1764705882352941
 40
0.1764705882352941
 40
0.1797385620915033
 40
0.1797385620915033
 40
0.1797385620915033
 40
0.1797385620915033
 40
0.1830065359477124
 40
0.1830065359477124
 40
0.1830065359477124
 40
0.1830065359477124
 40
0.1862745098039216
 40
0.1862745098039216
 40
0.1862745098039216
 40
0.1862745098039216
 40
0.1895424836601307
 40
0.1895424836601307
 40
0.1895424836601307
 40
0.1895424836601307
 40
0.1928104575163399
 40
0.1928104575163399
 40
0.1928104575163399
 40
0.1928104575163399
 40
0.196078431372549
 40
0.196078431372549
 40
0.196078431372549
 40
0.196078431372549
 40
0.1993464052287582
 40
0.1993464052287582
 40
0.1993464052287582
 40
0.1993464052287582
 40
0.2026143790849673
 40
0.2026143790849673
 40
0.2026143790849673
 40
0.2026143790849673
 40
0.2058823529411765
 40
0.2058823529411765
 40
0.2058823529411765
 40
0.2058823529411765
 40
0.2091503267973856
 40
0.2091503267973856
 40
0.2091503267973856
 40
0.2091503267973856
 40
0.2124183006535948
 40
0.2124183006535948
 40
0.2124183006535948
 40
0.2124183006535948
 40
0.2156862745098039
 40
0.2156862745098039
 40
0.2156862745098039
 40
0.2156862745098039
 40
0.2189542483660131
 40
0.2189542483660131
 40
0.2189542483660131
 40
0.2189542483660131
 40
0.2222222222222222
 40
0.2222222222222222
 40
0.2222222222222222
 40
0.2222222222222222
 40
0.2254901960784314
 40
0.2254901960784314
 40
0.2254901960784314
 40
0.2254901960784314
 40
0.2287581699346405
 40
0.2287581699346405
 40
0.2287581699346405
 40
0.2287581699346405
 40
0.2320261437908497
 40
0.2320261437908497
 40
0.2320261437908497
 40
0.2320261437908497
 40
0.2352941176470588
 40
0.2352941176470588
 40
0.2352941176470588
 40
0.2352941176470588
 40
0.238562091503268
 40
0.238562091503268
 40
0.238562091503268
 40
0.238562091503268
 40
0.2418300653594771
 40
0.2418300653594771
 40
0.2418300653594771
 40
0.2418300653594771
 40
0.2450980392156863
 40
0.2450980392156863
 40
0.2450980392156863
 40
0.2450980392156863
 40
0.2483660130718954
 40
0.2483660130718954
 40
0.2483660130718954
 40
0.2483660130718954
 40
0.2516339869281046
 40
0.2516339869281046
 40
0.2516339869281046
 40
0.2516339869281046
 40
0.2549019607843137
 40
0.2549019607843137
 40
0.2549019607843137
 40
0.2549019607843137
 40
0.2581699346405229
 40
0.2581699346405229
 40
0.2581699346405229
 40
0.2581699346405229
 40
0.261437908496732
 40
0.261437908496732
 40
0.261437908496732
 40
0.261437908496732
 40
0.2647058823529412
 40
0.2647058823529412
 40
0.2647058823529412
 40
0.2647058823529412
 40
0.2679738562091503
 40
0.2679738562091503
 40
0.2679738562091503
 40
0.2679738562091503
 40
0.2712418300653595
 40
0.2712418300653595
 40
0.2712418300653595
 40
0.2712418300653595
 40
0.2745098039215687
 40
0.2745098039215687
 40
0.2745098039215687
 40
0.2745098039215687
 40
0.2777777777777778
 40
0.2777777777777778
 40
0.2777777777777778
 40
0.2777777777777778
 40
0.2810457516339869
 40
0.2810457516339869
 40
0.2810457516339869
 40
0.2810457516339869
 40
0.2843137254901961
 40
0.2843137254901961
 40
0.2843137254901961
 40
0.2843137254901961
 40
0.2875816993464052
 40
0.2875816993464052
 40
0.2875816993464052
 40
0.2875816993464052
 40
0.2908496732026144
 40
0.2908496732026144
 40
0.2908496732026144
 40
0.2908496732026144
 40
0.2941176470588235
 40
0.2941176470588235
 40
0.2941176470588235
 40
0.2941176470588235
 40
0.2973856209150327
 40
0.2973856209150327
 40
0.2973856209150327
 40
0.2973856209150327
 40
0.3006535947712418
 40
0.3006535947712418
 40
0.3006535947712418
 40
0.3006535947712418
 40
0.303921568627451
 40
0.303921568627451
 40
0.303921568627451
 40
0.303921568627451
 40
0.3071895424836601
 40
0.3071895424836601
 40
0.3071895424836601
 40
0.3071895424836601
 40
0.3104575163398693
 40
0.3104575163398693
 40
0.3104575163398693
 40
0.3104575163398693
 40
0.3137254901960784
 40
0.3137254901960784
 40
0.3137254901960784
 40
0.3137254901960784
 40
0.3169934640522876
 40
0.3169934640522876
 40
0.3169934640522876
 40
0.3169934640522876
 40
0.3202614379084967
 40
0.3202614379084967
 40
0.3202614379084967
 40
0.3202614379084967
 40
0.3235294117647059
 40
0.3235294117647059
 40
0.3235294117647059
 40
0.3235294117647059
 40
0.326797385620915
 40
0.326797385620915
 40
0.326797385620915
 40
0.326797385620915
 40
0.3300653594771242
 40
0.3300653594771242
 40
0.3300653594771242
 40
0.3300653594771242
 40
0.3333333333333333
 40
0.3333333333333333
 40
0.3333333333333333
 40
0.3333333333333333
 40
0.3366013071895425
 40
0.3366013071895425
 40
0.3366013071895425
 40
0.3366013071895425
 40
0.3398692810457516
 40
0.3398692810457516
 40
0.3398692810457516
 40
0.3398692810457516
 40
0.3431372549019608
 40
0.3431372549019608
 40
0.3431372549019608
 40
0.3431372549019608
 40
0.3464052287581699
 40
0.3464052287581699
 40
0.3464052287581699
 40
0.3464052287581699
 40
0.3496732026143791
 40
0.3496732026143791
 40
0.3496732026143791
 40
0.3496732026143791
 40
0.3529411764705883
 40
0.3529411764705883
 40
0.3529411764705883
 40
0.3529411764705883
 40
0.3562091503267974
 40
0.3562091503267974
 40
0.3562091503267974
 40
0.3562091503267974
 40
0.3594771241830065
 40
0.3594771241830065
 40
0.3594771241830065
 40
0.3594771241830065
 40
0.3627450980392157
 40
0.3627450980392157
 40
0.3627450980392157
 40
0.3627450980392157
 40
0.3660130718954248
 40
0.3660130718954248
 40
0.3660130718954248
 40
0.3660130718954248
 40
0.369281045751634
 40
0.369281045751634
 40
0.369281045751634
 40
0.369281045751634
 40
0.3725490196078431
 40
0.3725490196078431
 40
0.3725490196078431
 40
0.3725490196078431
 40
0.3758169934640523
 40
0.3758169934640523
 40
0.3758169934640523
 40
0.3758169934640523
 40
0.3790849673202614
 40
0.3790849673202614
 40
0.3790849673202614
 40
0.3790849673202614
 40
0.3823529411764706
 40
0.3823529411764706
 40
0.3823529411764706
 40
0.3823529411764706
 40
0.3856209150326798
 40
0.3856209150326798
 40
0.3856209150326798
 40
0.3856209150326798
 40
0.3888888888888889
 40
0.3888888888888889
 40
0.3888888888888889
 40
0.3888888888888889
 40
0.392156862745098
 40
0.392156862745098
 40
0.392156862745098
 40
0.392156862745098
 40
0.3954248366013072
 40
0.3954248366013072
 40
0.3954248366013072
 40
0.3954248366013072
 40
0.3986928104575164
 40
0.3986928104575164
 40
0.3986928104575164
 40
0.3986928104575164
 40
0.4019607843137255
 40
0.4019607843137255
 40
0.4019607843137255
 40
0.4019607843137255
 40
0.4052287581699346
 40
0.4052287581699346
 40
0.4052287581699346
 40
0.4052287581699346
 40
0.4084967320261438
 40
0.4084967320261438
 40
0.4084967320261438
 40
0.4084967320261438
 40
0.4117647058823529
 40
0.4117647058823529
 40
0.4117647058823529
 40
0.4117647058823529
 40
0.4150326797385621
 40
0.4150326797385621
 40
0.4150326797385621
 40
0.4150326797385621
 40
0.4183006535947713
 40
0.4183006535947713
 40
0.4183006535947713
 40
0.4183006535947713
 40
0.4215686274509804
 40
0.4215686274509804
 40
0.4215686274509804
 40
0.4215686274509804
 40
0.4248366013071895
 40
0.4248366013071895
 40
0.4248366013071895
 40
0.4248366013071895
 40
0.4281045751633987
 40
0.4281045751633987
 40
0.4281045751633987
 40
0.4281045751633987
 40
0.4313725490196079
 40
0.4313725490196079
 40
0.4313725490196079
 40
0.4313725490196079
 40
0.434640522875817
 40
0.434640522875817
 40
0.434640522875817
 40
0.434640522875817
 40
0.4379084967320261
 40
0.4379084967320261
 40
0.4379084967320261
 40
0.4379084967320261
 40
0.4411764705882353
 40
0.4411764705882353
 40
0.4411764705882353
 40
0.4411764705882353
 40
0.4444444444444444
 40
0.4444444444444444
 40
0.4444444444444444
 40
0.4444444444444444
 40
0.4477124183006536
 40
0.4477124183006536
 40
0.4477124183006536
 40
0.4477124183006536
 40
0.4509803921568628
 40
0.4509803921568628
 40
0.4509803921568628
 40
0.4509803921568628
 40
0.4542483660130719
 40
0.4542483660130719
 40
0.4542483660130719
 40
0.4542483660130719
 40
0.457516339869281
 40
0.457516339869281
 40
0.457516339869281
 40
0.457516339869281
 40
0.4607843137254902
 40
0.4607843137254902
 40
0.4607843137254902
 40
0.4607843137254902
 40
0.4640522875816994
 40
0.4640522875816994
 40
0.4640522875816994
 40
0.4640522875816994
 40
0.4673202614379085
 40
0.4673202614379085
 40
0.4673202614379085
 40
0.4673202614379085
 40
0.4705882352941176
 40
0.4705882352941176
 40
0.4705882352941176
 40
0.4705882352941176
 40
0.4738562091503268
 40
0.4738562091503268
 40
0.4738562091503268
 40
0.4738562091503268
 40
0.477124183006536
 40
0.477124183006536
 40
0.477124183006536
 40
0.477124183006536
 40
0.4803921568627451
 40
0.4803921568627451
 40
0.4803921568627451
 40
0.4803921568627451
 40
0.4836601307189543
 40
0.4836601307189543
 40
0.4836601307189543
 40
0.4836601307189543
 40
0.4869281045751634
 40
0.4869281045751634
 40
0.4869281045751634
 40
0.4869281045751634
 40
0.4901960784313725
 40
0.4901960784313725
 40
0.4901960784313725
 40
0.4901960784313725
 40
0.4934640522875817
 40
0.4934640522875817
 40
0.4934640522875817
 40
0.4934640522875817
 40
0.4967320261437909
 40
0.4967320261437909
 40
0.4967320261437909
 40
0.4967320261437909
 40
0.5
 40
0.5
 40
0.5
 40
0.5
 40
0.5032679738562091
 40
0.5032679738562091
 40
0.5032679738562091
 40
0.5032679738562091
 40
0.5065359477124183
 40
0.5065359477124183
 40
0.5065359477124183
 40
0.5065359477124183
 40
0.5098039215686274
 40
0.5098039215686274
 40
0.5098039215686274
 40
0.5098039215686274
 40
0.5130718954248366
 40
0.5130718954248366
 40
0.5130718954248366
 40
0.5130718954248366
 40
0.5163398692810458
 40
0.5163398692810458
 40
0.5163398692810458
 40
0.5163398692810458
 40
0.5196078431372549
 40
0.5196078431372549
 40
0.5196078431372549
 40
0.5196078431372549
 40
0.5228758169934641
 40
0.5228758169934641
 40
0.5228758169934641
 40
0.5228758169934641
 40
0.5261437908496732
 40
0.5261437908496732
 40
0.5261437908496732
 40
0.5261437908496732
 40
0.5294117647058824
 40
0.5294117647058824
 40
0.5294117647058824
 40
0.5294117647058824
 40
0.5326797385620915
 40
0.5326797385620915
 40
0.5326797385620915
 40
0.5326797385620915
 40
0.5359477124183006
 40
0.5359477124183006
 40
0.5359477124183006
 40
0.5359477124183006
 40
0.5392156862745098
 40
0.5392156862745098
 40
0.5392156862745098
 40
0.5392156862745098
 40
0.5424836601307189
 40
0.5424836601307189
 40
0.5424836601307189
 40
0.5424836601307189
 40
0.545751633986928
 40
0.545751633986928
 40
0.545751633986928
 40
0.545751633986928
 40
0.5490196078431373
 40
0.5490196078431373
 40
0.5490196078431373
 40
0.5490196078431373
 40
0.5522875816993464
 40
0.5522875816993464
 40
0.5522875816993464
 40
0.5522875816993464
 40
0.5555555555555556
 40
0.5555555555555556
 40
0.5555555555555556
 40
0.5555555555555556
 40
0.5588235294117647
 40
0.5588235294117647
 40
0.5588235294117647
 40
0.5588235294117647
 40
0.5620915032679739
 40
0.5620915032679739
 40
0.5620915032679739
 40
0.5620915032679739
 40
0.565359477124183
 40
0.565359477124183
 40
0.565359477124183
 40
0.565359477124183
 40
0.5686274509803921
 40
0.5686274509803921
 40
0.5686274509803921
 40
0.5686274509803921
 40
0.5718954248366013
 40
0.5718954248366013
 40
0.5718954248366013
 40
0.5718954248366013
 40
0.5751633986928104
 40
0.5751633986928104
 40
0.5751633986928104
 40
0.5751633986928104
 40
0.5784313725490197
 40
0.5784313725490197
 40
0.5784313725490197
 40
0.5784313725490197
 40
0.5816993464052288
 40
0.5816993464052288
 40
0.5816993464052288
 40
0.5816993464052288
 40
0.5849673202614379
 40
0.5849673202614379
 40
0.5849673202614379
 40
0.5849673202614379
 40
0.5882352941176471
 40
0.5882352941176471
 40
0.5882352941176471
 40
0.5882352941176471
 40
0.5915032679738562
 40
0.5915032679738562
 40
0.5915032679738562
 40
0.5915032679738562
 40
0.5947712418300654
 40
0.5947712418300654
 40
0.5947712418300654
 40
0.5947712418300654
 40
0.5980392156862745
 40
0.5980392156862745
 40
0.5980392156862745
 40
0.5980392156862745
 40
0.6013071895424836
 40
0.6013071895424836
 40
0.6013071895424836
 40
0.6013071895424836
 40
0.6045751633986928
 40
0.6045751633986928
 40
0.6045751633986928
 40
0.6045751633986928
 40
0.6078431372549019
 40
0.6078431372549019
 40
0.6078431372549019
 40
0.6078431372549019
 40
0.6111111111111112
 40
0.6111111111111112
 40
0.6111111111111112
 40
0.6111111111111112
 40
0.6143790849673203
 40
0.6143790849673203
 40
0.6143790849673203
 40
0.6143790849673203
 40
0.6176470588235294
 40
0.6176470588235294
 40
0.6176470588235294
 40
0.6176470588235294
 40
0.6209150326797386
 40
0.6209150326797386
 40
0.6209150326797386
 40
0.6209150326797386
 40
0.6241830065359477
 40
0.6241830065359477
 40
0.6241830065359477
 40
0.6241830065359477
 40
0.6274509803921569
 40
0.6274509803921569
 40
0.6274509803921569
 40
0.6274509803921569
 40
0.630718954248366
 40
0.630718954248366
 40
0.630718954248366
 40
0.630718954248366
 40
0.6339869281045751
 40
0.6339869281045751
 40
0.6339869281045751
 40
0.6339869281045751
 40
0.6372549019607843
 40
0.6372549019607843
 40
0.6372549019607843
 40
0.6372549019607843
 40
0.6405228758169934
 40
0.6405228758169934
 40
0.6405228758169934
 40
0.6405228758169934
 40
0.6437908496732027
 40
0.6437908496732027
 40
0.6437908496732027
 40
0.6437908496732027
 40
0.6470588235294118
 40
0.6470588235294118
 40
0.6470588235294118
 40
0.6470588235294118
 40
0.6503267973856209
 40
0.6503267973856209
 40
0.6503267973856209
 40
0.6503267973856209
 40
0.6535947712418301
 40
0.6535947712418301
 40
0.6535947712418301
 40
0.6535947712418301
 40
0.6568627450980392
 40
0.6568627450980392
 40
0.6568627450980392
 40
0.6568627450980392
 40
0.6601307189542484
 40
0.6601307189542484
 40
0.6601307189542484
 40
0.6601307189542484
 40
0.6633986928104575
 40
0.6633986928104575
 40
0.6633986928104575
 40
0.6633986928104575
 40
0.6666666666666666
 40
0.6666666666666666
 40
0.6666666666666666
 40
0.6666666666666666
 40
0.6699346405228758
 40
0.6699346405228758
 40
0.6699346405228758
 40
0.6699346405228758
 40
0.673202614379085
 40
0.673202614379085
 40
0.673202614379085
 40
0.673202614379085
 40
0.6764705882352942
 40
0.6764705882352942
 40
0.6764705882352942
 40
0.6764705882352942
 40
0.6797385620915033
 40
0.6797385620915033
 40
0.6797385620915033
 40
0.6797385620915033
 40
0.6830065359477124
 40
0.6830065359477124
 40
0.6830065359477124
 40
0.6830065359477124
 40
0.6862745098039216
 40
0.6862745098039216
 40
0.6862745098039216
 40
0.6862745098039216
 40
0.6895424836601307
 40
0.6895424836601307
 40
0.6895424836601307
 40
0.6895424836601307
 40
0.6928104575163399
 40
0.6928104575163399
 40
0.6928104575163399
 40
0.6928104575163399
 40
0.696078431372549
 40
0.696078431372549
 40
0.696078431372549
 40
0.696078431372549
 40
0.6993464052287581
 40
0.6993464052287581
 40
0.6993464052287581
 40
0.6993464052287581
 40
0.7026143790849673
 40
0.7026143790849673
 40
0.7026143790849673
 40
0.7026143790849673
 40
0.7058823529411765
 40
0.7058823529411765
 40
0.7058823529411765
 40
0.7058823529411765
 40
0.7091503267973857
 40
0.7091503267973857
 40
0.7091503267973857
 40
0.7091503267973857
 40
0.7124183006535948
 40
0.7124183006535948
 40
0.7124183006535948
 40
0.7124183006535948
 40
0.7156862745098039
 40
0.7156862745098039
 40
0.7156862745098039
 40
0.7156862745098039
 40
0.7189542483660131
 40
0.7189542483660131
 40
0.7189542483660131
 40
0.7189542483660131
 40
0.7222222222222222
 40
0.7222222222222222
 40
0.7222222222222222
 40
0.7222222222222222
 40
0.7254901960784313
 40
0.7254901960784313
 40
0.7254901960784313
 40
0.7254901960784313
 40
0.7287581699346405
 40
0.7287581699346405
 40
0.7287581699346405
 40
0.7287581699346405
 40
0.7320261437908496
 40
0.7320261437908496
 40
0.7320261437908496
 40
0.7320261437908496
 40
0.7352941176470589
 40
0.7352941176470589
 40
0.7352941176470589
 40
0.7352941176470589
 40
0.738562091503268
 40
0.738562091503268
 40
0.738562091503268
 40
0.738562091503268
 40
0.7418300653594772
 40
0.7418300653594772
 40
0.7418300653594772
 40
0.7418300653594772
 40
0.7450980392156863
 40
0.7450980392156863
 40
0.7450980392156863
 40
0.7450980392156863
 40
0.7483660130718954
 40
0.7483660130718954
 40
0.7483660130718954
 40
0.7483660130718954
 40
0.7516339869281046
 40
0.7516339869281046
 40
0.7516339869281046
 40
0.7516339869281046
 40
0.7549019607843137
 40
0.7549019607843137
 40
0.7549019607843137
 40
0.7549019607843137
 40
0.7581699346405228
 40
0.7581699346405228
 40
0.7581699346405228
 40
0.7581699346405228
 40
0.761437908496732
 40
0.761437908496732
 40
0.761437908496732
 40
0.761437908496732
 40
0.7647058823529411
 40
0.7647058823529411
 40
0.7647058823529411
 40
0.7647058823529411
 40
0.7679738562091504
 40
0.7679738562091504
 40
0.7679738562091504
 40
0.7679738562091504
 40
0.7712418300653595
 40
0.7712418300653595
 40
0.7712418300653595
 40
0.7712418300653595
 40
0.7745098039215687
 40
0.7745098039215687
 40
0.7745098039215687
 40
0.7745098039215687
 40
0.7777777777777778
 40
0.7777777777777778
 40
0.7777777777777778
 40
0.7777777777777778
 40
0.7810457516339869
 40
0.7810457516339869
 40
0.7810457516339869
 40
0.7810457516339869
 40
0.7843137254901961
 40
0.7843137254901961
 40
0.7843137254901961
 40
0.7843137254901961
 40
0.7875816993464052
 40
0.7875816993464052
 40
0.7875816993464052
 40
0.7875816993464052
 40
0.7908496732026143
 40
0.7908496732026143
 40
0.7908496732026143
 40
0.7908496732026143
 40
0.7941176470588235
 40
0.7941176470588235
 40
0.7941176470588235
 40
0.7941176470588235
 40
0.7973856209150327
 40
0.7973856209150327
 40
0.7973856209150327
 40
0.7973856209150327
 40
0.8006535947712419
 40
0.8006535947712419
 40
0.8006535947712419
 40
0.8006535947712419
 40
0.803921568627451
 40
0.803921568627451
 40
0.803921568627451
 40
0.803921568627451
 40
0.8071895424836601
 40
0.8071895424836601
 40
0.8071895424836601
 40
0.8071895424836601
 40
0.8104575163398693
 40
0.8104575163398693
 40
0.8104575163398693
 40
0.8104575163398693
 40
0.8137254901960784
 40
0.8137254901960784
 40
0.8137254901960784
 40
0.8137254901960784
 40
0.8169934640522876
 40
0.8169934640522876
 40
0.8169934640522876
 40
0.8169934640522876
 40
0.8202614379084967
 40
0.8202614379084967
 40
0.8202614379084967
 40
0.8202614379084967
 40
0.8235294117647058
 40
0.8235294117647058
 40
0.8235294117647058
 40
0.8235294117647058
 40
0.826797385620915
 40
0.826797385620915
 40
0.826797385620915
 40
0.826797385620915
 40
0.8300653594771242
 40
0.8300653594771242
 40
0.8300653594771242
 40
0.8300653594771242
 40
0.8333333333333334
 40
0.8333333333333334
 40
0.8333333333333334
 40
0.8333333333333334
 40
0.8366013071895425
 40
0.8366013071895425
 40
0.8366013071895425
 40
0.8366013071895425
 40
0.8398692810457516
 40
0.8398692810457516
 40
0.8398692810457516
 40
0.8398692810457516
 40
0.8431372549019608
 40
0.8431372549019608
 40
0.8431372549019608
 40
0.8431372549019608
 40
0.8464052287581699
 40
0.8464052287581699
 40
0.8464052287581699
 40
0.8464052287581699
 40
0.8496732026143791
 40
0.8496732026143791
 40
0.8496732026143791
 40
0.8496732026143791
 40
0.8529411764705882
 40
0.8529411764705882
 40
0.8529411764705882
 40
0.8529411764705882
 40
0.8562091503267973
 40
0.8562091503267973
 40
0.8562091503267973
 40
0.8562091503267973
 40
0.8594771241830066
 40
0.8594771241830066
 40
0.8594771241830066
 40
0.8594771241830066
 40
0.8627450980392157
 40
0.8627450980392157
 40
0.8627450980392157
 40
0.8627450980392157
 40
0.8660130718954249
 40
0.8660130718954249
 40
0.8660130718954249
 40
0.8660130718954249
 40
0.869281045751634
 40
0.869281045751634
 40
0.869281045751634
 40
0.869281045751634
 40
0.8725490196078431
 40
0.8725490196078431
 40
0.8725490196078431
 40
0.8725490196078431
 40
0.8758169934640523
 40
0.8758169934640523
 40
0.8758169934640523
 40
0.8758169934640523
 40
0.8790849673202614
 40
0.8790849673202614
 40
0.8790849673202614
 40
0.8790849673202614
 40
0.8823529411764706
 40
0.8823529411764706
 40
0.8823529411764706
 40
0.8823529411764706
 40
0.8856209150326797
 40
0.8856209150326797
 40
0.8856209150326797
 40
0.8856209150326797
 40
0.8888888888888888
 40
0.8888888888888888
 40
0.8888888888888888
 40
0.8888888888888888
 40
0.8921568627450981
 40
0.8921568627450981
 40
0.8921568627450981
 40
0.8921568627450981
 40
0.8954248366013072
 40
0.8954248366013072
 40
0.8954248366013072
 40
0.8954248366013072
 40
0.8986928104575164
 40
0.8986928104575164
 40
0.8986928104575164
 40
0.8986928104575164
 40
0.9019607843137255
 40
0.9019607843137255
 40
0.9019607843137255
 40
0.9019607843137255
 40
0.9052287581699346
 40
0.9052287581699346
 40
0.9052287581699346
 40
0.9052287581699346
 40
0.9084967320261438
 40
0.9084967320261438
 40
0.9084967320261438
 40
0.9084967320261438
 40
0.9117647058823529
 40
0.9117647058823529
 40
0.9117647058823529
 40
0.9117647058823529
 40
0.9150326797385621
 40
0.9150326797385621
 40
0.9150326797385621
 40
0.9150326797385621
 40
0.9183006535947712
 40
0.9183006535947712
 40
0.9183006535947712
 40
0.9183006535947712
 40
0.9215686274509803
 40
0.9215686274509803
 40
0.9215686274509803
 40
0.9215686274509803
 40
0.9248366013071896
 40
0.9248366013071896
 40
0.9248366013071896
 40
0.9248366013071896
 40
0.9281045751633987
 40
0.9281045751633987
 40
0.9281045751633987
 40
0.9281045751633987
 40
0.9313725490196079
 40
0.9313725490196079
 40
0.9313725490196079
 40
0.9313725490196079
 40
0.934640522875817
 40
0.934640522875817
 40
0.934640522875817
 40
0.934640522875817
 40
0.9379084967320261
 40
0.9379084967320261
 40
0.9379084967320261
 40
0.9379084967320261
 40
0.9411764705882353
 40
0.9411764705882353
 40
0.9411764705882353
 40
0.9411764705882353
 40
0.9444444444444444
 40
0.9444444444444444
 40
0.9444444444444444
 40
0.9444444444444444
 40
0.9477124183006536
 40
0.9477124183006536
 40
0.9477124183006536
 40
0.9477124183006536
 40
0.9509803921568627
 40
0.9509803921568627
 40
0.9509803921568627
 40
0.9509803921568627
 40
0.954248366013072
 40
0.954248366013072
 40
0.954248366013072
 40
0.954248366013072
 40
0.9575163398692811
 40
0.9575163398692811
 40
0.9575163398692811
 40
0.9575163398692811
 40
0.9607843137254902
 40
0.9607843137254902
 40
0.9607843137254902
 40
0.9607843137254902
 40
0.9640522875816994
 40
0.9640522875816994
 40
0.9640522875816994
 40
0.9640522875816994
 40
0.9673202614379085
 40
0.9673202614379085
 40
0.9673202614379085
 40
0.9673202614379085
 40
0.9705882352941176
 40
0.9705882352941176
 40
0.9705882352941176
 40
0.9705882352941176
 40
0.9738562091503268
 40
0.9738562091503268
 40
0.9738562091503268
 40
0.9738562091503268
 40
0.9771241830065359
 40
0.9771241830065359
 40
0.9771241830065359
 40
0.9771241830065359
 40
0.9803921568627451
 40
0.9803921568627451
 40
0.9803921568627451
 40
0.9803921568627451
 40
0.9836601307189542
 40
0.9836601307189542
 40
0.9836601307189542
 40
0.9836601307189542
 40
0.9869281045751634
 40
0.9869281045751634
 40
0.9869281045751634
 40
0.9869281045751634
 40
0.9901960784313726
 40
0.9901960784313726
 40
0.9901960784313726
 40
0.9901960784313726
 40
0.9934640522875817
 40
0.9934640522875817
 40
0.9934640522875817
 40
0.9934640522875817
 40
1.0
 40
1.0
 40
1.0
 40
1.0
 10
9.216889763779527
 20
0.1844448818897638
 30
0.0
 10
9.287724409448819
 20
0.1761141732283465
 30
0.0
 10
9.307169291338584
 20
0.1719448818897638
 30
0.0
 10
9.579385826771654
 20
0.1823582677165354
 30
0.0
 10
9.579385826771654
 20
0.1823582677165354
 30
0.0
 10
9.851606299212598
 20
0.1927755905511811
 30
0.0
 10
10.37659448818898
 20
0.2177755905511811
 30
0.0
 10
11.54881496062992
 20
0.2580511811023622
 30
0.0
 10
11.54881496062992
 20
0.2580511811023622
 30
0.0
 10
12.72103543307087
 20
0.2983267716535433
 30
0.0
 10
14.54048031496063
 20
0.3538858267716535
 30
0.0
 10
15.96270472440945
 20
0.4066614173228347
 30
0.0
 10
15.96270472440945
 20
0.4066614173228347
 30
0.0
 10
17.26815748031496
 20
0.4551062992125984
 30
0.0
 10
18.23893700787401
 20
0.5012125984251968
 30
0.0
 10
19.18224015748032
 20
0.5471220472440945
 30
0.0
 10
19.18224015748032
 20
0.5471220472440945
 30
0.0
 10
19.17816929133858
 20
0.5283149606299212
 30
0.0
 10
19.17292519685039
 20
0.5115
 30
0.0
 10
19.16583464566929
 20
0.4978267716535433
 30
0.0
 10
19.16583464566929
 20
0.4978267716535433
 30
0.0
 10
19.14638976377953
 20
0.4603267716535433
 30
0.0
 10
19.11305905511811
 20
0.4464370078740157
 30
0.0
 10
18.97277952755906
 20
0.4283818897637796
 30
0.0
 10
18.97277952755906
 20
0.4283818897637796
 30
0.0
 10
18.8325
 20
0.4103267716535433
 30
0.0
 10
18.58527952755906
 20
0.3881023622047244
 30
0.0
 10
16.95055118110236
 20
0.3033779527559055
 30
0.0
 10
16.95055118110236
 20
0.3033779527559055
 30
0.0
 10
15.31582677165354
 20
0.2186574803149606
 30
0.0
 10
12.29360236220472
 20
0.0714370078740157
 30
0.0
 10
10.68248818897638
 20
-0.0063385826771654
 30
0.0
 10
10.68248818897638
 20
-0.0063385826771654
 30
0.0
 10
9.071377952755906
 20
-0.0841141732283465
 30
0.0
 10
8.871377952755905
 20
-0.0924448818897638
 30
0.0
 10
8.74082283464567
 20
-0.1007755905511811
 30
0.0
 10
8.74082283464567
 20
-0.1007755905511811
 30
0.0
 10
8.610271653543307
 20
-0.1091062992125984
 30
0.0
 10
8.54915748031496
 20
-0.1174370078740157
 30
0.0
 10
8.51165748031496
 20
-0.1299370078740157
 30
0.0
 10
8.51165748031496
 20
-0.1299370078740157
 30
0.0
 10
8.474157480314961
 20
-0.1424370078740158
 30
0.0
 10
8.460271653543307
 20
-0.1591062992125984
 30
0.0
 10
8.440826771653544
 20
-0.1757716535433071
 30
0.0
 10
8.440826771653544
 20
-0.1757716535433071
 30
0.0
 10
8.42138188976378
 20
-0.1924370078740157
 30
0.0
 10
8.396381889763779
 20
-0.2091062992125984
 30
0.0
 10
8.365129921259843
 20
-0.2097992125984252
 30
0.0
 10
8.365129921259843
 20
-0.2097992125984252
 30
0.0
 10
8.333881889763779
 20
-0.210496062992126
 30
0.0
 10
8.296377952755906
 20
-0.1952165354330709
 30
0.0
 10
8.268598425196851
 20
-0.1709094488188976
 30
0.0
 10
8.268598425196851
 20
-0.1709094488188976
 30
0.0
 10
8.24082283464567
 20
-0.1466062992125984
 30
0.0
 10
8.222767716535433
 20
-0.1132755905511811
 30
0.0
 10
8.202629921259842
 20
-0.1014685039370079
 30
0.0
 10
8.202629921259842
 20
-0.1014685039370079
 30
0.0
 10
8.182492125984252
 20
-0.0896614173228346
 30
0.0
 10
8.160267716535433
 20
-0.0993858267716535
 30
0.0
 10
8.151240157480315
 20
-0.1285511811023622
 30
0.0
 10
8.151240157480315
 20
-0.1285511811023622
 30
0.0
 10
8.142212598425196
 20
-0.1577165354330709
 30
0.0
 10
8.146381889763779
 20
-0.2063307086614173
 30
0.0
 10
8.14082283464567
 20
-0.2236889763779528
 30
0.0
 10
8.14082283464567
 20
-0.2236889763779528
 30
0.0
 10
8.135267716535433
 20
-0.2410511811023622
 30
0.0
 10
8.119992125984252
 20
-0.2271614173228347
 30
0.0
 10
8.095685039370078
 20
-0.2091062992125984
 30
0.0
 10
8.095685039370078
 20
-0.2091062992125984
 30
0.0
 10
8.071377952755906
 20
-0.1910511811023622
 30
0.0
 10
8.038047244094487
 20
-0.1688267716535433
 30
0.0
 10
8.009574803149606
 20
-0.1625748031496063
 30
0.0
 10
8.009574803149606
 20
-0.1625748031496063
 30
0.0
 10
7.981102362204725
 20
-0.1563267716535433
 30
0.0
 10
7.957488188976378
 20
-0.1660511811023622
 30
0.0
 10
7.949153543307086
 20
-0.1827165354330709
 30
0.0
 10
7.949153543307086
 20
-0.1827165354330709
 30
0.0
 10
7.940822834645669
 20
-0.1993818897637795
 30
0.0
 10
7.947767716535433
 20
-0.222996062992126
 30
0.0
 10
7.952629921259843
 20
-0.2472992125984252
 30
0.0
 10
7.952629921259843
 20
-0.2472992125984252
 30
0.0
 10
7.957492125984252
 20
-0.2716062992125984
 30
0.0
 10
7.960267716535433
 20
-0.2966062992125984
 30
0.0
 10
7.908185039370078
 20
-0.3049370078740157
 30
0.0
 10
7.908185039370078
 20
-0.3049370078740157
 30
0.0
 10
7.856102362204725
 20
-0.3132716535433071
 30
0.0
 10
7.749157480314961
 20
-0.3049409448818898
 30
0.0
 10
7.669295275590551
 20
-0.2841062992125984
 30
0.0
 10
7.669295275590551
 20
-0.2841062992125984
 30
0.0
 10
7.589433070866142
 20
-0.2632716535433071
 30
0.0
 10
7.53665748031496
 20
-0.2299409448818898
 30
0.0
 10
7.498456692913386
 20
-0.2226811023622047
 30
0.0
 10
7.498456692913386
 20
-0.2226811023622047
 30
0.0
 10
7.460259842519685
 20
-0.2154212598425197
 30
0.0
 10
7.436645669291338
 20
-0.2342362204724409
 30
0.0
 10
7.413027559055118
 20
-0.2530511811023622
 30
0.0
 10
7.413027559055118
 20
-0.2530511811023622
 30
0.0
 10
7.415807086614174
 20
-0.4648582677165354
 30
0.0
 10
7.418582677165355
 20
-0.6766653543307086
 30
0.0
 10
7.426566929133858
 20
-0.7797913385826771
 30
0.0
 10
7.426566929133858
 20
-0.7797913385826771
 30
0.0
 10
7.434555118110236
 20
-0.8829173228346456
 30
0.0
 10
7.447751968503937
 20
-0.8773582677165355
 30
0.0
 10
7.555736220472441
 20
-0.839511811023622
 30
0.0
 10
7.555736220472441
 20
-0.839511811023622
 30
0.0
 10
7.663724409448819
 20
-0.8016653543307086
 30
0.0
 10
7.866503937007874
 20
-0.7315236220472441
 30
0.0
 10
7.974141732283464
 20
-0.6919409448818897
 30
0.0
 10
7.974141732283464
 20
-0.6919409448818897
 30
0.0
 10
8.081783464566929
 20
-0.6523582677165354
 30
0.0
 10
8.09428346456693
 20
-0.6433307086614173
 30
0.0
 10
8.154700787401575
 20
-0.5721496062992126
 30
0.0
 10
8.154700787401575
 20
-0.5721496062992126
 30
0.0
 10
8.21511811023622
 20
-0.5009685039370079
 30
0.0
 10
8.323448818897639
 20
-0.3676338582677166
 30
0.0
 10
8.380393700787401
 20
-0.3023543307086614
 30
0.0
 10
8.380393700787401
 20
-0.3023543307086614
 30
0.0
 10
8.437338582677166
 20
-0.2370787401574803
 30
0.0
 10
8.442897637795276
 20
-0.2398543307086614
 30
0.0
 10
8.450188976377953
 20
-0.2440196850393701
 30
0.0
 10
8.450188976377953
 20
-0.2440196850393701
 30
0.0
 10
8.45748031496063
 20
-0.2481889763779528
 30
0.0
 10
8.466507874015749
 20
-0.253744094488189
 30
0.0
 10
8.459562992125985
 20
-0.2686732283464567
 30
0.0
 10
8.459562992125985
 20
-0.2686732283464567
 30
0.0
 10
8.452618110236221
 20
-0.2836062992125984
 30
0.0
 10
8.429700787401575
 20
-0.3079094488188976
 30
0.0
 10
8.377964566929133
 20
-0.3929803149606299
 30
0.0
 10
8.377964566929133
 20
-0.3929803149606299
 30
0.0
 10
8.326228346456693
 20
-0.4780511811023622
 30
0.0
 10
8.245669291338583
 20
-0.6238858267716535
 30
0.0
 10
8.20782283464567
 20
-0.703748031496063
 30
0.0
 10
8.20782283464567
 20
-0.703748031496063
 30
0.0
 10
8.169976377952755
 20
-0.7836102362204724
 30
0.0
 10
8.174838582677165
 20
-0.7974960629921259
 30
0.0
 10
8.188031496062992
 20
-0.8322165354330708
 30
0.0
 10
8.188031496062992
 20
-0.8322165354330708
 30
0.0
 10
8.201228346456693
 20
-0.8669409448818898
 30
0.0
 10
8.22275590551181
 20
-0.9225
 30
0.0
 10
8.23942125984252
 20
-0.9499291338582677
 30
0.0
 10
8.23942125984252
 20
-0.9499291338582677
 30
0.0
 10
8.256090551181103
 20
-0.9773622047244095
 30
0.0
 10
8.267893700787402
 20
-0.9766653543307087
 30
0.0
 10
8.38455905511811
 20
-0.9829133858267717
 30
0.0
 10
8.38455905511811
 20
-0.9829133858267717
 30
0.0
 10
8.501228346456694
 20
-0.9891653543307086
 30
0.0
 10
8.722759842519684
 20
-1.002362204724409
 30
0.0
 10
8.907133858267716
 20
-1.014511811023622
 30
0.0
 10
8.907133858267716
 20
-1.014511811023622
 30
0.0
 10
9.091511811023622
 20
-1.026665354330709
 30
0.0
 10
9.238732283464566
 20
-1.037779527559055
 30
0.0
 10
9.427968503937008
 20
-1.058610236220472
 30
0.0
 10
9.427968503937008
 20
-1.058610236220472
 30
0.0
 10
9.617208661417322
 20
-1.07944094488189
 30
0.0
 10
9.848456692913386
 20
-1.109996062992126
 30
0.0
 10
9.98144094488189
 20
-1.123881889763779
 30
0.0
 10
9.98144094488189
 20
-1.123881889763779
 30
0.0
 10
10.11442913385827
 20
-1.137767716535433
 30
0.0
 10
10.14915354330709
 20
-1.134992125984252
 30
0.0
 10
10.16234645669291
 20
-1.110685039370079
 30
0.0
 10
10.16234645669291
 20
-1.110685039370079
 30
0.0
 10
10.17553937007874
 20
-1.086377952755905
 30
0.0
 10
10.16720866141732
 20
-1.040547244094488
 30
0.0
 10
10.16651181102362
 20
-1.007905511811024
 30
0.0
 10
10.16651181102362
 20
-1.007905511811024
 30
0.0
 10
10.1658188976378
 20
-0.9752677165354331
 30
0.0
 10
10.17276377952756
 20
-0.9558228346456693
 30
0.0
 10
10.19220866141732
 20
-0.9433228346456692
 30
0.0
 10
10.19220866141732
 20
-0.9433228346456692
 30
0.0
 10
10.21165354330709
 20
-0.9308228346456693
 30
0.0
 10
10.24359842519685
 20
-0.925267716535433
 30
0.0
 10
10.2665157480315
 20
-0.9342952755905511
 30
0.0
 10
10.2665157480315
 20
-0.9342952755905511
 30
0.0
 10
10.28943307086614
 20
-0.9433228346456692
 30
0.0
 10
10.3033188976378
 20
-0.9669370078740157
 30
0.0
 10
10.30887401574803
 20
-0.9898503937007874
 30
0.0
 10
10.30887401574803
 20
-0.9898503937007874
 30
0.0
 10
10.31442913385827
 20
-1.012767716535433
 30
0.0
 10
10.31165354330709
 20
-1.034992125984252
 30
0.0
 10
10.31859448818898
 20
-1.047492125984252
 30
0.0
 10
10.31859448818898
 20
-1.047492125984252
 30
0.0
 10
10.32553937007874
 20
-1.059992125984252
 30
0.0
 10
10.34220866141732
 20
-1.062767716535433
 30
0.0
 10
10.3581811023622
 20
-1.076657480314961
 30
0.0
 10
10.3581811023622
 20
-1.076657480314961
 30
0.0
 10
10.37415354330709
 20
-1.090547244094488
 30
0.0
 10
10.38942913385827
 20
-1.115547244094488
 30
0.0
 10
10.4158188976378
 20
-1.139157480314961
 30
0.0
 10
10.4158188976378
 20
-1.139157480314961
 30
0.0
 10
10.44220866141732
 20
-1.162767716535433
 30
0.0
 10
10.47970866141732
 20
-1.184992125984252
 30
0.0
 10
10.53387401574803
 20
-1.203047244094488
 30
0.0
 10
10.53387401574803
 20
-1.203047244094488
 30
0.0
 10
10.58804330708661
 20
-1.221102362204724
 30
0.0
 10
10.65887401574803
 20
-1.234988188976378
 30
0.0
 10
10.71165354330709
 20
-1.262070866141732
 30
0.0
 10
10.71165354330709
 20
-1.262070866141732
 30
0.0
 10
10.76443307086614
 20
-1.289157480314961
 30
0.0
 10
10.79915354330709
 20
-1.329433070866142
 30
0.0
 10
10.83526377952756
 20
-1.354433070866142
 30
0.0
 10
10.83526377952756
 20
-1.354433070866142
 30
0.0
 10
10.87137795275591
 20
-1.379437007874016
 30
0.0
 10
10.9088779527559
 20
-1.389157480314961
 30
0.0
 10
11.01998818897638
 20
-1.418322834645669
 30
0.0
 10
11.01998818897638
 20
-1.418322834645669
 30
0.0
 10
11.13110236220473
 20
-1.447492125984252
 30
0.0
 10
11.31582283464567
 20
-1.496102362204724
 30
0.0
 10
11.43179527559055
 20
-1.525267716535433
 30
0.0
 10
11.43179527559055
 20
-1.525267716535433
 30
0.0
 10
11.54776771653543
 20
-1.554433070866142
 30
0.0
 10
11.59498818897638
 20
-1.564157480314961
 30
0.0
 10
11.68457086614173
 20
-1.571795275590551
 30
0.0
 10
11.68457086614173
 20
-1.571795275590551
 30
0.0
 10
11.77415354330709
 20
-1.579433070866142
 30
0.0
 10
11.90609842519685
 20
-1.584988188976378
 30
0.0
 10
12.04290157480315
 20
-1.612070866141732
 30
0.0
 10
12.04290157480315
 20
-1.612070866141732
 30
0.0
 10
12.17970866141732
 20
-1.639153543307087
 30
0.0
 10
12.32137795275591
 20
-1.687767716535433
 30
0.0
 10
12.46859842519685
 20
-1.753043307086614
 30
0.0
 10
12.46859842519685
 20
-1.753043307086614
 30
0.0
 10
12.61582283464567
 20
-1.818322834645669
 30
0.0
 10
12.76859842519685
 20
-1.900267716535433
 30
0.0
 10
12.89429133858268
 20
-2.006515748031496
 30
0.0
 10
12.89429133858268
 20
-2.006515748031496
 30
0.0
 10
13.01998818897638
 20
-2.112767716535433
 30
0.0
 10
13.11860236220472
 20
-2.243326771653543
 30
0.0
 10
13.21443307086614
 20
-2.38151968503937
 30
0.0
 10
13.21443307086614
 20
-2.38151968503937
 30
0.0
 10
13.31026771653543
 20
-2.519716535433071
 30
0.0
 10
13.40332677165354
 20
-2.665547244094488
 30
0.0
 10
13.46165748031496
 20
-2.740547244094488
 30
0.0
 10
13.46165748031496
 20
-2.740547244094488
 30
0.0
 10
13.51999212598425
 20
-2.815547244094488
 30
0.0
 10
13.5436062992126
 20
-2.819716535433071
 30
0.0
 10
13.64013385826772
 20
-2.875964566929134
 30
0.0
 10
13.64013385826772
 20
-2.875964566929134
 30
0.0
 10
13.73666141732283
 20
-2.932216535433071
 30
0.0
 10
13.9061062992126
 20
-3.040547244094488
 30
0.0
 10
14.00749606299213
 20
-3.114157480314961
 30
0.0
 10
14.00749606299213
 20
-3.114157480314961
 30
0.0
 10
14.10888582677165
 20
-3.187771653543307
 30
0.0
 10
14.14221653543307
 20
-3.226661417322835
 30
0.0
 10
14.20263385826772
 20
-3.291244094488189
 30
0.0
 10
14.20263385826772
 20
-3.291244094488189
 30
0.0
 10
14.26305118110236
 20
-3.355830708661417
 30
0.0
 10
14.35055118110236
 20
-3.446106299212599
 30
0.0
 10
14.40818897637795
 20
-3.534996062992126
 30
0.0
 10
14.40818897637795
 20
-3.534996062992126
 30
0.0
 10
14.46583070866142
 20
-3.623885826771653
 30
0.0
 10
14.4936062992126
 20
-3.711385826771654
 30
0.0
 10
14.51027165354331
 20
-3.808606299212598
 30
0.0
 10
14.51027165354331
 20
-3.808606299212598
 30
0.0
 10
14.52694094488189
 20
-3.905830708661417
 30
0.0
 10
14.53249606299213
 20
-4.012775590551181
 30
0.0
 10
14.51999606299213
 20
-4.126665354330709
 30
0.0
 10
14.51999606299213
 20
-4.126665354330709
 30
0.0
 10
14.50749606299213
 20
-4.240555118110236
 30
0.0
 10
14.47694094488189
 20
-4.361385826771653
 30
0.0
 10
14.41305118110236
 20
-4.512775590551181
 30
0.0
 10
14.41305118110236
 20
-4.512775590551181
 30
0.0
 10
14.34916141732283
 20
-4.664165354330708
 30
0.0
 10
14.25194094488189
 20
-4.846110236220473
 30
0.0
 10
14.14916141732284
 20
-4.991944881889764
 30
0.0
 10
14.14916141732284
 20
-4.991944881889764
 30
0.0
 10
14.04638188976378
 20
-5.137779527559055
 30
0.0
 10
13.93805118110236
 20
-5.2475
 30
0.0
 10
13.85124409448819
 20
-5.324582677165354
 30
0.0
 10
13.85124409448819
 20
-5.324582677165354
 30
0.0
 10
13.76443700787402
 20
-5.401669291338583
 30
0.0
 10
13.69916141732283
 20
-5.446114173228347
 30
0.0
 10
13.67277165354331
 20
-5.483614173228347
 30
0.0
 10
13.67277165354331
 20
-5.483614173228347
 30
0.0
 10
13.64638188976378
 20
-5.521114173228346
 30
0.0
 10
13.65888188976378
 20
-5.551669291338583
 30
0.0
 10
13.65401968503937
 20
-5.596114173228346
 30
0.0
 10
13.65401968503937
 20
-5.596114173228346
 30
0.0
 10
13.64916141732284
 20
-5.640559055118111
 30
0.0
 10
13.62693700787402
 20
-5.698889763779528
 30
0.0
 10
13.5679094488189
 20
-5.783610236220473
 30
0.0
 10
13.5679094488189
 20
-5.783610236220473
 30
0.0
 10
13.50888188976378
 20
-5.868334645669291
 30
0.0
 10
13.41304724409449
 20
-5.979448818897637
 30
0.0
 10
13.27832283464567
 20
-6.087779527559055
 30
0.0
 10
13.27832283464567
 20
-6.087779527559055
 30
0.0
 10
13.14360236220472
 20
-6.196114173228347
 30
0.0
 10
12.96998818897638
 20
-6.301673228346456
 30
0.0
 10
12.84498818897638
 20
-6.372503937007874
 30
0.0
 10
12.84498818897638
 20
-6.372503937007874
 30
0.0
 10
12.71998818897638
 20
-6.443338582677165
 30
0.0
 10
12.64360236220472
 20
-6.479448818897637
 30
0.0
 10
12.55193307086614
 20
-6.487779527559055
 30
0.0
 10
12.55193307086614
 20
-6.487779527559055
 30
0.0
 10
12.46026771653543
 20
-6.496114173228347
 30
0.0
 10
12.35332283464567
 20
-6.476673228346456
 30
0.0
 10
12.29707086614173
 20
-6.476673228346456
 30
0.0
 10
12.29707086614173
 20
-6.476673228346456
 30
0.0
 10
12.24082283464567
 20
-6.476673228346456
 30
0.0
 10
12.23526377952756
 20
-6.496114173228347
 30
0.0
 10
12.21512598425197
 20
-6.525976377952756
 30
0.0
 10
12.21512598425197
 20
-6.525976377952756
 30
0.0
 10
12.19498818897638
 20
-6.555838582677166
 30
0.0
 10
12.16026377952756
 20
-6.596114173228346
 30
0.0
 10
12.1449842519685
 20
-6.60792125984252
 30
0.0
 10
12.1449842519685
 20
-6.60792125984252
 30
0.0
 10
12.12970866141732
 20
-6.619728346456693
 30
0.0
 10
12.13387795275591
 20
-6.60305905511811
 30
0.0
 10
12.13040551181102
 20
-6.577366141732283
 30
0.0
 10
12.13040551181102
 20
-6.577366141732283
 30
0.0
 10
12.12693307086614
 20
-6.551673228346456
 30
0.0
 10
12.1158188976378
 20
-6.516948818897638
 30
0.0
 10
12.10887401574803
 20
-6.510003937007874
 30
0.0
 10
12.10887401574803
 20
-6.510003937007874
 30
0.0
 10
12.10193307086614
 20
-6.503062992125984
 30
0.0
 10
12.09915354330709
 20
-6.523893700787402
 30
0.0
 10
12.0956811023622
 20
-6.548196850393701
 30
0.0
 10
12.0956811023622
 20
-6.548196850393701
 30
0.0
 10
12.0922125984252
 20
-6.572503937007874
 30
0.0
 10
12.08804330708661
 20
-6.600283464566929
 30
0.0
 10
12.05679133858268
 20
-6.625976377952756
 30
0.0
 10
12.05679133858268
 20
-6.625976377952756
 30
0.0
 10
12.02554330708661
 20
-6.651669291338583
 30
0.0
 10
11.9672125984252
 20
-6.675283464566929
 30
0.0
 10
11.9297125984252
 20
-6.6856968503937
 30
0.0
 10
11.9297125984252
 20
-6.6856968503937
 30
0.0
 10
11.8922125984252
 20
-6.696114173228347
 30
0.0
 10
11.87554330708661
 20
-6.693338582677165
 30
0.0
 10
11.85748818897638
 20
-6.696811023622047
 30
0.0
 10
11.85748818897638
 20
-6.696811023622047
 30
0.0
 10
11.83943307086614
 20
-6.700283464566929
 30
0.0
 10
11.81998818897638
 20
-6.710003937007874
 30
0.0
 10
11.80123622047244
 20
-6.735696850393701
 30
0.0
 10
11.80123622047244
 20
-6.735696850393701
 30
0.0
 10
11.78248818897638
 20
-6.761393700787401
 30
0.0
 10
11.76442913385827
 20
-6.803062992125985
 30
0.0
 10
11.74151181102362
 20
-6.850283464566929
 30
0.0
 10
11.74151181102362
 20
-6.850283464566929
 30
0.0
 10
11.71859842519685
 20
-6.897503937007874
 30
0.0
 10
11.6908188976378
 20
-6.950279527559055
 30
0.0
 10
11.6824842519685
 20
-6.980834645669291
 30
0.0
 10
11.6824842519685
 20
-6.980834645669291
 30
0.0
 10
11.67415354330709
 20
-7.011389763779528
 30
0.0
 10
11.68526377952756
 20
-7.019720472440945
 30
0.0
 10
11.70887401574803
 20
-7.035692913385827
 30
0.0
 10
11.70887401574803
 20
-7.035692913385827
 30
0.0
 10
11.7324842519685
 20
-7.051665354330709
 30
0.0
 10
11.76859842519685
 20
-7.075279527559055
 30
0.0
 10
11.8040157480315
 20
-7.123889763779528
 30
0.0
 10
11.8040157480315
 20
-7.123889763779528
 30
0.0
 10
11.83943307086614
 20
-7.1725
 30
0.0
 10
11.87415354330709
 20
-7.246114173228347
 30
0.0
 10
11.9033188976378
 20
-7.335
 30
0.0
 10
11.9033188976378
 20
-7.335
 30
0.0
 10
11.93248818897638
 20
-7.423889763779528
 30
0.0
 10
11.95609842519685
 20
-7.52805905511811
 30
0.0
 10
11.96234645669291
 20
-7.632917322834646
 30
0.0
 10
11.96234645669291
 20
-7.632917322834646
 30
0.0
 10
11.96859842519685
 20
-7.737779527559055
 30
0.0
 10
11.95748818897638
 20
-7.843334645669291
 30
0.0
 10
11.93596062992126
 20
-7.946110236220473
 30
0.0
 10
11.93596062992126
 20
-7.946110236220473
 30
0.0
 10
11.91443307086614
 20
-8.048889763779528
 30
0.0
 10
11.88248818897638
 20
-8.1488937007874
 30
0.0
 10
11.82831889763779
 20
-8.243338582677165
 30
0.0
 10
11.82831889763779
 20
-8.243338582677165
 30
0.0
 10
11.77415354330709
 20
-8.337783464566929
 30
0.0
 10
11.69776377952756
 20
-8.426669291338582
 30
0.0
 10
11.62414960629921
 20
-8.483614173228347
 30
0.0
 10
11.62414960629921
 20
-8.483614173228347
 30
0.0
 10
11.55053937007874
 20
-8.540559055118111
 30
0.0
 10
11.47970866141732
 20
-8.56555905511811
 30
0.0
 10
11.40053937007874
 20
-8.575279527559054
 30
0.0
 10
11.40053937007874
 20
-8.575279527559054
 30
0.0
 10
11.32137401574803
 20
-8.585003937007874
 30
0.0
 10
11.23387401574803
 20
-8.579448818897637
 30
0.0
 10
11.14984645669291
 20
-8.549586614173228
 30
0.0
 10
11.14984645669291
 20
-8.549586614173228
 30
0.0
 10
11.0658188976378
 20
-8.519728346456693
 30
0.0
 10
10.98526377952756
 20
-8.46555905511811
 30
0.0
 10
10.92345669291339
 20
-8.392641732283465
 30
0.0
 10
10.92345669291339
 20
-8.392641732283465
 30
0.0
 10
10.86165354330709
 20
-8.319724409448819
 30
0.0
 10
10.81859448818898
 20
-8.228059055118111
 30
0.0
 10
10.7901220472441
 20
-8.134307086614173
 30
0.0
 10
10.7901220472441
 20
-8.134307086614173
 30
0.0
 10
10.76164960629921
 20
-8.040555118110236
 30
0.0
 10
10.74776377952756
 20
-7.944724409448819
 30
0.0
 10
10.73873622047244
 20
-7.890555118110236
 30
0.0
 10
10.73873622047244
 20
-7.890555118110236
 30
0.0
 10
10.72970866141732
 20
-7.836389763779527
 30
0.0
 10
10.72553937007874
 20
-7.823889763779528
 30
0.0
 10
10.71790157480315
 20
-7.806527559055118
 30
0.0
 10
10.71790157480315
 20
-7.806527559055118
 30
0.0
 10
10.71026377952756
 20
-7.789169291338583
 30
0.0
 10
10.69914960629921
 20
-7.766944881889764
 30
0.0
 10
10.68664960629921
 20
-7.608610236220472
 30
0.0
 10
10.68664960629921
 20
-7.608610236220472
 30
0.0
 10
10.67555905511811
 20
-7.468133858267716
 30
0.0
 10
10.66337401574803
 20
-7.220507874015748
 30
0.0
 10
10.65107086614173
 20
-6.960799212598425
 30
0.0
 10
10.65107086614173
 20
-6.960799212598425
 30
0.0
 10
10.65050393700787
 20
-6.948822834645669
 30
0.0
 10
10.65048031496063
 20
-6.948366141732284
 30
0.0
 10
10.64006692913386
 20
-6.946909448818897
 30
0.0
 10
10.64006692913386
 20
-6.946909448818897
 30
0.0
 10
10.62965354330709
 20
-6.945456692913385
 30
0.0
 10
10.60884251968504
 20
-6.943003937007874
 30
0.0
 10
10.59982677165354
 20
-6.895251968503937
 30
0.0
 10
10.59982677165354
 20
-6.895251968503937
 30
0.0
 10
10.59081102362205
 20
-6.8475
 30
0.0
 10
10.5935905511811
 20
-6.754444881889764
 30
0.0
 10
10.59567322834646
 20
-6.699582677165354
 30
0.0
 10
10.59567322834646
 20
-6.699582677165354
 30
0.0
 10
10.59775590551181
 20
-6.644724409448819
 30
0.0
 10
10.59914566929134
 20
-6.628055118110236
 30
0.0
 10
10.32761811023622
 20
-6.691248031496063
 30
0.0
 10
10.32761811023622
 20
-6.691248031496063
 30
0.0
 10
10.0560905511811
 20
-6.754444881889764
 30
0.0
 10
9.511645669291338
 20
-6.8975
 30
0.0
 10
8.967200787401575
 20
-7.040555118110237
 30
0.0
 10
8.967200787401575
 20
-7.040555118110237
 30
0.0
 10
8.967200787401575
 20
-7.040555118110237
 30
0.0
 10
6.212507874015748
 20
-7.832515748031496
 30
0.0
 10
6.212507874015748
 20
-7.832515748031496
 30
0.0
 10
6.212507874015748
 20
-7.832515748031496
 30
0.0
 10
6.155740157480315
 20
-7.896295275590552
 30
0.0
 10
6.098972440944882
 20
-7.960074803149606
 30
0.0
 10
6.035866141732283
 20
-8.011409448818897
 30
0.0
 10
6.035866141732283
 20
-8.011409448818897
 30
0.0
 10
5.972759842519685
 20
-8.062744094488188
 30
0.0
 10
5.903314960629921
 20
-8.101629921259843
 30
0.0
 10
5.817200787401575
 20
-8.121074803149606
 30
0.0
 10
5.817200787401575
 20
-8.121074803149606
 30
0.0
 10
5.731090551181103
 20
-8.14051968503937
 30
0.0
 10
5.628314960629921
 20
-8.14051968503937
 30
0.0
 10
5.538035433070866
 20
-8.114129921259842
 30
0.0
 10
5.538035433070866
 20
-8.114129921259842
 30
0.0
 10
5.447759842519685
 20
-8.087744094488189
 30
0.0
 10
5.36998031496063
 20
-8.034964566929133
 30
0.0
 10
5.326925196850394
 20
-8.007185039370079
 30
0.0
 10
5.326925196850394
 20
-8.007185039370079
 30
0.0
 10
5.283870078740158
 20
-7.979409448818898
 30
0.0
 10
5.275535433070866
 20
-7.976633858267716
 30
0.0
 10
4.835259842519685
 20
-8.021074803149606
 30
0.0
 10
4.835259842519685
 20
-8.021074803149606
 30
0.0
 10
4.404744094488189
 20
-8.064531496062992
 30
0.0
 10
3.561228346456693
 20
-8.153149606299213
 30
0.0
 10
2.708555118110236
 20
-8.24275590551181
 30
0.0
 10
2.708555118110236
 20
-8.24275590551181
 30
0.0
 10
2.703275590551181
 20
-8.257185039370079
 30
0.0
 10
2.698051181102362
 20
-8.27042125984252
 30
0.0
 10
2.692909448818898
 20
-8.281799212598425
 30
0.0
 10
2.692909448818898
 20
-8.281799212598425
 30
0.0
 10
2.678326771653543
 20
-8.314094488188976
 30
0.0
 10
2.66444094488189
 20
-8.331452755905511
 30
0.0
 10
2.648881889763779
 20
-8.346708661417322
 30
0.0
 10
2.648881889763779
 20
-8.346708661417322
 30
0.0
 10
2.633322834645669
 20
-8.361968503937009
 30
0.0
 10
2.616090551181102
 20
-8.375122047244094
 30
0.0
 10
2.598862204724409
 20
-8.388275590551181
 30
0.0
 10
2.598862204724409
 20
-8.388275590551181
 30
0.0
 10
1.900157480314961
 20
-8.530287401574803
 30
0.0
 10
1.219708661417323
 20
-8.668850393700787
 30
0.0
 10
0.7206889763779527
 20
-8.773149606299212
 30
0.0
 10
0.7206889763779527
 20
-8.773149606299212
 30
0.0
 10
0.1658267716535433
 20
-8.889122047244095
 30
0.0
 10
-0.1647322834645669
 20
-8.962736220472442
 30
0.0
 10
-0.3522322834645669
 20
-8.998846456692913
 30
0.0
 10
-0.3522322834645669
 20
-8.998846456692913
 30
0.0
 10
-0.5397322834645669
 20
-9.034956692913386
 30
0.0
 10
-0.5841771653543307
 20
-9.033570866141732
 30
0.0
 10
-0.6008425196850393
 20
-9.023153543307087
 30
0.0
 10
-0.6008425196850393
 20
-9.023153543307087
 30
0.0
 10
-0.6175118110236221
 20
-9.01273622047244
 30
0.0
 10
-0.6063976377952756
 20
-8.993291338582678
 30
0.0
 10
-0.6029251968503937
 20
-8.977318897637796
 30
0.0
 10
-0.6029251968503937
 20
-8.977318897637796
 30
0.0
 10
-0.5994527559055118
 20
-8.961346456692914
 30
0.0
 10
-0.6036220472440945
 20
-8.948846456692914
 30
0.0
 10
-0.6131102362204724
 20
-8.933015748031496
 30
0.0
 10
-0.6131102362204724
 20
-8.933015748031496
 30
0.0
 10
-0.6225984251968504
 20
-8.917185039370079
 30
0.0
 10
-0.6374055118110237
 20
-8.898023622047244
 30
0.0
 10
-0.6522165354330709
 20
-8.87886220472441
 30
0.0
 10
-0.6522165354330709
 20
-8.87886220472441
 30
0.0
 10
-0.7670354330708662
 20
-8.898925196850394
 30
0.0
 10
-0.8709448818897638
 20
-8.91753937007874
 30
0.0
 10
-1.007102362204724
 20
-8.966208661417323
 30
0.0
 10
-1.007102362204724
 20
-8.966208661417323
 30
0.0
 10
-1.160574803149606
 20
-9.021070866141732
 30
0.0
 10
-1.35501968503937
 20
-9.114129921259842
 30
0.0
 10
-1.48001968503937
 20
-9.178015748031497
 30
0.0
 10
-1.48001968503937
 20
-9.178015748031497
 30
0.0
 10
-1.60501968503937
 20
-9.241905511811023
 30
0.0
 10
-1.660574803149606
 20
-9.276629921259843
 30
0.0
 10
-1.731405511811024
 20
-9.420377952755906
 30
0.0
 10
-1.731405511811024
 20
-9.420377952755906
 30
0.0
 10
-1.802240157480315
 20
-9.564129921259843
 30
0.0
 10
-1.888354330708661
 20
-9.816905511811024
 30
0.0
 10
-1.954326771653543
 20
-9.973850393700788
 30
0.0
 10
-1.954326771653543
 20
-9.973850393700788
 30
0.0
 10
-2.020299212598425
 20
-10.13079527559055
 30
0.0
 10
-2.066129921259843
 20
-10.1919094488189
 30
0.0
 10
-2.105712598425197
 20
-10.23010236220472
 30
0.0
 10
-2.105712598425197
 20
-10.23010236220472
 30
0.0
 10
-2.145299212598425
 20
-10.26829921259842
 30
0.0
 10
-2.178629921259843
 20
-10.28357480314961
 30
0.0
 10
-2.18765748031496
 20
-10.30996456692913
 30
0.0
 10
-2.18765748031496
 20
-10.30996456692913
 30
0.0
 10
-2.196685039370079
 20
-10.33635433070866
 30
0.0
 10
-2.181409448818898
 20
-10.37385433070866
 30
0.0
 10
-2.18001968503937
 20
-10.40788188976378
 30
0.0
 10
-2.18001968503937
 20
-10.40788188976378
 30
0.0
 10
-2.178629921259843
 20
-10.4419094488189
 30
0.0
 10
-2.191133858267717
 20
-10.47246456692913
 30
0.0
 10
-2.190437007874016
 20
-10.49538188976378
 30
0.0
 10
-2.190437007874016
 20
-10.49538188976378
 30
0.0
 10
-2.189744094488189
 20
-10.51829921259842
 30
0.0
 10
-2.175854330708662
 20
-10.53357480314961
 30
0.0
 10
-2.175157480314961
 20
-10.57385433070866
 30
0.0
 10
-2.175157480314961
 20
-10.57385433070866
 30
0.0
 10
-2.174464566929134
 20
-10.61413385826772
 30
0.0
 10
-2.186964566929134
 20
-10.6794094488189
 30
0.0
 10
-2.206409448818897
 20
-10.71968897637795
 30
0.0
 10
-2.206409448818897
 20
-10.71968897637795
 30
0.0
 10
-2.225854330708661
 20
-10.75996850393701
 30
0.0
 10
-2.252244094488189
 20
-10.77524409448819
 30
0.0
 10
-2.269606299212598
 20
-10.85718897637795
 30
0.0
 10
-2.269606299212598
 20
-10.85718897637795
 30
0.0
 10
-2.286968503937008
 20
-10.93913385826772
 30
0.0
 10
-2.295299212598425
 20
-11.08774803149606
 30
0.0
 10
-2.346688976377953
 20
-11.18566141732284
 30
0.0
 10
-2.346688976377953
 20
-11.18566141732284
 30
0.0
 10
-2.39807874015748
 20
-11.28357874015748
 30
0.0
 10
-2.49251968503937
 20
-11.3308031496063
 30
0.0
 10
-2.586267716535433
 20
-11.3426062992126
 30
0.0
 10
-2.586267716535433
 20
-11.3426062992126
 30
0.0
 10
-2.68001968503937
 20
-11.35441338582677
 30
0.0
 10
-2.77307874015748
 20
-11.33079921259842
 30
0.0
 10
-2.825161417322835
 20
-11.25996456692913
 30
0.0
 10
-2.825161417322835
 20
-11.25996456692913
 30
0.0
 10
-2.877244094488189
 20
-11.18913385826772
 30
0.0
 10
-2.888358267716535
 20
-11.07107874015748
 30
0.0
 10
-2.891133858267716
 20
-10.96968897637795
 30
0.0
 10
-2.891133858267716
 20
-10.96968897637795
 30
0.0
 10
-2.893913385826772
 20
-10.86829921259842
 30
0.0
 10
-2.888354330708661
 20
-10.78357874015748
 30
0.0
 10
-2.820992125984252
 20
-10.69538188976378
 30
0.0
 10
-2.820992125984252
 20
-10.69538188976378
 30
0.0
 10
-2.753633858267717
 20
-10.60718897637795
 30
0.0
 10
-2.624464566929134
 20
-10.51551968503937
 30
0.0
 10
-2.554326771653543
 20
-10.45788188976378
 30
0.0
 10
-2.554326771653543
 20
-10.45788188976378
 30
0.0
 10
-2.484188976377953
 20
-10.40024409448819
 30
0.0
 10
-2.473074803149606
 20
-10.37662992125984
 30
0.0
 10
-2.477937007874016
 20
-10.3287125984252
 30
0.0
 10
-2.477937007874016
 20
-10.3287125984252
 30
0.0
 10
-2.482799212598425
 20
-10.28079921259843
 30
0.0
 10
-2.503629921259843
 20
-10.20857480314961
 30
0.0
 10
-2.512657480314961
 20
-10.16135039370079
 30
0.0
 10
-2.512657480314961
 20
-10.16135039370079
 30
0.0
 10
-2.521688976377953
 20
-10.11412992125984
 30
0.0
 10
-2.518909448818897
 20
-10.0919094488189
 30
0.0
 10
-2.502244094488189
 20
-10.07524015748031
 30
0.0
 10
-2.502244094488189
 20
-10.07524015748031
 30
0.0
 10
-2.48557874015748
 20
-10.05857480314961
 30
0.0
 10
-2.45501968503937
 20
-10.04746456692913
 30
0.0
 10
-2.424464566929134
 20
-10.0412125984252
 30
0.0
 10
-2.424464566929134
 20
-10.0412125984252
 30
0.0
 10
-2.393909448818897
 20
-10.03496456692913
 30
0.0
 10
-2.363354330708662
 20
-10.03357480314961
 30
0.0
 10
-2.345992125984252
 20
-10.03079527559055
 30
0.0
 10
-2.345992125984252
 20
-10.03079527559055
 30
0.0
 10
-2.328633858267716
 20
-10.02801968503937
 30
0.0
 10
-2.324464566929134
 20
-10.02385039370079
 30
0.0
 10
-2.287657480314961
 20
-9.944685039370079
 30
0.0
 10
-2.287657480314961
 20
-9.944685039370079
 30
0.0
 10
-2.250854330708661
 20
-9.86551968503937
 30
0.0
 10
-2.181409448818898
 20
-9.711350393700787
 30
0.0
 10
-2.123767716535433
 20
-9.580795275590551
 30
0.0
 10
-2.123767716535433
 20
-9.580795275590551
 30
0.0
 10
-2.066129921259843
 20
-9.450240157480314
 30
0.0
 10
-2.020299212598425
 20
-9.34329527559055
 30
0.0
 10
-2.018909448818897
 20
-9.28496062992126
 30
0.0
 10
-2.018909448818897
 20
-9.28496062992126
 30
0.0
 10
-2.01751968503937
 20
-9.226629921259843
 30
0.0
 10
-2.060574803149606
 20
-9.216905511811024
 30
0.0
 10
-2.291822834645669
 20
-9.19746062992126
 30
0.0
 10
-2.291822834645669
 20
-9.19746062992126
 30
0.0
 10
-2.523074803149606
 20
-9.17801968503937
 30
0.0
 10
-2.942523622047244
 20
-9.148850393700787
 30
0.0
 10
-3.167523622047244
 20
-9.135653543307086
 30
0.0
 10
-3.167523622047244
 20
-9.135653543307086
 30
0.0
 10
-3.392523622047244
 20
-9.12246062992126
 30
0.0
 10
-3.423082677165354
 20
-9.125240157480315
 30
0.0
 10
-3.437665354330709
 20
-9.140515748031497
 30
0.0
 10
-3.437665354330709
 20
-9.140515748031497
 30
0.0
 10
-3.452248031496063
 20
-9.15579527559055
 30
0.0
 10
-3.450858267716535
 20
-9.183570866141732
 30
0.0
 10
-3.492523622047244
 20
-9.183570866141732
 30
0.0
 10
-3.492523622047244
 20
-9.183570866141732
 30
0.0
 10
-3.534192913385827
 20
-9.183570866141732
 30
0.0
 10
-3.618913385826771
 20
-9.15579527559055
 30
0.0
 10
-3.661968503937008
 20
-9.139125984251969
 30
0.0
 10
-3.661968503937008
 20
-9.139125984251969
 30
0.0
 10
-3.705027559055118
 20
-9.12246062992126
 30
0.0
 10
-3.706413385826772
 20
-9.116905511811023
 30
0.0
 10
-3.856413385826772
 20
-9.112043307086614
 30
0.0
 10
-3.856413385826772
 20
-9.112043307086614
 30
0.0
 10
-4.006413385826772
 20
-9.107185039370078
 30
0.0
 10
-4.305027559055118
 20
-9.103015748031495
 30
0.0
 10
-4.480720472440945
 20
-9.098153543307086
 30
0.0
 10
-4.480720472440945
 20
-9.098153543307086
 30
0.0
 10
-4.656417322834645
 20
-9.09329527559055
 30
0.0
 10
-4.709192913385826
 20
-9.087740157480315
 30
0.0
 10
-4.768220472440944
 20
-9.05996062992126
 30
0.0
 10
-4.768220472440944
 20
-9.05996062992126
 30
0.0
 10
-4.827251968503937
 20
-9.032185039370079
 30
0.0
 10
-4.892527559055118
 20
-8.982181102362205
 30
0.0
 10
-4.932110236220472
 20
-8.948153543307086
 30
0.0
 10
-4.932110236220472
 20
-8.948153543307086
 30
0.0
 10
-4.971696850393701
 20
-8.91412598425197
 30
0.0
 10
-4.985582677165354
 20
-8.896070866141732
 30
0.0
 10
-4.975165354330708
 20
-8.881488188976379
 30
0.0
 10
-4.975165354330708
 20
-8.881488188976379
 30
0.0
 10
-4.964751968503937
 20
-8.866905511811023
 30
0.0
 10
-4.930027559055118
 20
-8.855791338582677
 30
0.0
 10
-4.905720472440945
 20
-8.850929133858267
 30
0.0
 10
-4.905720472440945
 20
-8.850929133858267
 30
0.0
 10
-4.881417322834646
 20
-8.846070866141732
 30
0.0
 10
-4.867531496062992
 20
-8.84746062992126
 30
0.0
 10
-4.846003937007874
 20
-8.80023622047244
 30
0.0
 10
-4.846003937007874
 20
-8.80023622047244
 30
0.0
 10
-4.824476377952756
 20
-8.753015748031496
 30
0.0
 10
-4.795307086614173
 20
-8.657185039370079
 30
0.0
 10
-4.766141732283464
 20
-8.561350393700787
 30
0.0
 10
-4.766141732283464
 20
-8.561350393700787
 30
0.0
 10
-4.766141732283464
 20
-8.561350393700787
 30
0.0
 10
-4.82448031496063
 20
-8.549188976377954
 30
0.0
 10
-4.82448031496063
 20
-8.549188976377954
 30
0.0
 10
-4.82448031496063
 20
-8.549188976377954
 30
0.0
 10
-4.882818897637796
 20
-8.537031496062992
 30
0.0
 10
-4.999496062992126
 20
-8.512708661417323
 30
0.0
 10
-5.293944881889764
 20
-8.48665748031496
 30
0.0
 10
-5.293944881889764
 20
-8.48665748031496
 30
0.0
 10
-5.588397637795276
 20
-8.460610236220472
 30
0.0
 10
-6.060618110236221
 20
-8.432834645669292
 30
0.0
 10
-6.60784251968504
 20
-8.384220472440944
 30
0.0
 10
-6.60784251968504
 20
-8.384220472440944
 30
0.0
 10
-7.155066929133858
 20
-8.335610236220472
 30
0.0
 10
-7.777287401574803
 20
-8.266165354330708
 30
0.0
 10
-8.220342519685039
 20
-8.209220472440945
 30
0.0
 10
-8.220342519685039
 20
-8.209220472440945
 30
0.0
 10
-8.66340157480315
 20
-8.15227559055118
 30
0.0
 10
-8.927291338582677
 20
-8.107834645669291
 30
0.0
 10
-9.063748031496063
 20
-8.083874015748032
 30
0.0
 10
-9.063748031496063
 20
-8.083874015748032
 30
0.0
 10
-9.200208661417323
 20
-8.059917322834645
 30
0.0
 10
-9.209236220472441
 20
-8.056444881889764
 30
0.0
 10
-9.207846456692913
 20
-8.050889763779528
 30
0.0
 10
-9.207846456692913
 20
-8.050889763779528
 30
0.0
 10
-9.206456692913386
 20
-8.045334645669291
 30
0.0
 10
-9.194653543307087
 20
-8.037692913385827
 30
0.0
 10
-9.143263779527558
 20
-7.989082677165355
 30
0.0
 10
-9.143263779527558
 20
-7.989082677165355
 30
0.0
 10
-9.091874015748031
 20
-7.940472440944882
 30
0.0
 10
-9.00090157480315
 20
-7.850885826771654
 30
0.0
 10
-8.90090157480315
 20
-7.77657874015748
 30
0.0
 10
-8.90090157480315
 20
-7.77657874015748
 30
0.0
 10
-8.800901574803149
 20
-7.702275590551181
 30
0.0
 10
-8.691870078740157
 20
-7.643248031496063
 30
0.0
 10
-8.626937007874016
 20
-7.611303149606299
 30
0.0
 10
-8.626937007874016
 20
-7.611303149606299
 30
0.0
 10
-8.562007874015748
 20
-7.579358267716535
 30
0.0
 10
-8.54117716535433
 20
-7.5745
 30
0.0
 10
-8.392909448818898
 20
-7.577972440944882
 30
0.0
 10
-8.392909448818898
 20
-7.577972440944882
 30
0.0
 10
-8.244645669291339
 20
-7.581444881889764
 30
0.0
 10
-7.968952755905512
 20
-7.593251968503937
 30
0.0
 10
-7.27901968503937
 20
-7.617204724409449
 30
0.0
 10
-7.27901968503937
 20
-7.617204724409449
 30
0.0
 10
-6.750185039370079
 20
-7.635566929133859
 30
0.0
 10
-5.977956692913386
 20
-7.661074803149607
 30
0.0
 10
-5.148909448818897
 20
-7.688240157480315
 30
0.0
 10
-5.148909448818897
 20
-7.688240157480315
 30
0.0
 10
-5.148909448818897
 20
-7.688240157480315
 30
0.0
 10
-5.503625984251968
 20
-6.834188976377953
 30
0.0
 10
-5.503625984251968
 20
-6.834188976377953
 30
0.0
 10
-5.503625984251968
 20
-6.834188976377953
 30
0.0
 10
-5.503625984251968
 20
-6.834188976377953
 30
0.0
 10
-5.498070866141732
 20
-6.820996062992126
 30
0.0
 10
-5.498070866141732
 20
-6.820996062992126
 30
0.0
 10
-5.498070866141732
 20
-6.820996062992126
 30
0.0
 10
-5.492515748031496
 20
-6.8078031496063
 30
0.0
 10
-5.481405511811023
 20
-6.781413385826772
 30
0.0
 10
-5.480015748031496
 20
-6.761968503937008
 30
0.0
 10
-5.480015748031496
 20
-6.761968503937008
 30
0.0
 10
-5.478629921259842
 20
-6.742527559055118
 30
0.0
 10
-5.48696062992126
 20
-6.730027559055118
 30
0.0
 10
-5.507795275590551
 20
-6.711972440944882
 30
0.0
 10
-5.507795275590551
 20
-6.711972440944882
 30
0.0
 10
-5.528629921259842
 20
-6.693917322834646
 30
0.0
 10
-5.56196062992126
 20
-6.670303149606299
 30
0.0
 10
-5.613350393700787
 20
-6.641137795275591
 30
0.0
 10
-5.613350393700787
 20
-6.641137795275591
 30
0.0
 10
-5.664740157480315
 20
-6.611972440944882
 30
0.0
 10
-5.734181102362204
 20
-6.577248031496063
 30
0.0
 10
-5.773070866141732
 20
-6.543220472440945
 30
0.0
 10
-5.773070866141732
 20
-6.543220472440945
 30
0.0
 10
-5.81196062992126
 20
-6.509192913385827
 30
0.0
 10
-5.820291338582678
 20
-6.475862204724409
 30
0.0
 10
-5.812653543307087
 20
-6.430720472440945
 30
0.0
 10
-5.812653543307087
 20
-6.430720472440945
 30
0.0
 10
-5.805015748031496
 20
-6.385582677165354
 30
0.0
 10
-5.781405511811023
 20
-6.328637795275591
 30
0.0
 10
-5.757795275590551
 20
-6.293913385826771
 30
0.0
 10
-5.757795275590551
 20
-6.293913385826771
 30
0.0
 10
-5.734185039370079
 20
-6.259192913385827
 30
0.0
 10
-5.710570866141732
 20
-6.246692913385827
 30
0.0
 10
-5.702933070866142
 20
-6.21544094488189
 30
0.0
 10
-5.702933070866142
 20
-6.21544094488189
 30
0.0
 10
-5.695295275590551
 20
-6.184192913385827
 30
0.0
 10
-5.703625984251969
 20
-6.134192913385827
 30
0.0
 10
-5.695291338582678
 20
-6.095303149606299
 30
0.0
 10
-5.695291338582678
 20
-6.095303149606299
 30
0.0
 10
-5.68696062992126
 20
-6.056417322834646
 30
0.0
 10
-5.66196062992126
 20
-6.028637795275591
 30
0.0
 10
-5.653177165354331
 20
-5.991488188976378
 30
0.0
 10
-5.653177165354331
 20
-5.991488188976378
 30
0.0
 10
-5.644393700787401
 20
-5.954338582677165
 30
0.0
 10
-5.651822834645669
 20
-5.907811023622047
 30
0.0
 10
-5.659255905511811
 20
-5.861287401574804
 30
0.0
 10
-5.659255905511811
 20
-5.861287401574804
 30
0.0
 10
-5.659255905511811
 20
-5.861287401574804
 30
0.0
 10
-6.276574803149606
 20
-4.484196850393701
 30
0.0
 10
-6.276574803149606
 20
-4.484196850393701
 30
0.0
 10
-6.276574803149606
 20
-4.484196850393701
 30
0.0
 10
-6.292535433070866
 20
-4.488346456692914
 30
0.0
 10
-6.3085
 20
-4.492496062992126
 30
0.0
 10
-6.344255905511811
 20
-4.487625984251968
 30
0.0
 10
-6.344255905511811
 20
-4.487625984251968
 30
0.0
 10
-6.380015748031496
 20
-4.482755905511811
 30
0.0
 10
-6.435570866141732
 20
-4.468870078740157
 30
0.0
 10
-6.484181102362204
 20
-4.416090551181102
 30
0.0
 10
-6.484181102362204
 20
-4.416090551181102
 30
0.0
 10
-6.484181102362204
 20
-4.416090551181102
 30
0.0
 10
-7.759224409448819
 20
-5.560303149606299
 30
0.0
 10
-7.759224409448819
 20
-5.560303149606299
 30
0.0
 10
-7.759224409448819
 20
-5.560303149606299
 30
0.0
 10
-7.759224409448819
 20
-5.560303149606299
 30
0.0
 10
-8.028240157480315
 20
-5.213976377952756
 30
0.0
 10
-8.028240157480315
 20
-5.213976377952756
 30
0.0
 10
-8.028240157480315
 20
-5.213976377952756
 30
0.0
 10
-8.028240157480315
 20
-5.213976377952756
 30
0.0
 10
-6.608948818897638
 20
-4.12232283464567
 30
0.0
 10
-6.608948818897638
 20
-4.12232283464567
 30
0.0
 10
-6.608948818897638
 20
-4.12232283464567
 30
0.0
 10
-6.610881889763779
 20
-4.097814960629921
 30
0.0
 10
-6.611881889763779
 20
-4.070925196850394
 30
0.0
 10
-6.615429133858267
 20
-4.034145669291338
 30
0.0
 10
-6.615429133858267
 20
-4.034145669291338
 30
0.0
 10
-6.623070866141732
 20
-3.95498031496063
 30
0.0
 10
-6.642515748031496
 20
-3.82998031496063
 30
0.0
 10
-6.631405511811024
 20
-3.746645669291339
 30
0.0
 10
-6.631405511811024
 20
-3.746645669291339
 30
0.0
 10
-6.620295275590551
 20
-3.663314960629921
 30
0.0
 10
-6.578625984251969
 20
-3.621645669291339
 30
0.0
 10
-6.53792125984252
 20
-3.561283464566929
 30
0.0
 10
-6.53792125984252
 20
-3.561283464566929
 30
0.0
 10
-6.497216535433071
 20
-3.50092125984252
 30
0.0
 10
-6.457472440944882
 20
-3.421858267716535
 30
0.0
 10
-6.417728346456693
 20
-3.342799212598425
 30
0.0
 10
-6.417728346456693
 20
-3.342799212598425
 30
0.0
 10
-6.417728346456693
 20
-3.342799212598425
 30
0.0
 10
-6.491594488188976
 20
-2.013255905511811
 30
0.0
 10
-6.491594488188976
 20
-2.013255905511811
 30
0.0
 10
-6.491594488188976
 20
-2.013255905511811
 30
0.0
 10
-6.491594488188976
 20
-2.013255905511811
 30
0.0
 10
-5.90134251968504
 20
-1.292909448818898
 30
0.0
 10
-5.90134251968504
 20
-1.292909448818898
 30
0.0
 10
-5.90134251968504
 20
-1.292909448818898
 30
0.0
 10
-5.90134251968504
 20
-1.292909448818898
 30
0.0
 10
-6.024456692913386
 20
-3.221673228346457
 30
0.0
 10
-6.024456692913386
 20
-3.221673228346457
 30
0.0
 10
-6.024456692913386
 20
-3.221673228346457
 30
0.0
 10
-6.01196062992126
 20
-3.231366141732284
 30
0.0
 10
-5.999468503937008
 20
-3.241055118110236
 30
0.0
 10
-5.988358267716535
 20
-3.246594488188976
 30
0.0
 10
-5.988358267716535
 20
-3.246594488188976
 30
0.0
 10
-5.977248031496063
 20
-3.252137795275591
 30
0.0
 10
-5.967527559055118
 20
-3.253523622047244
 30
0.0
 10
-5.945303149606299
 20
-3.229216535433071
 30
0.0
 10
-5.945303149606299
 20
-3.229216535433071
 30
0.0
 10
-5.923082677165354
 20
-3.204913385826772
 30
0.0
 10
-5.888358267716535
 20
-3.154913385826771
 30
0.0
 10
-5.866133858267717
 20
-3.122968503937008
 30
0.0
 10
-5.866133858267717
 20
-3.122968503937008
 30
0.0
 10
-5.843913385826772
 20
-3.091023622047244
 30
0.0
 10
-5.834192913385826
 20
-3.077137795275591
 30
0.0
 10
-5.818216535433071
 20
-3.072984251968504
 30
0.0
 10
-5.818216535433071
 20
-3.072984251968504
 30
0.0
 10
-5.802244094488189
 20
-3.068834645669291
 30
0.0
 10
-5.780015748031496
 20
-3.07442125984252
 30
0.0
 10
-5.757791338582678
 20
-3.080007874015748
 30
0.0
 10
-5.757791338582678
 20
-3.080007874015748
 30
0.0
 10
-5.757791338582678
 20
-3.080007874015748
 30
0.0
 10
-4.337149606299213
 20
-1.252547244094488
 30
0.0
 10
-4.337149606299213
 20
-1.252547244094488
 30
0.0
 10
-4.337149606299213
 20
-1.252547244094488
 30
0.0
 10
-4.337149606299213
 20
-1.252547244094488
 30
0.0
 10
-4.277208661417323
 20
-2.001862204724409
 30
0.0
 10
-4.277208661417323
 20
-2.001862204724409
 30
0.0
 10
-4.277208661417323
 20
-2.001862204724409
 30
0.0
 10
-4.437303149606299
 20
-2.20655905511811
 30
0.0
 10
-4.580070866141733
 20
-2.387224409448819
 30
0.0
 10
-4.692511811023622
 20
-2.525838582677165
 30
0.0
 10
-4.692511811023622
 20
-2.525838582677165
 30
0.0
 10
-4.955011811023622
 20
-2.849452755905512
 30
0.0
 10
-5.052236220472441
 20
-2.943897637795275
 30
0.0
 10
-5.127929133858268
 20
-3.073066929133858
 30
0.0
 10
-5.127929133858268
 20
-3.073066929133858
 30
0.0
 10
-5.203625984251969
 20
-3.202236220472441
 30
0.0
 10
-5.257791338582678
 20
-3.366125984251969
 30
0.0
 10
-5.31196062992126
 20
-3.53001968503937
 30
0.0
 10
-5.31196062992126
 20
-3.53001968503937
 30
0.0
 10
-5.207795275590551
 20
-3.56751968503937
 30
0.0
 10
-5.103625984251969
 20
-3.60501968503937
 30
0.0
 10
-4.988346456692914
 20
-3.691822834645669
 30
0.0
 10
-4.988346456692914
 20
-3.691822834645669
 30
0.0
 10
-4.873070866141732
 20
-3.778629921259843
 30
0.0
 10
-4.746681102362205
 20
-3.914744094488189
 30
0.0
 10
-4.667511811023622
 20
-4.020992125984252
 30
0.0
 10
-4.667511811023622
 20
-4.020992125984252
 30
0.0
 10
-4.588346456692913
 20
-4.127244094488189
 30
0.0
 10
-4.556401574803149
 20
-4.203629921259843
 30
0.0
 10
-4.543204724409449
 20
-4.272377952755906
 30
0.0
 10
-4.543204724409449
 20
-4.272377952755906
 30
0.0
 10
-4.530011811023622
 20
-4.341129921259842
 30
0.0
 10
-4.535570866141732
 20
-4.402240157480315
 30
0.0
 10
-4.552929133858267
 20
-4.455712598425197
 30
0.0
 10
-4.552929133858267
 20
-4.455712598425197
 30
0.0
 10
-4.570291338582678
 20
-4.509185039370078
 30
0.0
 10
-4.59946062992126
 20
-4.555015748031496
 30
0.0
 10
-4.64946062992126
 20
-4.602236220472441
 30
0.0
 10
-4.64946062992126
 20
-4.602236220472441
 30
0.0
 10
-4.69946062992126
 20
-4.64946062992126
 30
0.0
 10
-4.770291338582677
 20
-4.698074803149606
 30
0.0
 10
-4.817169291338582
 20
-4.725157480314961
 30
0.0
 10
-4.817169291338582
 20
-4.725157480314961
 30
0.0
 10
-4.864051181102362
 20
-4.752240157480315
 30
0.0
 10
-4.886972440944882
 20
-4.757799212598425
 30
0.0
 10
-4.909897637795275
 20
-4.763354330708661
 30
0.0
 10
-4.909897637795275
 20
-4.763354330708661
 30
0.0
 10
-4.909897637795275
 20
-4.763354330708661
 30
0.0
 10
-3.200271653543307
 20
-7.491484251968504
 30
0.0
 10
-3.200271653543307
 20
-7.491484251968504
 30
0.0
 10
-3.200271653543307
 20
-7.491484251968504
 30
0.0
 10
-3.200271653543307
 20
-7.491484251968504
 30
0.0
 10
-3.177645669291338
 20
-7.478055118110237
 30
0.0
 10
-3.177645669291338
 20
-7.478055118110237
 30
0.0
 10
-3.177645669291338
 20
-7.478055118110237
 30
0.0
 10
-1.935976377952756
 20
-6.744720472440945
 30
0.0
 10
-0.6943070866141732
 20
-6.011385826771654
 30
0.0
 10
-0.0456929133858268
 20
-5.618326771653543
 30
0.0
 10
-0.0456929133858268
 20
-5.618326771653543
 30
0.0
 10
0.6029173228346457
 20
-5.225271653543307
 30
0.0
 10
0.6584724409448819
 20
-5.172496062992126
 30
0.0
 10
0.7154173228346457
 20
-5.11138188976378
 30
0.0
 10
0.7154173228346457
 20
-5.11138188976378
 30
0.0
 10
0.7723622047244094
 20
-5.050271653543307
 30
0.0
 10
0.8306968503937008
 20
-4.980830708661418
 30
0.0
 10
0.8723622047244094
 20
-4.901661417322835
 30
0.0
 10
0.8723622047244094
 20
-4.901661417322835
 30
0.0
 10
0.9140314960629922
 20
-4.822496062992126
 30
0.0
 10
0.9390314960629921
 20
-4.733606299212599
 30
0.0
 10
0.9501417322834645
 20
-4.634992125984252
 30
0.0
 10
0.9501417322834645
 20
-4.634992125984252
 30
0.0
 10
0.961251968503937
 20
-4.53638188976378
 30
0.0
 10
0.9584763779527559
 20
-4.428051181102362
 30
0.0
 10
0.9529173228346457
 20
-4.37388188976378
 30
0.0
 10
0.9529173228346457
 20
-4.37388188976378
 30
0.0
 10
0.9473622047244095
 20
-4.319716535433071
 30
0.0
 10
0.9390314960629921
 20
-4.319716535433071
 30
0.0
 10
0.9043070866141733
 20
-4.325271653543307
 30
0.0
 10
0.9043070866141733
 20
-4.325271653543307
 30
0.0
 10
0.8695866141732284
 20
-4.330826771653543
 30
0.0
 10
0.8084724409448819
 20
-4.34194094488189
 30
0.0
 10
0.7695826771653543
 20
-4.355826771653543
 30
0.0
 10
0.7695826771653543
 20
-4.355826771653543
 30
0.0
 10
0.7306968503937008
 20
-4.369716535433071
 30
0.0
 10
0.714027559055118
 20
-4.386385826771654
 30
0.0
 10
0.698748031496063
 20
-4.37944094488189
 30
0.0
 10
0.698748031496063
 20
-4.37944094488189
 30
0.0
 10
0.6834724409448819
 20
-4.372496062992126
 30
0.0
 10
0.6695866141732284
 20
-4.341937007874016
 30
0.0
 10
0.6584724409448819
 20
-4.330826771653543
 30
0.0
 10
0.6584724409448819
 20
-4.330826771653543
 30
0.0
 10
0.6473622047244094
 20
-4.319716535433071
 30
0.0
 10
0.6390314960629921
 20
-4.328047244094488
 30
0.0
 10
0.6043070866141732
 20
-4.34888188976378
 30
0.0
 10
0.6043070866141732
 20
-4.34888188976378
 30
0.0
 10
0.5695866141732283
 20
-4.369716535433071
 30
0.0
 10
0.5084724409448819
 20
-4.403047244094489
 30
0.0
 10
0.4695826771653543
 20
-4.41138188976378
 30
0.0
 10
0.4695826771653543
 20
-4.41138188976378
 30
0.0
 10
0.4306968503937008
 20
-4.419716535433071
 30
0.0
 10
0.4140275590551181
 20
-4.403047244094489
 30
0.0
 10
0.4195826771653544
 20
-4.384992125984252
 30
0.0
 10
0.4195826771653544
 20
-4.384992125984252
 30
0.0
 10
0.4251417322834646
 20
-4.366937007874016
 30
0.0
 10
0.4529173228346457
 20
-4.347496062992126
 30
0.0
 10
0.5390275590551181
 20
-4.296106299212599
 30
0.0
 10
0.5390275590551181
 20
-4.296106299212599
 30
0.0
 10
0.6251417322834646
 20
-4.244716535433071
 30
0.0
 10
0.7695866141732284
 20
-4.161385826771654
 30
0.0
 10
0.8418070866141733
 20
-4.115551181102362
 30
0.0
 10
0.8418070866141733
 20
-4.115551181102362
 30
0.0
 10
0.9140314960629922
 20
-4.069716535433071
 30
0.0
 10
0.9140314960629922
 20
-4.061385826771653
 30
0.0
 10
0.8848622047244095
 20
-4.026661417322835
 30
0.0
 10
0.8848622047244095
 20
-4.026661417322835
 30
0.0
 10
0.8556968503937008
 20
-3.99194094488189
 30
0.0
 10
0.7973622047244094
 20
-3.930826771653543
 30
0.0
 10
0.7515275590551181
 20
-3.854437007874016
 30
0.0
 10
0.7515275590551181
 20
-3.854437007874016
 30
0.0
 10
0.7056929133858267
 20
-3.778051181102362
 30
0.0
 10
0.6723622047244094
 20
-3.686381889763779
 30
0.0
 10
0.6626377952755905
 20
-3.603047244094488
 30
0.0
 10
0.6626377952755905
 20
-3.603047244094488
 30
0.0
 10
0.6529173228346457
 20
-3.519716535433071
 30
0.0
 10
0.6668070866141732
 20
-3.444716535433071
 30
0.0
 10
0.6779173228346457
 20
-3.393326771653543
 30
0.0
 10
0.6779173228346457
 20
-3.393326771653543
 30
0.0
 10
0.6890314960629921
 20
-3.341937007874016
 30
0.0
 10
0.6973622047244095
 20
-3.314161417322834
 30
0.0
 10
0.6959724409448819
 20
-3.29888188976378
 30
0.0
 10
0.6959724409448819
 20
-3.29888188976378
 30
0.0
 10
0.6945866141732283
 20
-3.283602362204725
 30
0.0
 10
0.6834724409448819
 20
-3.280826771653544
 30
0.0
 10
0.5904173228346457
 20
-3.300267716535433
 30
0.0
 10
0.5904173228346457
 20
-3.300267716535433
 30
0.0
 10
0.4973622047244095
 20
-3.319712598425197
 30
0.0
 10
0.3223622047244095
 20
-3.36138188976378
 30
0.0
 10
0.2348622047244094
 20
-3.373881889763779
 30
0.0
 10
0.2348622047244094
 20
-3.373881889763779
 30
0.0
 10
0.1473622047244094
 20
-3.38638188976378
 30
0.0
 10
0.1473622047244094
 20
-3.369712598425197
 30
0.0
 10
0.2279173228346457
 20
-3.316933070866142
 30
0.0
 10
0.2279173228346457
 20
-3.316933070866142
 30
0.0
 10
0.3084724409448819
 20
-3.264157480314961
 30
0.0
 10
0.4695866141732283
 20
-3.175271653543307
 30
0.0
 10
0.7390314960629921
 20
-3.023881889763779
 30
0.0
 10
0.7390314960629921
 20
-3.023881889763779
 30
0.0
 10
1.008476377952756
 20
-2.872492125984252
 30
0.0
 10
1.386251968503937
 20
-2.658602362204725
 30
0.0
 10
1.580696850393701
 20
-2.553047244094488
 30
0.0
 10
1.580696850393701
 20
-2.553047244094488
 30
0.0
 10
1.775141732283465
 20
-2.447492125984252
 30
0.0
 10
1.786255905511811
 20
-2.450267716535433
 30
0.0
 10
1.800141732283465
 20
-2.454433070866142
 30
0.0
 10
1.800141732283465
 20
-2.454433070866142
 30
0.0
 10
1.814031496062992
 20
-2.458602362204724
 30
0.0
 10
1.830700787401575
 20
-2.464157480314961
 30
0.0
 10
1.939031496062992
 20
-2.403047244094488
 30
0.0
 10
1.939031496062992
 20
-2.403047244094488
 30
0.0
 10
2.047366141732283
 20
-2.341937007874016
 30
0.0
 10
2.247366141732284
 20
-2.214157480314961
 30
0.0
 10
2.370976377952756
 20
-2.129437007874016
 30
0.0
 10
2.370976377952756
 20
-2.129437007874016
 30
0.0
 10
2.494586614173228
 20
-2.044716535433071
 30
0.0
 10
2.541811023622047
 20
-2.003047244094488
 30
0.0
 10
2.548751968503937
 20
-1.975267716535433
 30
0.0
 10
2.548751968503937
 20
-1.975267716535433
 30
0.0
 10
2.555696850393701
 20
-1.947492125984252
 30
0.0
 10
2.522366141732284
 20
-1.933602362204724
 30
0.0
 10
2.386251968503937
 20
-1.894712598425197
 30
0.0
 10
2.386251968503937
 20
-1.894712598425197
 30
0.0
 10
2.250141732283465
 20
-1.855822834645669
 30
0.0
 10
2.011255905511811
 20
-1.791937007874016
 30
0.0
 10
1.909866141732284
 20
-1.751657480314961
 30
0.0
 10
1.909866141732284
 20
-1.751657480314961
 30
0.0
 10
1.808476377952756
 20
-1.71138188976378
 30
0.0
 10
1.844586614173228
 20
-1.694712598425197
 30
0.0
 10
2.404307086614173
 20
-1.451657480314961
 30
0.0
 10
2.404307086614173
 20
-1.451657480314961
 30
0.0
 10
2.964031496062992
 20
-1.208602362204724
 30
0.0
 10
4.047370078740157
 20
-0.7391574803149606
 30
0.0
 10
5.130704724409449
 20
-0.2697125984251968
 30
0.0
 10
5.130704724409449
 20
-0.2697125984251968
 30
0.0
 10
5.145653543307087
 20
-0.2134055118110236
 30
0.0
 10
5.160602362204725
 20
-0.1570944881889764
 30
0.0
 10
5.176409448818897
 20
-0.1185236220472441
 30
0.0
 10
5.176409448818897
 20
-0.1185236220472441
 30
0.0
 10
5.19221653543307
 20
-0.0799527559055118
 30
0.0
 10
5.208885826771653
 20
-0.0591220472440945
 30
0.0
 10
5.188051181102362
 20
-0.054259842519685
 30
0.0
 10
5.188051181102362
 20
-0.054259842519685
 30
0.0
 10
5.167216535433071
 20
-0.0493976377952756
 30
0.0
 10
5.108885826771654
 20
-0.060511811023622
 30
0.0
 10
5.05957874015748
 20
-0.0646771653543307
 30
0.0
 10
5.05957874015748
 20
-0.0646771653543307
 30
0.0
 10
5.010271653543307
 20
-0.0688425196850394
 30
0.0
 10
4.969996062992126
 20
-0.0660669291338583
 30
0.0
 10
4.949161417322834
 20
-0.0493976377952756
 30
0.0
 10
4.949161417322834
 20
-0.0493976377952756
 30
0.0
 10
4.928326771653543
 20
-0.0327322834645669
 30
0.0
 10
4.92694094488189
 20
-0.0021771653543307
 30
0.0
 10
4.891523622047244
 20
-0.0070393700787402
 30
0.0
 10
4.891523622047244
 20
-0.0070393700787402
 30
0.0
 10
4.856106299212598
 20
-0.0119015748031496
 30
0.0
 10
4.786661417322835
 20
-0.0521771653543307
 30
0.0
 10
4.73457874015748
 20
-0.0695393700787402
 30
0.0
 10
4.73457874015748
 20
-0.0695393700787402
 30
0.0
 10
4.682496062992126
 20
-0.0869015748031496
 30
0.0
 10
4.647771653543307
 20
-0.0813425196850394
 30
0.0
 10
4.619299212598425
 20
-0.0507874015748032
 30
0.0
 10
4.619299212598425
 20
-0.0507874015748032
 30
0.0
 10
4.590830708661417
 20
-0.0202322834645669
 30
0.0
 10
4.568606299212599
 20
0.0353228346456693
 30
0.0
 10
4.519996062992126
 20
0.0707362204724409
 30
0.0
 10
4.519996062992126
 20
0.0707362204724409
 30
0.0
 10
4.471385826771654
 20
0.1061535433070866
 30
0.0
 10
4.396385826771653
 20
0.1214330708661417
 30
0.0
 10
4.319996062992126
 20
0.1158740157480315
 30
0.0
 10
4.319996062992126
 20
0.1158740157480315
 30
0.0
 10
4.243606299212598
 20
0.1103188976377953
 30
0.0
 10
4.165830708661417
 20
0.0839330708661417
 30
0.0
 10
4.110271653543307
 20
0.0832362204724409
 30
0.0
 10
4.110271653543307
 20
0.0832362204724409
 30
0.0
 10
4.054716535433071
 20
0.0825433070866142
 30
0.0
 10
4.021385826771653
 20
0.1075433070866142
 30
0.0
 10
3.99707874015748
 20
0.1283740157480315
 30
0.0
 10
3.99707874015748
 20
0.1283740157480315
 30
0.0
 10
3.972771653543307
 20
0.1492086614173228
 30
0.0
 10
3.957496062992126
 20
0.1658779527559055
 30
0.0
 10
3.922618110236221
 20
0.1326456692913386
 30
0.0
 10
3.922618110236221
 20
0.1326456692913386
 30
0.0
 10
3.887740157480315
 20
0.0994133858267717
 30
0.0
 10
3.833267716535433
 20
0.0162874015748031
 30
0.0
 10
3.778791338582677
 20
-0.0668425196850394
 30
0.0
 10
3.778791338582677
 20
-0.0668425196850394
 30
0.0
 10
-1.23742125984252
 20
0.5346732283464567
 30
0.0
 10
-6.178314960629922
 20
1.127248031496063
 30
0.0
 10
-8.822031496062992
 20
1.446964566929134
 30
0.0
 10
-8.822031496062992
 20
1.446964566929134
 30
0.0
 10
-11.55536614173228
 20
1.777523622047244
 30
0.0
 10
-11.83314566929134
 20
1.816413385826772
 30
0.0
 10
-12.20814566929134
 20
1.83307874015748
 30
0.0
 10
-12.20814566929134
 20
1.83307874015748
 30
0.0
 10
-12.58314566929134
 20
1.849748031496063
 30
0.0
 10
-13.05536614173228
 20
1.844188976377953
 30
0.0
 10
-13.30536614173228
 20
1.841405511811024
 30
0.0
 10
-13.30536614173228
 20
1.841405511811024
 30
0.0
 10
-13.55537007874016
 20
1.838625984251969
 30
0.0
 10
-13.58314566929134
 20
1.83861811023622
 30
0.0
 10
-13.6018937007874
 20
1.840696850393701
 30
0.0
 10
-13.6018937007874
 20
1.840696850393701
 30
0.0
 10
-13.62064566929134
 20
1.842775590551181
 30
0.0
 10
-13.63037007874016
 20
1.846944881889764
 30
0.0
 10
-13.6400905511811
 20
1.87853937007874
 30
0.0
 10
-13.6400905511811
 20
1.87853937007874
 30
0.0
 10
-13.64981102362205
 20
1.91013779527559
 30
0.0
 10
-13.65953543307087
 20
1.969165354330709
 30
0.0
 10
-13.64564566929134
 20
2.026803149606299
 30
0.0
 10
-13.64564566929134
 20
2.026803149606299
 30
0.0
 10
-13.63175590551181
 20
2.084444881889764
 30
0.0
 10
-13.59425590551181
 20
2.140692913385827
 30
0.0
 10
-13.57133858267717
 20
2.169858267716535
 30
0.0
 10
-13.57133858267717
 20
2.169858267716535
 30
0.0
 10
-13.54842125984252
 20
2.199027559055118
 30
0.0
 10
-13.5400905511811
 20
2.201110236220472
 30
0.0
 10
-13.52551181102362
 20
2.201114173228346
 30
0.0
 10
-13.52551181102362
 20
2.201114173228346
 30
0.0
 10
-13.51093307086614
 20
2.20111811023622
 30
0.0
 10
-13.4901062992126
 20
2.199047244094488
 30
0.0
 10
-13.46928346456693
 20
2.196972440944882
 30
0.0
 10
-13.46928346456693
 20
2.196972440944882
 30
0.0
 10
-12.95817322834646
 20
2.18586220472441
 30
0.0
 10
-12.44705905511811
 20
2.174748031496063
 30
0.0
 10
-11.94150393700787
 20
2.149748031496063
 30
0.0
 10
-11.94150393700787
 20
2.149748031496063
 30
0.0
 10
-11.43594881889764
 20
2.124748031496063
 30
0.0
 10
-10.93594488188976
 20
2.08586220472441
 30
0.0
 10
-8.199830708661418
 20
1.799748031496063
 30
0.0
 10
-8.199830708661418
 20
1.799748031496063
 30
0.0
 10
-5.463720472440944
 20
1.513637795275591
 30
0.0
 10
-0.491492125984252
 20
0.9803070866141732
 30
0.0
 10
1.99461811023622
 20
0.7136377952755906
 30
0.0
 10
1.99461811023622
 20
0.7136377952755906
 30
0.0
 10
4.480732283464567
 20
0.4469724409448819
 30
0.0
 10
4.480732283464567
 20
0.4469724409448819
 30
0.0
 10
4.522397637795276
 20
0.4386377952755905
 30
0.0
 10
4.522397637795276
 20
0.4386377952755905
 30
0.0
 10
4.522397637795276
 20
0.4386377952755905
 30
0.0
 10
4.730732283464567
 20
0.3969724409448819
 30
0.0
 10
4.730732283464567
 20
0.3969724409448819
 30
0.0
 10
4.730732283464567
 20
0.3969724409448819
 30
0.0
 10
4.840118110236221
 20
0.4088267716535433
 30
0.0
 10
4.9495
 20
0.4206811023622047
 30
0.0
 10
5.045858267716535
 20
0.4425787401574803
 30
0.0
 10
5.045858267716535
 20
0.4425787401574803
 30
0.0
 10
5.142220472440945
 20
0.4644803149606299
 30
0.0
 10
5.225551181102362
 20
0.4964251968503937
 30
0.0
 10
5.373468503937008
 20
0.5082283464566929
 30
0.0
 10
5.373468503937008
 20
0.5082283464566929
 30
0.0
 10
5.521385826771653
 20
0.5200354330708662
 30
0.0
 10
5.733885826771654
 20
0.5117047244094488
 30
0.0
 10
5.85957874015748
 20
0.5130905511811024
 30
0.0
 10
5.85957874015748
 20
0.5130905511811024
 30
0.0
 10
5.985275590551181
 20
0.51448031496063
 30
0.0
 10
6.024165354330709
 20
0.5255905511811023
 30
0.0
 10
6.033885826771654
 20
0.5367007874015748
 30
0.0
 10
6.033885826771654
 20
0.5367007874015748
 30
0.0
 10
6.043610236220473
 20
0.5478110236220473
 30
0.0
 10
6.024165354330709
 20
0.5589251968503937
 30
0.0
 10
5.95194094488189
 20
0.5665629921259843
 30
0.0
 10
5.95194094488189
 20
0.5665629921259843
 30
0.0
 10
5.879720472440945
 20
0.5742007874015748
 30
0.0
 10
5.754720472440945
 20
0.5783700787401574
 30
0.0
 10
5.695692913385827
 20
0.5936456692913386
 30
0.0
 10
5.695692913385827
 20
0.5936456692913386
 30
0.0
 10
5.636665354330709
 20
0.6089251968503937
 30
0.0
 10
5.643610236220472
 20
0.6353110236220473
 30
0.0
 10
5.654720472440945
 20
0.6644763779527559
 30
0.0
 10
5.654720472440945
 20
0.6644763779527559
 30
0.0
 10
5.665830708661417
 20
0.6936456692913385
 30
0.0
 10
5.681110236220473
 20
0.7255905511811024
 30
0.0
 10
5.724165354330709
 20
0.7450354330708662
 30
0.0
 10
5.724165354330709
 20
0.7450354330708662
 30
0.0
 10
5.767220472440945
 20
0.76448031496063
 30
0.0
 10
5.838051181102363
 20
0.7714251968503937
 30
0.0
 10
5.940133858267717
 20
0.7762834645669291
 30
0.0
 10
5.940133858267717
 20
0.7762834645669291
 30
0.0
 10
6.042220472440945
 20
0.7811456692913386
 30
0.0
 10
6.175551181102362
 20
0.7839251968503937
 30
0.0
 10
6.255413385826771
 20
0.7748937007874016
 30
0.0
 10
6.255413385826771
 20
0.7748937007874016
 30
0.0
 10
6.335275590551182
 20
0.7658661417322835
 30
0.0
 10
6.361665354330708
 20
0.7450354330708662
 30
0.0
 10
6.392220472440945
 20
0.7367007874015749
 30
0.0
 10
6.392220472440945
 20
0.7367007874015749
 30
0.0
 10
6.422775590551181
 20
0.7283661417322834
 30
0.0
 10
6.4575
 20
0.7325354330708661
 30
0.0
 10
6.467393700787402
 20
0.740492125984252
 30
0.0
 10
6.467393700787402
 20
0.740492125984252
 30
0.0
 10
6.477287401574803
 20
0.7484488188976378
 30
0.0
 10
6.462350393700787
 20
0.7601929133858267
 30
0.0
 10
6.447417322834646
 20
0.7719409448818898
 30
0.0
 10
6.447417322834646
 20
0.7719409448818898
 30
0.0
 10
6.447417322834646
 20
0.7719409448818898
 30
0.0
 10
10.3907874015748
 20
5.521251968503937
 30
0.0
 10
10.3907874015748
 20
5.521251968503937
 30
0.0
 10
10.3907874015748
 20
5.521251968503937
 30
0.0
 10
10.3907874015748
 20
5.521251968503937
 30
0.0
 10
11.73926377952756
 20
5.446090551181102
 30
0.0
 10
11.73926377952756
 20
5.446090551181102
 30
0.0
 10
11.73926377952756
 20
5.446090551181102
 30
0.0
 10
10.44707874015748
 20
3.992393700787402
 30
0.0
 10
9.206
 20
2.596370078740157
 30
0.0
 10
8.54603937007874
 20
1.855972440944882
 30
0.0
 10
8.54603937007874
 20
1.855972440944882
 30
0.0
 10
7.822429133858268
 20
1.044165354330709
 30
0.0
 10
7.797429133858268
 20
1.020551181102362
 30
0.0
 10
7.761314960629921
 20
0.9719409448818898
 30
0.0
 10
7.761314960629921
 20
0.9719409448818898
 30
0.0
 10
7.725204724409449
 20
0.9233307086614173
 30
0.0
 10
7.677984251968504
 20
0.8497204724409448
 30
0.0
 10
7.630759842519685
 20
0.7761102362204725
 30
0.0
 10
7.630759842519685
 20
0.7761102362204725
 30
0.0
 10
7.630759842519685
 20
0.7761102362204725
 30
0.0
 10
7.603866141732284
 20
0.7331771653543308
 30
0.0
 10
7.603866141732284
 20
0.7331771653543308
 30
0.0
 10
7.603866141732284
 20
0.7331771653543308
 30
0.0
 10
7.603866141732284
 20
0.7331771653543308
 30
0.0
 10
7.721751968503937
 20
0.6983346456692914
 30
0.0
 10
7.721751968503937
 20
0.6983346456692914
 30
0.0
 10
7.721751968503937
 20
0.6983346456692914
 30
0.0
 10
7.787724409448819
 20
0.6788937007874015
 30
0.0
 10
7.807169291338583
 20
0.6733307086614173
 30
0.0
 10
7.818972440944882
 20
0.652496062992126
 30
0.0
 10
7.818972440944882
 20
0.652496062992126
 30
0.0
 10
7.830779527559055
 20
0.6316653543307087
 30
0.0
 10
7.834948818897638
 20
0.5955551181102362
 30
0.0
 10
7.843976377952756
 20
0.5740275590551182
 30
0.0
 10
7.843976377952756
 20
0.5740275590551182
 30
0.0
 10
7.853003937007874
 20
0.5525
 30
0.0
 10
7.866889763779527
 20
0.5455551181102363
 30
0.0
 10
7.946055118110237
 20
0.54
 30
0.0
 10
7.946055118110237
 20
0.54
 30
0.0
 10
8.02522440944882
 20
0.5344448818897638
 30
0.0
 10
8.169669291338582
 20
0.5302755905511811
 30
0.0
 10
8.262031496062992
 20
0.5247204724409449
 30
0.0
 10
8.262031496062992
 20
0.5247204724409449
 30
0.0
 10
8.354393700787401
 20
0.5191653543307087
 30
0.0
 10
8.394669291338582
 20
0.5122204724409449
 30
0.0
 10
8.432169291338584
 20
0.4941653543307087
 30
0.0
 10
8.432169291338584
 20
0.4941653543307087
 30
0.0
 10
8.469669291338583
 20
0.4761102362204724
 30
0.0
 10
8.504393700787402
 20
0.4469409448818898
 30
0.0
 10
8.514114173228347
 20
0.4163858267716535
 30
0.0
 10
8.514114173228347
 20
0.4163858267716535
 30
0.0
 10
8.523834645669291
 20
0.3858307086614173
 30
0.0
 10
8.508559055118111
 20
0.3538897637795276
 30
0.0
 10
8.498141732283464
 20
0.3261102362204724
 30
0.0
 10
8.498141732283464
 20
0.3261102362204724
 30
0.0
 10
8.48772440944882
 20
0.2983346456692914
 30
0.0
 10
8.482169291338582
 20
0.2747204724409449
 30
0.0
 10
8.484944881889763
 20
0.2601377952755906
 30
0.0
 10
8.484944881889763
 20
0.2601377952755906
 30
0.0
 10
8.48772440944882
 20
0.2455551181102362
 30
0.0
 10
8.498838582677166
 20
0.24
 30
0.0
 10
8.569669291338583
 20
0.2344448818897638
 30
0.0
 10
8.569669291338583
 20
0.2344448818897638
 30
0.0
 10
8.640503937007875
 20
0.2288897637795275
 30
0.0
 10
8.77105905511811
 20
0.2233307086614173
 30
0.0
 10
8.897444881889763
 20
0.2143031496062992
 30
0.0
 10
8.897444881889763
 20
0.2143031496062992
 30
0.0
 10
9.023834645669291
 20
0.2052755905511811
 30
0.0
 10
9.14605905511811
 20
0.1927795275590551
 30
0.0
 10
9.216889763779527
 20
0.1844448818897638
 30
0.0
  0
SPLINE
  5
71
330
1F
100
AcDbEntity
  8
Layer 1
 62
   250
370
    18
100
AcDbSpline
210
0.0
220
0.0
230
1.0
 70
    11
 71
     3
 72
    64
 73
    60
 74
     0
 42
0.000000001
 43
0.0000000001
 40
0.0
 40
0.0
 40
0.0
 40
0.0
 40
0.0625
 40
0.0625
 40
0.0625
 40
0.0625
 40
0.125
 40
0.125
 40
0.125
 40
0.125
 40
0.1875
 40
0.1875
 40
0.1875
 40
0.1875
 40
0.25
 40
0.25
 40
0.25
 40
0.25
 40
0.3125
 40
0.3125
 40
0.3125
 40
0.3125
 40
0.375
 40
0.375
 40
0.375
 40
0.375
 40
0.4375
 40
0.4375
 40
0.4375
 40
0.4375
 40
0.5
 40
0.5
 40
0.5
 40
0.5
 40
0.5625
 40
0.5625
 40
0.5625
 40
0.5625
 40
0.625
 40
0.625
 40
0.625
 40
0.625
 40
0.6875
 40
0.6875
 40
0.6875
 40
0.6875
 40
0.75
 40
0.75
 40
0.75
 40
0.75
 40
0.8125
 40
0.8125
 40
0.8125
 40
0.8125
 40
0.875
 40
0.875
 40
0.875
 40
0.875
 40
1.0
 40
1.0
 40
1.0
 40
1.0
 10
7.093594488188977
 20
-0.2773582677165354
 30
0.0
 10
7.129011811023622
 20
-0.2759724409448819
 30
0.0
 10
7.178318897637795
 20
-0.2759724409448819
 30
0.0
 10
7.202275590551181
 20
-0.2801377952755906
 30
0.0
 10
7.202275590551181
 20
-0.2801377952755906
 30
0.0
 10
7.226236220472441
 20
-0.2843070866141733
 30
0.0
 10
7.224846456692913
 20
-0.2926377952755905
 30
0.0
 10
7.225885826771654
 20
-0.4013188976377953
 30
0.0
 10
7.225885826771654
 20
-0.4013188976377953
 30
0.0
 10
7.226929133858268
 20
-0.51
 30
0.0
 10
7.23040157480315
 20
-0.7190314960629921
 30
0.0
 10
7.229358267716536
 20
-0.8277125984251968
 30
0.0
 10
7.229358267716536
 20
-0.8277125984251968
 30
0.0
 10
7.228318897637795
 20
-0.9363937007874016
 30
0.0
 10
7.222763779527559
 20
-0.9447244094488189
 30
0.0
 10
7.18213779527559
 20
-0.9464606299212598
 30
0.0
 10
7.18213779527559
 20
-0.9464606299212598
 30
0.0
 10
7.141511811023622
 20
-0.9481968503937008
 30
0.0
 10
7.065818897637795
 20
-0.9433385826771653
 30
0.0
 10
6.999149606299213
 20
-0.9332677165354331
 30
0.0
 10
6.999149606299213
 20
-0.9332677165354331
 30
0.0
 10
6.932484251968504
 20
-0.9231968503937008
 30
0.0
 10
6.874842519685039
 20
-0.9079212598425197
 30
0.0
 10
6.841854330708661
 20
-0.8988937007874016
 30
0.0
 10
6.841854330708661
 20
-0.8988937007874016
 30
0.0
 10
6.808870078740157
 20
-0.8898661417322835
 30
0.0
 10
6.80053937007874
 20
-0.8870866141732283
 30
0.0
 10
6.796370078740157
 20
-0.8832677165354331
 30
0.0
 10
6.796370078740157
 20
-0.8832677165354331
 30
0.0
 10
6.792204724409449
 20
-0.8794488188976378
 30
0.0
 10
6.792204724409449
 20
-0.8745866141732284
 30
0.0
 10
6.792551181102362
 20
-0.8547952755905511
 30
0.0
 10
6.792551181102362
 20
-0.8547952755905511
 30
0.0
 10
6.792897637795275
 20
-0.835003937007874
 30
0.0
 10
6.793594488188976
 20
-0.8002795275590551
 30
0.0
 10
6.805744094488189
 20
-0.7672913385826772
 30
0.0
 10
6.805744094488189
 20
-0.7672913385826772
 30
0.0
 10
6.817897637795276
 20
-0.7343070866141732
 30
0.0
 10
6.841511811023622
 20
-0.7030590551181103
 30
0.0
 10
6.851232283464567
 20
-0.624236220472441
 30
0.0
 10
6.851232283464567
 20
-0.624236220472441
 30
0.0
 10
6.860956692913386
 20
-0.5454173228346457
 30
0.0
 10
6.856787401574803
 20
-0.4190275590551181
 30
0.0
 10
6.85748031496063
 20
-0.3554842519685039
 30
0.0
 10
6.85748031496063
 20
-0.3554842519685039
 30
0.0
 10
6.858177165354331
 20
-0.2919448818897638
 30
0.0
 10
6.863732283464567
 20
-0.291248031496063
 30
0.0
 10
6.881090551181102
 20
-0.2922913385826771
 30
0.0
 10
6.881090551181102
 20
-0.2922913385826771
 30
0.0
 10
6.898452755905512
 20
-0.2933346456692913
 30
0.0
 10
6.927622047244094
 20
-0.2961102362204724
 30
0.0
 10
6.951925196850394
 20
-0.2950669291338583
 30
0.0
 10
6.951925196850394
 20
-0.2950669291338583
 30
0.0
 10
6.976232283464567
 20
-0.2940275590551181
 30
0.0
 10
6.995677165354331
 20
-0.2891653543307087
 30
0.0
 10
7.016161417322834
 20
-0.2853464566929134
 30
0.0
 10
7.016161417322834
 20
-0.2853464566929134
 30
0.0
 10
7.036649606299212
 20
-0.2815275590551181
 30
0.0
 10
7.058177165354331
 20
-0.278748031496063
 30
0.0
 10
7.093594488188977
 20
-0.2773582677165354
 30
0.0
  0
SPLINE
  5
72
330
1F
100
AcDbEntity
  8
Layer 1
 62
   250
370
    18
100
AcDbSpline
210
0.0
220
0.0
230
1.0
 70
    11
 71
     3
 72
    80
 73
    76
 74
     0
 42
0.000000001
 43
0.0000000001
 40
0.0
 40
0.0
 40
0.0
 40
0.0
 40
0.05
 40
0.05
 40
0.05
 40
0.05
 40
0.1
 40
0.1
 40
0.1
 40
0.1
 40
0.15
 40
0.15
 40
0.15
 40
0.15
 40
0.2
 40
0.2
 40
0.2
 40
0.2
 40
0.25
 40
0.25
 40
0.25
 40
0.25
 40
0.3
 40
0.3
 40
0.3
 40
0.3
 40
0.35
 40
0.35
 40
0.35
 40
0.35
 40
0.4
 40
0.4
 40
0.4
 40
0.4
 40
0.45
 40
0.45
 40
0.45
 40
0.45
 40
0.5
 40
0.5
 40
0.5
 40
0.5
 40
0.55
 40
0.55
 40
0.55
 40
0.55
 40
0.6
 40
0.6
 40
0.6
 40
0.6
 40
0.65
 40
0.65
 40
0.65
 40
0.65
 40
0.7
 40
0.7
 40
0.7
 40
0.7
 40
0.75
 40
0.75
 40
0.75
 40
0.75
 40
0.8
 40
0.8
 40
0.8
 40
0.8
 40
0.85
 40
0.85
 40
0.85
 40
0.85
 40
0.9
 40
0.9
 40
0.9
 40
0.9
 40
1.0
 40
1.0
 40
1.0
 40
1.0
 10
10.92205905511811
 20
-6.496791338582677
 30
0.0
 10
11.00192125984252
 20
-6.45859842519685
 30
0.0
 10
11.15748031496063
 20
-6.414157480314961
 30
0.0
 10
11.24636614173228
 20
-6.393322834645669
 30
0.0
 10
11.24636614173228
 20
-6.393322834645669
 30
0.0
 10
11.33525590551181
 20
-6.372488188976378
 30
0.0
 10
11.35748031496063
 20
-6.375267716535433
 30
0.0
 10
11.39636614173228
 20
-6.380125984251968
 30
0.0
 10
11.39636614173228
 20
-6.380125984251968
 30
0.0
 10
11.43525590551181
 20
-6.384988188976378
 30
0.0
 10
11.49081496062992
 20
-6.391933070866142
 30
0.0
 10
11.52206299212598
 20
-6.40582283464567
 30
0.0
 10
11.52206299212598
 20
-6.40582283464567
 30
0.0
 10
11.55331496062992
 20
-6.419712598425197
 30
0.0
 10
11.56025590551181
 20
-6.440543307086614
 30
0.0
 10
11.56511811023622
 20
-6.461377952755906
 30
0.0
 10
11.56511811023622
 20
-6.461377952755906
 30
0.0
 10
11.56998031496063
 20
-6.482212598425197
 30
0.0
 10
11.57275590551181
 20
-6.503043307086614
 30
0.0
 10
11.56025590551181
 20
-6.525263779527559
 30
0.0
 10
11.56025590551181
 20
-6.525263779527559
 30
0.0
 10
11.54775590551181
 20
-6.547488188976378
 30
0.0
 10
11.51998031496063
 20
-6.571102362204725
 30
0.0
 10
11.48525590551181
 20
-6.621102362204724
 30
0.0
 10
11.48525590551181
 20
-6.621102362204724
 30
0.0
 10
11.45053543307087
 20
-6.671102362204724
 30
0.0
 10
11.40886614173228
 20
-6.747488188976378
 30
0.0
 10
11.38108661417323
 20
-6.784291338582677
 30
0.0
 10
11.38108661417323
 20
-6.784291338582677
 30
0.0
 10
11.35331102362205
 20
-6.82109842519685
 30
0.0
 10
11.33942519685039
 20
-6.818322834645669
 30
0.0
 10
11.32900787401575
 20
-6.827350393700788
 30
0.0
 10
11.32900787401575
 20
-6.827350393700788
 30
0.0
 10
11.3185905511811
 20
-6.836377952755906
 30
0.0
 10
11.31164566929134
 20
-6.857208661417323
 30
0.0
 10
11.29844881889764
 20
-6.880125984251968
 30
0.0
 10
11.29844881889764
 20
-6.880125984251968
 30
0.0
 10
11.28525590551181
 20
-6.903043307086614
 30
0.0
 10
11.26581496062992
 20
-6.928043307086615
 30
0.0
 10
11.24706299212598
 20
-6.939846456692913
 30
0.0
 10
11.24706299212598
 20
-6.939846456692913
 30
0.0
 10
11.22831496062992
 20
-6.951653543307087
 30
0.0
 10
11.21025590551181
 20
-6.950267716535433
 30
0.0
 10
11.17483858267716
 20
-6.96346062992126
 30
0.0
 10
11.17483858267716
 20
-6.96346062992126
 30
0.0
 10
11.13942125984252
 20
-6.976657480314961
 30
0.0
 10
11.08664566929134
 20
-7.004433070866142
 30
0.0
 10
11.03594881889764
 20
-7.048181102362205
 30
0.0
 10
11.03594881889764
 20
-7.048181102362205
 30
0.0
 10
10.98525590551181
 20
-7.091933070866141
 30
0.0
 10
10.93664566929134
 20
-7.15165748031496
 30
0.0
 10
10.90817322834646
 20
-7.177350393700787
 30
0.0
 10
10.90817322834646
 20
-7.177350393700787
 30
0.0
 10
10.87970078740157
 20
-7.203043307086614
 30
0.0
 10
10.87137007874016
 20
-7.194712598425197
 30
0.0
 10
10.86720078740158
 20
-7.148877952755906
 30
0.0
 10
10.86720078740158
 20
-7.148877952755906
 30
0.0
 10
10.86303543307087
 20
-7.103043307086614
 30
0.0
 10
10.86303543307087
 20
-7.019712598425197
 30
0.0
 10
10.8678937007874
 20
-6.974570866141732
 30
0.0
 10
10.8678937007874
 20
-6.974570866141732
 30
0.0
 10
10.87275590551181
 20
-6.929433070866142
 30
0.0
 10
10.88248031496063
 20
-6.922488188976378
 30
0.0
 10
10.89220078740157
 20
-6.910681102362204
 30
0.0
 10
10.89220078740157
 20
-6.910681102362204
 30
0.0
 10
10.90192125984252
 20
-6.898877952755906
 30
0.0
 10
10.91164566929134
 20
-6.882208661417323
 30
0.0
 10
10.90192125984252
 20
-6.829429133858268
 30
0.0
 10
10.90192125984252
 20
-6.829429133858268
 30
0.0
 10
10.89220078740157
 20
-6.776653543307087
 30
0.0
 10
10.86303149606299
 20
-6.687767716535433
 30
0.0
 10
10.85053149606299
 20
-6.627350393700787
 30
0.0
 10
10.85053149606299
 20
-6.627350393700787
 30
0.0
 10
10.83803149606299
 20
-6.566933070866142
 30
0.0
 10
10.84220078740158
 20
-6.534988188976378
 30
0.0
 10
10.92205905511811
 20
-6.496791338582677
 30
0.0
  0
SPLINE
  5
73
330
1F
100
AcDbEntity
  8
Layer 1
 62
   250
370
    18
100
AcDbSpline
210
0.0
220
0.0
230
1.0
 70
     8
 71
     3
 72
    24
 73
    20
 74
     0
 42
0.000000001
 43
0.0000000001
 40
0.0
 40
0.0
 40
0.0
 40
0.0
 40
0.1666666666666667
 40
0.1666666666666667
 40
0.1666666666666667
 40
0.1666666666666667
 40
0.3333333333333333
 40
0.3333333333333333
 40
0.3333333333333333
 40
0.3333333333333333
 40
0.5
 40
0.5
 40
0.5
 40
0.5
 40
0.6666666666666666
 40
0.6666666666666666
 40
0.6666666666666666
 40
0.6666666666666666
 40
1.0
 40
1.0
 40
1.0
 40
1.0
 10
2.706779527559055
 20
-1.915212598425197
 30
0.0
 10
3.03455905511811
 20
-1.747157480314961
 30
0.0
 10
3.362334645669292
 20
-1.579102362204724
 30
0.0
 10
3.583169291338583
 20
-1.476322834645669
 30
0.0
 10
3.583169291338583
 20
-1.476322834645669
 30
0.0
 10
3.804003937007874
 20
-1.373547244094488
 30
0.0
 10
3.917889763779527
 20
-1.336047244094488
 30
0.0
 10
3.986637795275591
 20
-1.304102362204724
 30
0.0
 10
3.986637795275591
 20
-1.304102362204724
 30
0.0
 10
4.055389763779528
 20
-1.272157480314961
 30
0.0
 10
4.079003937007874
 20
-1.245767716535433
 30
0.0
 10
4.145669291338582
 20
-1.208267716535433
 30
0.0
 10
4.145669291338582
 20
-1.208267716535433
 30
0.0
 10
4.212338582677165
 20
-1.170767716535433
 30
0.0
 10
4.32205905511811
 20
-1.122157480314961
 30
0.0
 10
4.421366141732284
 20
-1.08396062992126
 30
0.0
 10
4.421366141732284
 20
-1.08396062992126
 30
0.0
 10
4.520673228346457
 20
-1.045767716535433
 30
0.0
 10
4.60955905511811
 20
-1.017992125984252
 30
0.0
 10
4.698448818897638
 20
-0.9902125984251968
 30
0.0
  0
SPLINE
  5
74
330
1F
100
AcDbEntity
  8
Layer 1
 62
   250
370
    18
100
AcDbSpline
210
0.0
220
0.0
230
1.0
 70
     8
 71
     3
 72
    24
 73
    20
 74
     0
 42
0.000000001
 43
0.0000000001
 40
0.0
 40
0.0
 40
0.0
 40
0.0
 40
0.1666666666666667
 40
0.1666666666666667
 40
0.1666666666666667
 40
0.1666666666666667
 40
0.3333333333333333
 40
0.3333333333333333
 40
0.3333333333333333
 40
0.3333333333333333
 40
0.5
 40
0.5
 40
0.5
 40
0.5
 40
0.6666666666666666
 40
0.6666666666666666
 40
0.6666666666666666
 40
0.6666666666666666
 40
1.0
 40
1.0
 40
1.0
 40
1.0
 10
4.785929133858268
 20
-0.8693582677165355
 30
0.0
 10
4.805374015748032
 20
-0.7735236220472441
 30
0.0
 10
4.824818897637796
 20
-0.6776929133858268
 30
0.0
 10
4.838708661417323
 20
-0.6304685039370079
 30
0.0
 10
4.838708661417323
 20
-0.6304685039370079
 30
0.0
 10
4.852598425196851
 20
-0.583248031496063
 30
0.0
 10
4.860929133858268
 20
-0.5846377952755906
 30
0.0
 10
5.102594488188976
 20
-0.6110275590551181
 30
0.0
 10
5.102594488188976
 20
-0.6110275590551181
 30
0.0
 10
5.344263779527559
 20
-0.6374173228346457
 30
0.0
 10
5.819267716535433
 20
-0.6888031496062992
 30
0.0
 10
6.060240157480315
 20
-0.7151929133858268
 30
0.0
 10
6.060240157480315
 20
-0.7151929133858268
 30
0.0
 10
6.301212598425197
 20
-0.7415826771653543
 30
0.0
 10
6.308157480314961
 20
-0.7429685039370079
 30
0.0
 10
6.37551968503937
 20
-0.761023622047244
 30
0.0
 10
6.37551968503937
 20
-0.761023622047244
 30
0.0
 10
6.44288188976378
 20
-0.7790826771653543
 30
0.0
 10
6.570657480314961
 20
-0.8138031496062992
 30
0.0
 10
6.698437007874015
 20
-0.8485275590551181
 30
0.0
  0
SPLINE
  5
75
330
1F
100
AcDbEntity
  8
Layer 1
 62
   250
370
    18
100
AcDbSpline
210
0.0
220
0.0
230
1.0
 70
     8
 71
     3
 72
    16
 73
    12
 74
     0
 42
0.000000001
 43
0.0000000001
 40
0.0
 40
0.0
 40
0.0
 40
0.0
 40
0.25
 40
0.25
 40
0.25
 40
0.25
 40
0.5
 40
0.5
 40
0.5
 40
0.5
 40
1.0
 40
1.0
 40
1.0
 40
1.0
 10
4.585929133858268
 20
-1.877688976377953
 30
0.0
 10
5.02203937007874
 20
-1.758244094488189
 30
0.0
 10
5.458153543307087
 20
-1.638799212598425
 30
0.0
 10
5.712318897637795
 20
-1.580464566929134
 30
0.0
 10
5.712318897637795
 20
-1.580464566929134
 30
0.0
 10
5.966484251968504
 20
-1.522133858267717
 30
0.0
 10
6.038708661417322
 20
-1.524909448818898
 30
0.0
 10
6.28453937007874
 20
-1.547129921259843
 30
0.0
 10
6.28453937007874
 20
-1.547129921259843
 30
0.0
 10
6.530374015748031
 20
-1.569354330708661
 30
0.0
 10
6.949822834645669
 20
-1.611023622047244
 30
0.0
 10
7.369267716535433
 20
-1.652688976377953
 30
0.0
  0
SPLINE
  5
76
330
1F
100
AcDbEntity
  8
Layer 1
 62
   250
370
    18
100
AcDbSpline
210
0.0
220
0.0
230
1.0
 70
     8
 71
     3
 72
    52
 73
    48
 74
     0
 42
0.000000001
 43
0.0000000001
 40
0.0
 40
0.0
 40
0.0
 40
0.0
 40
0.0769230769230769
 40
0.0769230769230769
 40
0.0769230769230769
 40
0.0769230769230769
 40
0.1538461538461539
 40
0.1538461538461539
 40
0.1538461538461539
 40
0.1538461538461539
 40
0.2307692307692308
 40
0.2307692307692308
 40
0.2307692307692308
 40
0.2307692307692308
 40
0.3076923076923077
 40
0.3076923076923077
 40
0.3076923076923077
 40
0.3076923076923077
 40
0.3846153846153846
 40
0.3846153846153846
 40
0.3846153846153846
 40
0.3846153846153846
 40
0.4615384615384616
 40
0.4615384615384616
 40
0.4615384615384616
 40
0.4615384615384616
 40
0.5384615384615384
 40
0.5384615384615384
 40
0.5384615384615384
 40
0.5384615384615384
 40
0.6153846153846154
 40
0.6153846153846154
 40
0.6153846153846154
 40
0.6153846153846154
 40
0.6923076923076923
 40
0.6923076923076923
 40
0.6923076923076923
 40
0.6923076923076923
 40
0.7692307692307693
 40
0.7692307692307693
 40
0.7692307692307693
 40
0.7692307692307693
 40
0.8461538461538461
 40
0.8461538461538461
 40
0.8461538461538461
 40
0.8461538461538461
 40
1.0
 40
1.0
 40
1.0
 40
1.0
 10
4.910929133858268
 20
-2.394350393700787
 30
0.0
 10
5.133149606299213
 20
-2.316570866141732
 30
0.0
 10
5.355374015748032
 20
-2.238795275590551
 30
0.0
 10
5.499814960629921
 20
-2.199905511811024
 30
0.0
 10
5.499814960629921
 20
-2.199905511811024
 30
0.0
 10
5.644259842519685
 20
-2.161015748031496
 30
0.0
 10
5.710929133858268
 20
-2.161015748031496
 30
0.0
 10
5.853984251968504
 20
-2.161015748031496
 30
0.0
 10
5.853984251968504
 20
-2.161015748031496
 30
0.0
 10
5.99703937007874
 20
-2.161015748031496
 30
0.0
 10
6.216484251968504
 20
-2.161015748031496
 30
0.0
 10
6.331759842519685
 20
-2.161015748031496
 30
0.0
 10
6.331759842519685
 20
-2.161015748031496
 30
0.0
 10
6.44703937007874
 20
-2.161015748031496
 30
0.0
 10
6.458153543307087
 20
-2.161015748031496
 30
0.0
 10
6.498429133858267
 20
-2.15546062992126
 30
0.0
 10
6.498429133858267
 20
-2.15546062992126
 30
0.0
 10
6.538708661417322
 20
-2.149905511811024
 30
0.0
 10
6.608153543307087
 20
-2.138791338582677
 30
0.0
 10
6.823429133858268
 20
-2.062401574803149
 30
0.0
 10
6.823429133858268
 20
-2.062401574803149
 30
0.0
 10
7.038708661417322
 20
-1.986015748031496
 30
0.0
 10
7.399822834645669
 20
-1.844346456692913
 30
0.0
 10
7.621346456692914
 20
-1.767956692913386
 30
0.0
 10
7.621346456692914
 20
-1.767956692913386
 30
0.0
 10
7.842874015748031
 20
-1.691566929133858
 30
0.0
 10
7.924818897637795
 20
-1.680452755905512
 30
0.0
 10
8.002594488188976
 20
-1.673507874015748
 30
0.0
 10
8.002594488188976
 20
-1.673507874015748
 30
0.0
 10
8.080370078740158
 20
-1.666562992125984
 30
0.0
 10
8.15398031496063
 20
-1.663783464566929
 30
0.0
 10
8.317870078740157
 20
-1.610311023622047
 30
0.0
 10
8.317870078740157
 20
-1.610311023622047
 30
0.0
 10
8.481759842519685
 20
-1.556842519685039
 30
0.0
 10
8.735925196850394
 20
-1.452673228346457
 30
0.0
 10
8.883145669291338
 20
-1.395728346456693
 30
0.0
 10
8.883145669291338
 20
-1.395728346456693
 30
0.0
 10
9.030370078740157
 20
-1.338783464566929
 30
0.0
 10
9.070649606299213
 20
-1.329062992125984
 30
0.0
 10
9.172732283464567
 20
-1.32142125984252
 30
0.0
 10
9.172732283464567
 20
-1.32142125984252
 30
0.0
 10
9.274814960629922
 20
-1.313783464566929
 30
0.0
 10
9.43870472440945
 20
-1.308228346456693
 30
0.0
 10
9.660925196850394
 20
-1.319338582677165
 30
0.0
 10
9.660925196850394
 20
-1.319338582677165
 30
0.0
 10
9.883149606299213
 20
-1.330452755905512
 30
0.0
 10
10.16370866141732
 20
-1.358228346456693
 30
0.0
 10
10.44426377952756
 20
-1.386007874015748
 30
0.0
  0
SPLINE
  5
77
330
1F
100
AcDbEntity
  8
Layer 1
 62
   250
370
    18
100
AcDbSpline
210
0.0
220
0.0
230
1.0
 70
    24
 71
     3
 72
     8
 73
     4
 74
     0
 42
0.000000001
 43
0.0000000001
 40
0.0
 40
0.0
 40
0.0
 40
0.0
 40
1.0
 40
1.0
 40
1.0
 40
1.0
 10
10.72343307086614
 20
-1.531826771653543
 30
0.0
 10
11.05537795275591
 20
-1.906826771653543
 30
0.0
 10
11.38732283464567
 20
-2.281826771653543
 30
0.0
 10
11.71926771653543
 20
-2.656826771653543
 30
0.0
  0
SPLINE
  5
78
330
1F
100
AcDbEntity
  8
Layer 1
 62
   250
370
    18
100
AcDbSpline
210
0.0
220
0.0
230
1.0
 70
     8
 71
     3
 72
     8
 73
     4
 74
     0
 42
0.000000001
 43
0.0000000001
 40
0.0
 40
0.0
 40
0.0
 40
0.0
 40
1.0
 40
1.0
 40
1.0
 40
1.0
 10
11.69010236220472
 20
-1.685984251968504
 30
0.0
 10
12.01649212598425
 20
-2.051259842519685
 30
0.0
 10
12.34287795275591
 20
-2.41653937007874
 30
0.0
 10
12.66926771653543
 20
-2.781814960629921
 30
0.0
  0
SPLINE
  5
79
330
1F
100
AcDbEntity
  8
Layer 1
 62
   250
370
    18
100
AcDbSpline
210
0.0
220
0.0
230
1.0
 70
     8
 71
     3
 72
    20
 73
    16
 74
     0
 42
0.000000001
 43
0.0000000001
 40
0.0
 40
0.0
 40
0.0
 40
0.0
 40
0.2
 40
0.2
 40
0.2
 40
0.2
 40
0.4
 40
0.4
 40
0.4
 40
0.4
 40
0.6
 40
0.6
 40
0.6
 40
0.6
 40
1.0
 40
1.0
 40
1.0
 40
1.0
 10
10.50260236220472
 20
-1.623472440944882
 30
0.0
 10
10.09843307086614
 20
-1.610972440944882
 30
0.0
 10
9.694267716535434
 20
-1.598472440944882
 30
0.0
 10
9.488015748031495
 20
-1.595
 30
0.0
 10
9.488015748031495
 20
-1.595
 30
0.0
 10
9.281763779527559
 20
-1.591527559055118
 30
0.0
 10
9.273433070866142
 20
-1.597086614173228
 30
0.0
 10
9.264405511811024
 20
-1.615141732283464
 30
0.0
 10
9.264405511811024
 20
-1.615141732283464
 30
0.0
 10
9.255377952755905
 20
-1.633196850393701
 30
0.0
 10
9.245653543307087
 20
-1.663751968503937
 30
0.0
 10
9.308153543307087
 20
-1.893614173228346
 30
0.0
 10
9.308153543307087
 20
-1.893614173228346
 30
0.0
 10
9.370653543307087
 20
-2.123476377952756
 30
0.0
 10
9.505377952755905
 20
-2.552641732283464
 30
0.0
 10
9.64009842519685
 20
-2.981811023622047
 30
0.0
  0
SPLINE
  5
7A
330
1F
100
AcDbEntity
  8
Layer 1
 62
   250
370
    18
100
AcDbSpline
210
0.0
220
0.0
230
1.0
 70
     8
 71
     3
 72
    16
 73
    12
 74
     0
 42
0.000000001
 43
0.0000000001
 40
0.0
 40
0.0
 40
0.0
 40
0.0
 40
0.25
 40
0.25
 40
0.25
 40
0.25
 40
0.5
 40
0.5
 40
0.5
 40
0.5
 40
1.0
 40
1.0
 40
1.0
 40
1.0
 10
11.00259842519685
 20
-1.685984251968504
 30
0.0
 10
11.2053779527559
 20
-1.701259842519685
 30
0.0
 10
11.40815354330709
 20
-1.71653937007874
 30
0.0
 10
11.52134645669291
 20
-1.731814960629921
 30
0.0
 10
11.52134645669291
 20
-1.731814960629921
 30
0.0
 10
11.63454330708661
 20
-1.747094488188976
 30
0.0
 10
11.65815354330709
 20
-1.762370078740157
 30
0.0
 10
11.80676377952756
 20
-1.928342519685039
 30
0.0
 10
11.80676377952756
 20
-1.928342519685039
 30
0.0
 10
11.95537401574803
 20
-2.094314960629921
 30
0.0
 10
12.22898818897638
 20
-2.410984251968504
 30
0.0
 10
12.50259842519685
 20
-2.727649606299213
 30
0.0
  0
SPLINE
  5
7B
330
1F
100
AcDbEntity
  8
Layer 1
 62
   250
370
    18
100
AcDbSpline
210
0.0
220
0.0
230
1.0
 70
     8
 71
     3
 72
    16
 73
    12
 74
     0
 42
0.000000001
 43
0.0000000001
 40
0.0
 40
0.0
 40
0.0
 40
0.0
 40
0.25
 40
0.25
 40
0.25
 40
0.25
 40
0.5
 40
0.5
 40
0.5
 40
0.5
 40
1.0
 40
1.0
 40
1.0
 40
1.0
 10
9.773425196850393
 20
-2.919311023622047
 30
0.0
 10
9.985925196850394
 20
-2.844311023622047
 30
0.0
 10
10.19842913385827
 20
-2.769311023622047
 30
0.0
 10
10.3907874015748
 20
-2.721393700787401
 30
0.0
 10
10.3907874015748
 20
-2.721393700787401
 30
0.0
 10
10.58314960629921
 20
-2.673476377952756
 30
0.0
 10
10.75537401574803
 20
-2.652645669291338
 30
0.0
 10
10.94079133858268
 20
-2.647783464566929
 30
0.0
 10
10.94079133858268
 20
-2.647783464566929
 30
0.0
 10
11.12620866141732
 20
-2.64292125984252
 30
0.0
 10
11.3248188976378
 20
-2.654031496062992
 30
0.0
 10
11.52343307086614
 20
-2.665141732283465
 30
0.0
  0
SPLINE
  5
7C
330
1F
100
AcDbEntity
  8
Layer 1
 62
   250
370
    18
100
AcDbSpline
210
0.0
220
0.0
230
1.0
 70
     8
 71
     3
 72
    12
 73
     8
 74
     0
 42
0.000000001
 43
0.0000000001
 40
0.0
 40
0.0
 40
0.0
 40
0.0
 40
0.3333333333333333
 40
0.3333333333333333
 40
0.3333333333333333
 40
0.3333333333333333
 40
1.0
 40
1.0
 40
1.0
 40
1.0
 10
11.80884251968504
 20
-2.70055905511811
 30
0.0
 10
11.93106692913386
 20
-2.704724409448819
 30
0.0
 10
12.0532874015748
 20
-2.708893700787402
 30
0.0
 10
12.16370472440945
 20
-2.720696850393701
 30
0.0
 10
12.16370472440945
 20
-2.720696850393701
 30
0.0
 10
12.2741220472441
 20
-2.732503937007874
 30
0.0
 10
12.37273622047244
 20
-2.751948818897638
 30
0.0
 10
12.47134645669291
 20
-2.771393700787402
 30
0.0
  0
SPLINE
  5
7D
330
1F
100
AcDbEntity
  8
Layer 1
 62
   250
370
    18
100
AcDbSpline
210
0.0
220
0.0
230
1.0
 70
     8
 71
     3
 72
    16
 73
    12
 74
     0
 42
0.000000001
 43
0.0000000001
 40
0.0
 40
0.0
 40
0.0
 40
0.0
 40
0.25
 40
0.25
 40
0.25
 40
0.25
 40
0.5
 40
0.5
 40
0.5
 40
0.5
 40
1.0
 40
1.0
 40
1.0
 40
1.0
 10
11.94633858267717
 20
-1.825551181102362
 30
0.0
 10
12.17967322834646
 20
-1.85194094488189
 30
0.0
 10
12.41300787401575
 20
-1.878326771653543
 30
0.0
 10
12.54425590551181
 20
-1.900547244094488
 30
0.0
 10
12.54425590551181
 20
-1.900547244094488
 30
0.0
 10
12.67550787401575
 20
-1.922771653543307
 30
0.0
 10
12.70467716535433
 20
-1.940826771653543
 30
0.0
 10
12.82620472440945
 20
-2.097771653543307
 30
0.0
 10
12.82620472440945
 20
-2.097771653543307
 30
0.0
 10
12.94773228346457
 20
-2.254716535433071
 30
0.0
 10
13.16161811023622
 20
-2.550551181102362
 30
0.0
 10
13.37550787401575
 20
-2.846385826771654
 30
0.0
  0
SPLINE
  5
7E
330
1F
100
AcDbEntity
  8
Layer 1
 62
   250
370
    18
100
AcDbSpline
210
0.0
220
0.0
230
1.0
 70
     8
 71
     3
 72
    20
 73
    16
 74
     0
 42
0.000000001
 43
0.0000000001
 40
0.0
 40
0.0
 40
0.0
 40
0.0
 40
0.2
 40
0.2
 40
0.2
 40
0.2
 40
0.4
 40
0.4
 40
0.4
 40
0.4
 40
0.6
 40
0.6
 40
0.6
 40
0.6
 40
1.0
 40
1.0
 40
1.0
 40
1.0
 10
12.11716929133858
 20
-2.054712598425197
 30
0.0
 10
12.34077952755906
 20
-2.308877952755906
 30
0.0
 10
12.5643937007874
 20
-2.563047244094488
 30
0.0
 10
12.69911417322835
 20
-2.689433070866142
 30
0.0
 10
12.69911417322835
 20
-2.689433070866142
 30
0.0
 10
12.83383858267717
 20
-2.815822834645669
 30
0.0
 10
12.87966929133858
 20
-2.814433070866142
 30
0.0
 10
12.96647637795276
 20
-2.829708661417323
 30
0.0
 10
12.96647637795276
 20
-2.829708661417323
 30
0.0
 10
13.05328346456693
 20
-2.844988188976378
 30
0.0
 10
13.18105905511811
 20
-2.876933070866142
 30
0.0
 10
13.26925196850394
 20
-2.900543307086614
 30
0.0
 10
13.26925196850394
 20
-2.900543307086614
 30
0.0
 10
13.35744881889764
 20
-2.924157480314961
 30
0.0
 10
13.40605905511811
 20
-2.939433070866142
 30
0.0
 10
13.45466929133858
 20
-2.954712598425197
 30
0.0
  0
SPLINE
  5
7F
330
1F
100
AcDbEntity
  8
Layer 1
 62
   250
370
    18
100
AcDbSpline
210
0.0
220
0.0
230
1.0
 70
     8
 71
     3
 72
    28
 73
    24
 74
     0
 42
0.000000001
 43
0.0000000001
 40
0.0
 40
0.0
 40
0.0
 40
0.0
 40
0.1428571428571428
 40
0.1428571428571428
 40
0.1428571428571428
 40
0.1428571428571428
 40
0.2857142857142857
 40
0.2857142857142857
 40
0.2857142857142857
 40
0.2857142857142857
 40
0.4285714285714285
 40
0.4285714285714285
 40
0.4285714285714285
 40
0.4285714285714285
 40
0.5714285714285714
 40
0.5714285714285714
 40
0.5714285714285714
 40
0.5714285714285714
 40
0.7142857142857143
 40
0.7142857142857143
 40
0.7142857142857143
 40
0.7142857142857143
 40
1.0
 40
1.0
 40
1.0
 40
1.0
 10
9.717169291338582
 20
-3.158870078740157
 30
0.0
 10
10.00327952755906
 20
-3.114425196850394
 30
0.0
 10
10.2893937007874
 20
-3.069984251968504
 30
0.0
 10
10.48800393700787
 20
-3.049149606299213
 30
0.0
 10
10.48800393700787
 20
-3.049149606299213
 30
0.0
 10
10.68661417322835
 20
-3.028314960629921
 30
0.0
 10
10.79772440944882
 20
-3.031094488188976
 30
0.0
 10
10.90188976377953
 20
-3.096370078740157
 30
0.0
 10
10.90188976377953
 20
-3.096370078740157
 30
0.0
 10
11.00605905511811
 20
-3.161649606299213
 30
0.0
 10
11.10327952755905
 20
-3.289425196850394
 30
0.0
 10
11.13938976377953
 20
-3.463035433070866
 30
0.0
 10
11.13938976377953
 20
-3.463035433070866
 30
0.0
 10
11.17550393700787
 20
-3.636649606299212
 30
0.0
 10
11.15050393700787
 20
-3.856094488188976
 30
0.0
 10
11.09633464566929
 20
-4.046370078740157
 30
0.0
 10
11.09633464566929
 20
-4.046370078740157
 30
0.0
 10
11.04216929133858
 20
-4.236649606299213
 30
0.0
 10
10.95883858267717
 20
-4.397763779527559
 30
0.0
 10
10.88661417322835
 20
-4.511649606299213
 30
0.0
 10
10.88661417322835
 20
-4.511649606299213
 30
0.0
 10
10.8143937007874
 20
-4.62553937007874
 30
0.0
 10
10.75327952755906
 20
-4.692208661417323
 30
0.0
 10
10.69216929133858
 20
-4.758874015748032
 30
0.0
  0
SPLINE
  5
80
330
1F
100
AcDbEntity
  8
Layer 1
 62
   250
370
    18
100
AcDbSpline
210
0.0
220
0.0
230
1.0
 70
     8
 71
     3
 72
    20
 73
    16
 74
     0
 42
0.000000001
 43
0.0000000001
 40
0.0
 40
0.0
 40
0.0
 40
0.0
 40
0.2
 40
0.2
 40
0.2
 40
0.2
 40
0.4
 40
0.4
 40
0.4
 40
0.4
 40
0.6
 40
0.6
 40
0.6
 40
0.6
 40
1.0
 40
1.0
 40
1.0
 40
1.0
 10
9.692161417322835
 20
-3.421370078740158
 30
0.0
 10
9.701885826771653
 20
-3.693594488188976
 30
0.0
 10
9.711606299212598
 20
-3.965814960629921
 30
0.0
 10
9.74424409448819
 20
-4.150535433070866
 30
0.0
 10
9.74424409448819
 20
-4.150535433070866
 30
0.0
 10
9.776885826771654
 20
-4.335259842519685
 30
0.0
 10
9.83244094488189
 20
-4.432484251968504
 30
0.0
 10
9.938688976377954
 20
-4.517204724409448
 30
0.0
 10
9.938688976377954
 20
-4.517204724409448
 30
0.0
 10
10.04494094488189
 20
-4.601929133858268
 30
0.0
 10
10.20188582677165
 20
-4.674149606299213
 30
0.0
 10
10.30883070866142
 20
-4.714429133858268
 30
0.0
 10
10.30883070866142
 20
-4.714429133858268
 30
0.0
 10
10.41577559055118
 20
-4.754708661417323
 30
0.0
 10
10.47272047244095
 20
-4.76303937007874
 30
0.0
 10
10.52966535433071
 20
-4.771374015748031
 30
0.0
  0
SPLINE
  5
81
330
1F
100
AcDbEntity
  8
Layer 1
 62
   250
370
    18
100
AcDbSpline
210
0.0
220
0.0
230
1.0
 70
     8
 71
     3
 72
    24
 73
    20
 74
     0
 42
0.000000001
 43
0.0000000001
 40
0.0
 40
0.0
 40
0.0
 40
0.0
 40
0.1666666666666667
 40
0.1666666666666667
 40
0.1666666666666667
 40
0.1666666666666667
 40
0.3333333333333333
 40
0.3333333333333333
 40
0.3333333333333333
 40
0.3333333333333333
 40
0.5
 40
0.5
 40
0.5
 40
0.5
 40
0.6666666666666666
 40
0.6666666666666666
 40
0.6666666666666666
 40
0.6666666666666666
 40
1.0
 40
1.0
 40
1.0
 40
1.0
 10
1.946275590551181
 20
-2.521342519685039
 30
0.0
 10
1.749051181102362
 20
-2.699122047244094
 30
0.0
 10
1.551830708661417
 20
-2.876897637795276
 30
0.0
 10
1.459468503937008
 20
-2.98384251968504
 30
0.0
 10
1.459468503937008
 20
-2.98384251968504
 30
0.0
 10
1.367106299212598
 20
-3.090787401574803
 30
0.0
 10
1.379606299212598
 20
-3.126897637795276
 30
0.0
 10
1.447661417322835
 20
-3.246342519685039
 30
0.0
 10
1.447661417322835
 20
-3.246342519685039
 30
0.0
 10
1.515716535433071
 20
-3.365787401574803
 30
0.0
 10
1.639330708661417
 20
-3.568562992125984
 30
0.0
 10
1.719885826771653
 20
-3.663007874015748
 30
0.0
 10
1.719885826771653
 20
-3.663007874015748
 30
0.0
 10
1.80044094488189
 20
-3.757452755905512
 30
0.0
 10
1.83794094488189
 20
-3.743566929133858
 30
0.0
 10
1.943496062992126
 20
-3.707452755905512
 30
0.0
 10
1.943496062992126
 20
-3.707452755905512
 30
0.0
 10
2.049051181102362
 20
-3.67134251968504
 30
0.0
 10
2.222665354330708
 20
-3.613011811023622
 30
0.0
 10
2.396275590551181
 20
-3.554677165354331
 30
0.0
  0
SPLINE
  5
82
330
1F
100
AcDbEntity
  8
Layer 1
 62
   250
370
    18
100
AcDbSpline
210
0.0
220
0.0
230
1.0
 70
     8
 71
     3
 72
     8
 73
     4
 74
     0
 42
0.000000001
 43
0.0000000001
 40
0.0
 40
0.0
 40
0.0
 40
0.0
 40
1.0
 40
1.0
 40
1.0
 40
1.0
 10
2.56294094488189
 20
-3.650503937007874
 30
0.0
 10
3.301830708661417
 20
-3.378279527559055
 30
0.0
 10
4.040724409448819
 20
-3.10605905511811
 30
0.0
 10
4.779614173228347
 20
-2.833834645669291
 30
0.0
  0
SPLINE
  5
83
330
1F
100
AcDbEntity
  8
Layer 1
 62
   250
370
    18
100
AcDbSpline
210
0.0
220
0.0
230
1.0
 70
     8
 71
     3
 72
    36
 73
    32
 74
     0
 42
0.000000001
 43
0.0000000001
 40
0.0
 40
0.0
 40
0.0
 40
0.0
 40
0.1111111111111111
 40
0.1111111111111111
 40
0.1111111111111111
 40
0.1111111111111111
 40
0.2222222222222222
 40
0.2222222222222222
 40
0.2222222222222222
 40
0.2222222222222222
 40
0.3333333333333333
 40
0.3333333333333333
 40
0.3333333333333333
 40
0.3333333333333333
 40
0.4444444444444444
 40
0.4444444444444444
 40
0.4444444444444444
 40
0.4444444444444444
 40
0.5555555555555556
 40
0.5555555555555556
 40
0.5555555555555556
 40
0.5555555555555556
 40
0.6666666666666666
 40
0.6666666666666666
 40
0.6666666666666666
 40
0.6666666666666666
 40
0.7777777777777778
 40
0.7777777777777778
 40
0.7777777777777778
 40
0.7777777777777778
 40
1.0
 40
1.0
 40
1.0
 40
1.0
 10
6.071271653543307
 20
0.374511811023622
 30
0.0
 10
6.165716535433071
 20
0.4078464566929134
 30
0.0
 10
6.260161417322835
 20
0.4411771653543307
 30
0.0
 10
6.346271653543307
 20
0.4745118110236221
 30
0.0
 10
6.346271653543307
 20
0.4745118110236221
 30
0.0
 10
6.432385826771654
 20
0.5078464566929134
 30
0.0
 10
6.510161417322835
 20
0.5411771653543307
 30
0.0
 10
6.619881889763779
 20
0.5647874015748031
 30
0.0
 10
6.619881889763779
 20
0.5647874015748031
 30
0.0
 10
6.729606299212598
 20
0.5884015748031496
 30
0.0
 10
6.871275590551181
 20
0.6022874015748032
 30
0.0
 10
6.965720472440945
 20
0.5814527559055118
 30
0.0
 10
6.965720472440945
 20
0.5814527559055118
 30
0.0
 10
7.060165354330708
 20
0.5606220472440945
 30
0.0
 10
7.107385826771654
 20
0.5050669291338583
 30
0.0
 10
7.090720472440945
 20
0.449511811023622
 30
0.0
 10
7.090720472440945
 20
0.449511811023622
 30
0.0
 10
7.074055118110236
 20
0.3939566929133858
 30
0.0
 10
6.993496062992126
 20
0.3384015748031496
 30
0.0
 10
6.946271653543307
 20
0.2675669291338583
 30
0.0
 10
6.946271653543307
 20
0.2675669291338583
 30
0.0
 10
6.899051181102362
 20
0.1967362204724409
 30
0.0
 10
6.885165354330709
 20
0.1106220472440945
 30
0.0
 10
6.814330708661418
 20
0.0786771653543307
 30
0.0
 10
6.814330708661418
 20
0.0786771653543307
 30
0.0
 10
6.743496062992126
 20
0.0467322834645669
 30
0.0
 10
6.615720472440945
 20
0.0689566929133858
 30
0.0
 10
6.522661417322834
 20
0.087011811023622
 30
0.0
 10
6.522661417322834
 20
0.087011811023622
 30
0.0
 10
6.429606299212598
 20
0.1050669291338583
 30
0.0
 10
6.371275590551181
 20
0.1189566929133858
 30
0.0
 10
6.312940944881889
 20
0.1328464566929134
 30
0.0
  0
SPLINE
  5
84
330
1F
100
AcDbEntity
  8
Layer 1
 62
   250
370
    18
100
AcDbSpline
210
0.0
220
0.0
230
1.0
 70
     8
 71
     3
 72
    16
 73
    12
 74
     0
 42
0.000000001
 43
0.0000000001
 40
0.0
 40
0.0
 40
0.0
 40
0.0
 40
0.25
 40
0.25
 40
0.25
 40
0.25
 40
0.5
 40
0.5
 40
0.5
 40
0.5
 40
1.0
 40
1.0
 40
1.0
 40
1.0
 10
8.104590551181102
 20
-1.917137795275591
 30
0.0
 10
8.319870078740157
 20
-1.850472440944882
 30
0.0
 10
8.535145669291339
 20
-1.783803149606299
 30
0.0
 10
8.65598031496063
 20
-1.758803149606299
 30
0.0
 10
8.65598031496063
 20
-1.758803149606299
 30
0.0
 10
8.77681496062992
 20
-1.733803149606299
 30
0.0
 10
8.803200787401575
 20
-1.750472440944882
 30
0.0
 10
8.883062992125984
 20
-1.951165354330709
 30
0.0
 10
8.883062992125984
 20
-1.951165354330709
 30
0.0
 10
8.962925196850394
 20
-2.151858267716535
 30
0.0
 10
9.09625590551181
 20
-2.536582677165354
 30
0.0
 10
9.229590551181102
 20
-2.921303149606299
 30
0.0
  0
SPLINE
  5
85
330
1F
100
AcDbEntity
  8
Layer 1
 62
   250
370
    18
100
AcDbSpline
210
0.0
220
0.0
230
1.0
 70
     8
 71
     3
 72
    24
 73
    20
 74
     0
 42
0.000000001
 43
0.0000000001
 40
0.0
 40
0.0
 40
0.0
 40
0.0
 40
0.1666666666666667
 40
0.1666666666666667
 40
0.1666666666666667
 40
0.1666666666666667
 40
0.3333333333333333
 40
0.3333333333333333
 40
0.3333333333333333
 40
0.3333333333333333
 40
0.5
 40
0.5
 40
0.5
 40
0.5
 40
0.6666666666666666
 40
0.6666666666666666
 40
0.6666666666666666
 40
0.6666666666666666
 40
1.0
 40
1.0
 40
1.0
 40
1.0
 10
8.004594488188976
 20
-2.142125984251968
 30
0.0
 10
7.932374015748032
 20
-2.329625984251968
 30
0.0
 10
7.860149606299212
 20
-2.517129921259842
 30
0.0
 10
7.828897637795276
 20
-2.72546062992126
 30
0.0
 10
7.828897637795276
 20
-2.72546062992126
 30
0.0
 10
7.797649606299212
 20
-2.933795275590551
 30
0.0
 10
7.807374015748032
 20
-3.162964566929134
 30
0.0
 10
7.81640157480315
 20
-3.291437007874016
 30
0.0
 10
7.81640157480315
 20
-3.291437007874016
 30
0.0
 10
7.825429133858267
 20
-3.419909448818898
 30
0.0
 10
7.833759842519685
 20
-3.447685039370079
 30
0.0
 10
7.861539370078741
 20
-3.460185039370079
 30
0.0
 10
7.861539370078741
 20
-3.460185039370079
 30
0.0
 10
7.889318897637795
 20
-3.472685039370079
 30
0.0
 10
7.93653937007874
 20
-3.469909448818898
 30
0.0
 10
8.147649606299213
 20
-3.41365748031496
 30
0.0
 10
8.147649606299213
 20
-3.41365748031496
 30
0.0
 10
8.358763779527559
 20
-3.357409448818898
 30
0.0
 10
8.733763779527559
 20
-3.247685039370079
 30
0.0
 10
9.108763779527559
 20
-3.137964566929134
 30
0.0
  0
SPLINE
  5
86
330
1F
100
AcDbEntity
  8
Layer 1
 62
   250
370
    18
100
AcDbSpline
210
0.0
220
0.0
230
1.0
 70
     8
 71
     3
 72
    16
 73
    12
 74
     0
 42
0.000000001
 43
0.0000000001
 40
0.0
 40
0.0
 40
0.0
 40
0.0
 40
0.25
 40
0.25
 40
0.25
 40
0.25
 40
0.5
 40
0.5
 40
0.5
 40
0.5
 40
1.0
 40
1.0
 40
1.0
 40
1.0
 10
7.612925196850393
 20
-2.154625984251969
 30
0.0
 10
7.549035433070866
 20
-2.23796062992126
 30
0.0
 10
7.485149606299212
 20
-2.321295275590551
 30
0.0
 10
7.433759842519685
 20
-2.407405511811024
 30
0.0
 10
7.433759842519685
 20
-2.407405511811024
 30
0.0
 10
7.382370078740157
 20
-2.49351968503937
 30
0.0
 10
7.343484251968504
 20
-2.582405511811023
 30
0.0
 10
7.319870078740157
 20
-2.892125984251968
 30
0.0
 10
7.319870078740157
 20
-2.892125984251968
 30
0.0
 10
7.296259842519685
 20
-3.201850393700787
 30
0.0
 10
7.287929133858268
 20
-3.732409448818898
 30
0.0
 10
7.279594488188977
 20
-4.262964566929134
 30
0.0
  0
SPLINE
  5
87
330
1F
100
AcDbEntity
  8
Layer 1
 62
   250
370
    18
100
AcDbSpline
210
0.0
220
0.0
230
1.0
 70
     8
 71
     3
 72
    24
 73
    20
 74
     0
 42
0.000000001
 43
0.0000000001
 40
0.0
 40
0.0
 40
0.0
 40
0.0
 40
0.1666666666666667
 40
0.1666666666666667
 40
0.1666666666666667
 40
0.1666666666666667
 40
0.3333333333333333
 40
0.3333333333333333
 40
0.3333333333333333
 40
0.3333333333333333
 40
0.5
 40
0.5
 40
0.5
 40
0.5
 40
0.6666666666666666
 40
0.6666666666666666
 40
0.6666666666666666
 40
0.6666666666666666
 40
1.0
 40
1.0
 40
1.0
 40
1.0
 10
7.029590551181102
 20
-2.129625984251969
 30
0.0
 10
6.782366141732283
 20
-2.199070866141732
 30
0.0
 10
6.535145669291339
 20
-2.268515748031496
 30
0.0
 10
6.399031496062992
 20
-2.32546062992126
 30
0.0
 10
6.399031496062992
 20
-2.32546062992126
 30
0.0
 10
6.262921259842519
 20
-2.382405511811024
 30
0.0
 10
6.23792125984252
 20
-2.426850393700787
 30
0.0
 10
6.15042125984252
 20
-2.590740157480315
 30
0.0
 10
6.15042125984252
 20
-2.590740157480315
 30
0.0
 10
6.062921259842519
 20
-2.754629921259843
 30
0.0
 10
5.91292125984252
 20
-3.03796062992126
 30
0.0
 10
5.842086614173228
 20
-3.253236220472441
 30
0.0
 10
5.842086614173228
 20
-3.253236220472441
 30
0.0
 10
5.771255905511811
 20
-3.468515748031496
 30
0.0
 10
5.779586614173228
 20
-3.615740157480315
 30
0.0
 10
5.80042125984252
 20
-3.833795275590551
 30
0.0
 10
5.80042125984252
 20
-3.833795275590551
 30
0.0
 10
5.821255905511811
 20
-4.051850393700787
 30
0.0
 10
5.854586614173228
 20
-4.340740157480315
 30
0.0
 10
5.887921259842519
 20
-4.629629921259842
 30
0.0
  0
SPLINE
  5
88
330
1F
100
AcDbEntity
  8
Layer 1
 62
   250
370
    18
100
AcDbSpline
210
0.0
220
0.0
230
1.0
 70
     8
 71
     3
 72
    20
 73
    16
 74
     0
 42
0.000000001
 43
0.0000000001
 40
0.0
 40
0.0
 40
0.0
 40
0.0
 40
0.2
 40
0.2
 40
0.2
 40
0.2
 40
0.4
 40
0.4
 40
0.4
 40
0.4
 40
0.6
 40
0.6
 40
0.6
 40
0.6
 40
1.0
 40
1.0
 40
1.0
 40
1.0
 10
6.833759842519685
 20
-3.41296062992126
 30
0.0
 10
6.840704724409449
 20
-3.704629921259842
 30
0.0
 10
6.847645669291339
 20
-3.996295275590551
 30
0.0
 10
6.859448818897638
 20
-4.148377952755905
 30
0.0
 10
6.859448818897638
 20
-4.148377952755905
 30
0.0
 10
6.871255905511811
 20
-4.300464566929134
 30
0.0
 10
6.887925196850394
 20
-4.312964566929134
 30
0.0
 10
6.881673228346457
 20
-4.317129921259842
 30
0.0
 10
6.881673228346457
 20
-4.317129921259842
 30
0.0
 10
6.875425196850394
 20
-4.321299212598425
 30
0.0
 10
6.846255905511811
 20
-4.317129921259842
 30
0.0
 10
6.724031496062993
 20
-4.351157480314961
 30
0.0
 10
6.724031496062993
 20
-4.351157480314961
 30
0.0
 10
6.601811023622047
 20
-4.385185039370079
 30
0.0
 10
6.386535433070867
 20
-4.457409448818898
 30
0.0
 10
6.171255905511811
 20
-4.529629921259843
 30
0.0
  0
SPLINE
  5
89
330
1F
100
AcDbEntity
  8
Layer 1
 62
   250
370
    18
100
AcDbSpline
210
0.0
220
0.0
230
1.0
 70
     8
 71
     3
 72
    16
 73
    12
 74
     0
 42
0.000000001
 43
0.0000000001
 40
0.0
 40
0.0
 40
0.0
 40
0.0
 40
0.25
 40
0.25
 40
0.25
 40
0.25
 40
0.5
 40
0.5
 40
0.5
 40
0.5
 40
1.0
 40
1.0
 40
1.0
 40
1.0
 10
3.037917322834646
 20
-3.562956692913386
 30
0.0
 10
2.976807086614173
 20
-3.951846456692913
 30
0.0
 10
2.915692913385827
 20
-4.340736220472441
 30
0.0
 10
2.897637795275591
 20
-4.772681102362204
 30
0.0
 10
2.897637795275591
 20
-4.772681102362204
 30
0.0
 10
2.879582677165355
 20
-5.204625984251969
 30
0.0
 10
2.904582677165354
 20
-5.679625984251969
 30
0.0
 10
2.951803149606299
 20
-6.029625984251968
 30
0.0
 10
2.951803149606299
 20
-6.029625984251968
 30
0.0
 10
2.999027559055118
 20
-6.379625984251969
 30
0.0
 10
3.068472440944882
 20
-6.604629921259843
 30
0.0
 10
3.137917322834646
 20
-6.829629921259842
 30
0.0
  0
SPLINE
  5
8A
330
1F
100
AcDbEntity
  8
Layer 1
 62
   250
370
    18
100
AcDbSpline
210
0.0
220
0.0
230
1.0
 70
    24
 71
     3
 72
     8
 73
     4
 74
     0
 42
0.000000001
 43
0.0000000001
 40
0.0
 40
0.0
 40
0.0
 40
0.0
 40
1.0
 40
1.0
 40
1.0
 40
1.0
 10
1.787913385826772
 20
-7.48796062992126
 30
0.0
 10
3.051803149606299
 20
-7.079625984251969
 30
0.0
 10
4.315692913385827
 20
-6.671291338582678
 30
0.0
 10
5.579582677165354
 20
-6.262956692913386
 30
0.0
  0
SPLINE
  5
8B
330
1F
100
AcDbEntity
  8
Layer 1
 62
   250
370
    18
100
AcDbSpline
210
0.0
220
0.0
230
1.0
 70
     8
 71
     3
 72
    32
 73
    28
 74
     0
 42
0.000000001
 43
0.0000000001
 40
0.0
 40
0.0
 40
0.0
 40
0.0
 40
0.125
 40
0.125
 40
0.125
 40
0.125
 40
0.25
 40
0.25
 40
0.25
 40
0.25
 40
0.375
 40
0.375
 40
0.375
 40
0.375
 40
0.5
 40
0.5
 40
0.5
 40
0.5
 40
0.625
 40
0.625
 40
0.625
 40
0.625
 40
0.75
 40
0.75
 40
0.75
 40
0.75
 40
1.0
 40
1.0
 40
1.0
 40
1.0
 10
3.217074803149606
 20
-3.687937007874016
 30
0.0
 10
3.472629921259843
 20
-3.587937007874016
 30
0.0
 10
3.728185039370079
 20
-3.487937007874016
 30
0.0
 10
3.861515748031496
 20
-3.446267716535433
 30
0.0
 10
3.861515748031496
 20
-3.446267716535433
 30
0.0
 10
3.994850393700788
 20
-3.404602362204725
 30
0.0
 10
4.005964566929133
 20
-3.421271653543307
 30
0.0
 10
3.98651968503937
 20
-3.547657480314961
 30
0.0
 10
3.98651968503937
 20
-3.547657480314961
 30
0.0
 10
3.967074803149606
 20
-3.674047244094488
 30
0.0
 10
3.917074803149606
 20
-3.910157480314961
 30
0.0
 10
3.892074803149606
 20
-4.133767716535433
 30
0.0
 10
3.892074803149606
 20
-4.133767716535433
 30
0.0
 10
3.867074803149606
 20
-4.357377952755906
 30
0.0
 10
3.867074803149606
 20
-4.568492125984252
 30
0.0
 10
3.872629921259843
 20
-4.728212598425197
 30
0.0
 10
3.872629921259843
 20
-4.728212598425197
 30
0.0
 10
3.878185039370079
 20
-4.887937007874016
 30
0.0
 10
3.889299212598425
 20
-4.996267716535433
 30
0.0
 10
3.875409448818897
 20
-5.072657480314961
 30
0.0
 10
3.875409448818897
 20
-5.072657480314961
 30
0.0
 10
3.86151968503937
 20
-5.149047244094488
 30
0.0
 10
3.822629921259843
 20
-5.193492125984252
 30
0.0
 10
3.696240157480315
 20
-5.242102362204724
 30
0.0
 10
3.696240157480315
 20
-5.242102362204724
 30
0.0
 10
3.569850393700787
 20
-5.290716535433071
 30
0.0
 10
3.355964566929134
 20
-5.343492125984252
 30
0.0
 10
3.142074803149606
 20
-5.396271653543307
 30
0.0
  0
SPLINE
  5
8C
330
1F
100
AcDbEntity
  8
Layer 1
 62
   250
370
    18
100
AcDbSpline
210
0.0
220
0.0
230
1.0
 70
     8
 71
     3
 72
    28
 73
    24
 74
     0
 42
0.000000001
 43
0.0000000001
 40
0.0
 40
0.0
 40
0.0
 40
0.0
 40
0.1428571428571428
 40
0.1428571428571428
 40
0.1428571428571428
 40
0.1428571428571428
 40
0.2857142857142857
 40
0.2857142857142857
 40
0.2857142857142857
 40
0.2857142857142857
 40
0.4285714285714285
 40
0.4285714285714285
 40
0.4285714285714285
 40
0.4285714285714285
 40
0.5714285714285714
 40
0.5714285714285714
 40
0.5714285714285714
 40
0.5714285714285714
 40
0.7142857142857143
 40
0.7142857142857143
 40
0.7142857142857143
 40
0.7142857142857143
 40
1.0
 40
1.0
 40
1.0
 40
1.0
 10
4.325409448818897
 20
-3.262933070866142
 30
0.0
 10
4.589299212598426
 20
-3.168488188976378
 30
0.0
 10
4.853188976377953
 20
-3.074047244094488
 30
0.0
 10
4.99207874015748
 20
-3.030992125984252
 30
0.0
 10
4.99207874015748
 20
-3.030992125984252
 30
0.0
 10
5.130968503937008
 20
-2.987937007874016
 30
0.0
 10
5.144854330708662
 20
-2.996267716535433
 30
0.0
 10
5.135129921259843
 20
-3.204602362204724
 30
0.0
 10
5.135129921259843
 20
-3.204602362204724
 30
0.0
 10
5.125409448818898
 20
-3.412937007874016
 30
0.0
 10
5.09207874015748
 20
-3.821267716535433
 30
0.0
 10
5.07401968503937
 20
-4.11432283464567
 30
0.0
 10
5.07401968503937
 20
-4.11432283464567
 30
0.0
 10
5.055964566929134
 20
-4.407381889763779
 30
0.0
 10
5.053188976377953
 20
-4.585157480314961
 30
0.0
 10
5.02401968503937
 20
-4.680992125984252
 30
0.0
 10
5.02401968503937
 20
-4.680992125984252
 30
0.0
 10
4.994854330708661
 20
-4.776826771653544
 30
0.0
 10
4.939299212598425
 20
-4.790712598425197
 30
0.0
 10
4.82401968503937
 20
-4.832377952755905
 30
0.0
 10
4.82401968503937
 20
-4.832377952755905
 30
0.0
 10
4.708744094488189
 20
-4.874047244094488
 30
0.0
 10
4.533744094488189
 20
-4.943492125984252
 30
0.0
 10
4.358744094488189
 20
-5.012937007874016
 30
0.0
  0
SPLINE
  5
8D
330
1F
100
AcDbEntity
  8
Layer 1
 62
   250
370
    18
100
AcDbSpline
210
0.0
220
0.0
230
1.0
 70
     8
 71
     3
 72
    16
 73
    12
 74
     0
 42
0.000000001
 43
0.0000000001
 40
0.0
 40
0.0
 40
0.0
 40
0.0
 40
0.25
 40
0.25
 40
0.25
 40
0.25
 40
0.5
 40
0.5
 40
0.5
 40
0.5
 40
1.0
 40
1.0
 40
1.0
 40
1.0
 10
4.26707874015748
 20
-3.471267716535433
 30
0.0
 10
4.253188976377952
 20
-3.601822834645669
 30
0.0
 10
4.239303149606299
 20
-3.73238188976378
 30
0.0
 10
4.226803149606299
 20
-3.929602362204724
 30
0.0
 10
4.226803149606299
 20
-3.929602362204724
 30
0.0
 10
4.214303149606299
 20
-4.126826771653543
 30
0.0
 10
4.203188976377953
 20
-4.390712598425197
 30
0.0
 10
4.205964566929134
 20
-4.56432283464567
 30
0.0
 10
4.205964566929134
 20
-4.56432283464567
 30
0.0
 10
4.208744094488189
 20
-4.737937007874016
 30
0.0
 10
4.225413385826772
 20
-4.821267716535433
 30
0.0
 10
4.24207874015748
 20
-4.904602362204725
 30
0.0
  0
SPLINE
  5
8E
330
1F
100
AcDbEntity
  8
Layer 1
 62
   250
370
    18
100
AcDbSpline
210
0.0
220
0.0
230
1.0
 70
     8
 71
     3
 72
    16
 73
    12
 74
     0
 42
0.000000001
 43
0.0000000001
 40
0.0
 40
0.0
 40
0.0
 40
0.0
 40
0.25
 40
0.25
 40
0.25
 40
0.25
 40
0.5
 40
0.5
 40
0.5
 40
0.5
 40
1.0
 40
1.0
 40
1.0
 40
1.0
 10
3.142074803149606
 20
-3.846267716535433
 30
0.0
 10
3.105964566929134
 20
-3.999047244094488
 30
0.0
 10
3.069854330708661
 20
-4.151822834645669
 30
0.0
 10
3.053185039370079
 20
-4.353212598425197
 30
0.0
 10
3.053185039370079
 20
-4.353212598425197
 30
0.0
 10
3.03651968503937
 20
-4.554602362204724
 30
0.0
 10
3.039299212598425
 20
-4.804602362204724
 30
0.0
 10
3.036145669291339
 20
-4.953216535433071
 30
0.0
 10
3.036145669291339
 20
-4.953216535433071
 30
0.0
 10
3.032992125984252
 20
-5.101830708661417
 30
0.0
 10
3.023913385826772
 20
-5.149062992125984
 30
0.0
 10
3.014830708661417
 20
-5.196291338582677
 30
0.0
  0
SPLINE
  5
8F
330
1F
100
AcDbEntity
  8
Layer 1
 62
   250
370
    18
100
AcDbSpline
210
0.0
220
0.0
230
1.0
 70
     8
 71
     3
 72
    20
 73
    16
 74
     0
 42
0.000000001
 43
0.0000000001
 40
0.0
 40
0.0
 40
0.0
 40
0.0
 40
0.2
 40
0.2
 40
0.2
 40
0.2
 40
0.4
 40
0.4
 40
0.4
 40
0.4
 40
0.6
 40
0.6
 40
0.6
 40
0.6
 40
1.0
 40
1.0
 40
1.0
 40
1.0
 10
2.583724409448819
 20
-3.479590551181102
 30
0.0
 10
2.950393700787401
 20
-3.332370078740158
 30
0.0
 10
3.31705905511811
 20
-3.185145669291339
 30
0.0
 10
3.553169291338583
 20
-3.06848031496063
 30
0.0
 10
3.553169291338583
 20
-3.06848031496063
 30
0.0
 10
3.789283464566929
 20
-2.951814960629921
 30
0.0
 10
3.894838582677165
 20
-2.865700787401575
 30
0.0
 10
3.965669291338583
 20
-2.832366141732284
 30
0.0
 10
3.965669291338583
 20
-2.832366141732284
 30
0.0
 10
4.036503937007874
 20
-2.799035433070866
 30
0.0
 10
4.07261811023622
 20
-2.81848031496063
 30
0.0
 10
4.118448818897638
 20
-2.837925196850394
 30
0.0
 10
4.118448818897638
 20
-2.837925196850394
 30
0.0
 10
4.164283464566929
 20
-2.857370078740157
 30
0.0
 10
4.219838582677165
 20
-2.876814960629921
 30
0.0
 10
4.275393700787402
 20
-2.896259842519685
 30
0.0
  0
SPLINE
  5
90
330
1F
100
AcDbEntity
  8
Layer 1
 62
   250
370
    18
100
AcDbSpline
210
0.0
220
0.0
230
1.0
 70
     8
 71
     3
 72
    36
 73
    32
 74
     0
 42
0.000000001
 43
0.0000000001
 40
0.0
 40
0.0
 40
0.0
 40
0.0
 40
0.1111111111111111
 40
0.1111111111111111
 40
0.1111111111111111
 40
0.1111111111111111
 40
0.2222222222222222
 40
0.2222222222222222
 40
0.2222222222222222
 40
0.2222222222222222
 40
0.3333333333333333
 40
0.3333333333333333
 40
0.3333333333333333
 40
0.3333333333333333
 40
0.4444444444444444
 40
0.4444444444444444
 40
0.4444444444444444
 40
0.4444444444444444
 40
0.5555555555555556
 40
0.5555555555555556
 40
0.5555555555555556
 40
0.5555555555555556
 40
0.6666666666666666
 40
0.6666666666666666
 40
0.6666666666666666
 40
0.6666666666666666
 40
0.7777777777777778
 40
0.7777777777777778
 40
0.7777777777777778
 40
0.7777777777777778
 40
1.0
 40
1.0
 40
1.0
 40
1.0
 10
4.708716535433071
 20
-1.658748031496063
 30
0.0
 10
4.80038188976378
 20
-1.357358267716535
 30
0.0
 10
4.892051181102362
 20
-1.055972440944882
 30
0.0
 10
4.944826771653544
 20
-0.9031929133858267
 30
0.0
 10
4.944826771653544
 20
-0.9031929133858267
 30
0.0
 10
4.997606299212598
 20
-0.7504173228346457
 30
0.0
 10
5.011492125984252
 20
-0.746248031496063
 30
0.0
 10
5.164271653543307
 20
-0.7580551181102362
 30
0.0
 10
5.164271653543307
 20
-0.7580551181102362
 30
0.0
 10
5.317051181102363
 20
-0.7698622047244095
 30
0.0
 10
5.608716535433071
 20
-0.7976377952755905
 30
0.0
 10
5.758023622047244
 20
-0.8129133858267716
 30
0.0
 10
5.758023622047244
 20
-0.8129133858267716
 30
0.0
 10
5.907330708661418
 20
-0.8281929133858268
 30
0.0
 10
5.914271653543307
 20
-0.8309724409448819
 30
0.0
 10
5.905937007874016
 20
-0.8525
 30
0.0
 10
5.905937007874016
 20
-0.8525
 30
0.0
 10
5.897606299212598
 20
-0.8740275590551181
 30
0.0
 10
5.873996062992126
 20
-0.9143031496062992
 30
0.0
 10
5.839271653543307
 20
-1.00944094488189
 30
0.0
 10
5.839271653543307
 20
-1.00944094488189
 30
0.0
 10
5.804551181102362
 20
-1.104582677165354
 30
0.0
 10
5.758720472440945
 20
-1.254582677165354
 30
0.0
 10
5.728858267716536
 20
-1.331665354330709
 30
0.0
 10
5.728858267716536
 20
-1.331665354330709
 30
0.0
 10
5.698996062992126
 20
-1.408748031496063
 30
0.0
 10
5.685106299212598
 20
-1.412917322834646
 30
0.0
 10
5.583716535433071
 20
-1.445555118110236
 30
0.0
 10
5.583716535433071
 20
-1.445555118110236
 30
0.0
 10
5.482326771653543
 20
-1.478192913385827
 30
0.0
 10
5.29344094488189
 20
-1.539303149606299
 30
0.0
 10
5.104551181102362
 20
-1.600413385826772
 30
0.0
  0
SPLINE
  5
91
330
1F
100
AcDbEntity
  8
Layer 1
 62
   250
370
    18
100
AcDbSpline
210
0.0
220
0.0
230
1.0
 70
     8
 71
     3
 72
    16
 73
    12
 74
     0
 42
0.000000001
 43
0.0000000001
 40
0.0
 40
0.0
 40
0.0
 40
0.0
 40
0.25
 40
0.25
 40
0.25
 40
0.25
 40
0.5
 40
0.5
 40
0.5
 40
0.5
 40
1.0
 40
1.0
 40
1.0
 40
1.0
 10
7.279551181102362
 20
-1.012889763779528
 30
0.0
 10
7.365661417322834
 20
-1.029555118110236
 30
0.0
 10
7.451775590551181
 20
-1.046224409448819
 30
0.0
 10
7.494830708661417
 20
-1.062889763779528
 30
0.0
 10
7.494830708661417
 20
-1.062889763779528
 30
0.0
 10
7.537885826771654
 20
-1.07955905511811
 30
0.0
 10
7.537885826771654
 20
-1.096224409448819
 30
0.0
 10
7.51357874015748
 20
-1.182334645669291
 30
0.0
 10
7.51357874015748
 20
-1.182334645669291
 30
0.0
 10
7.489275590551181
 20
-1.268448818897638
 30
0.0
 10
7.440661417322834
 20
-1.424003937007874
 30
0.0
 10
7.392051181102362
 20
-1.57955905511811
 30
0.0
  0
SPLINE
  5
92
330
1F
100
AcDbEntity
  8
Layer 1
 62
   250
370
    18
100
AcDbSpline
210
0.0
220
0.0
230
1.0
 70
     8
 71
     3
 72
    32
 73
    28
 74
     0
 42
0.000000001
 43
0.0000000001
 40
0.0
 40
0.0
 40
0.0
 40
0.0
 40
0.125
 40
0.125
 40
0.125
 40
0.125
 40
0.25
 40
0.25
 40
0.25
 40
0.25
 40
0.375
 40
0.375
 40
0.375
 40
0.375
 40
0.5
 40
0.5
 40
0.5
 40
0.5
 40
0.625
 40
0.625
 40
0.625
 40
0.625
 40
0.75
 40
0.75
 40
0.75
 40
0.75
 40
1.0
 40
1.0
 40
1.0
 40
1.0
 10
7.854523622047244
 20
-4.804547244094488
 30
0.0
 10
8.401748031496062
 20
-4.654547244094489
 30
0.0
 10
8.948968503937008
 20
-4.504547244094488
 30
0.0
 10
9.230913385826772
 20
-4.421212598425197
 30
0.0
 10
9.230913385826772
 20
-4.421212598425197
 30
0.0
 10
9.512858267716535
 20
-4.337881889763779
 30
0.0
 10
9.529527559055119
 20
-4.321212598425197
 30
0.0
 10
9.539248031496063
 20
-4.257322834645669
 30
0.0
 10
9.539248031496063
 20
-4.257322834645669
 30
0.0
 10
9.548968503937008
 20
-4.193437007874016
 30
0.0
 10
9.551748031496063
 20
-4.082322834645669
 30
0.0
 10
9.543413385826772
 20
-3.867043307086614
 30
0.0
 10
9.543413385826772
 20
-3.867043307086614
 30
0.0
 10
9.53507874015748
 20
-3.651767716535433
 30
0.0
 10
9.515637795275591
 20
-3.332322834645669
 30
0.0
 10
9.476748031496063
 20
-3.07259842519685
 30
0.0
 10
9.476748031496063
 20
-3.07259842519685
 30
0.0
 10
9.437858267716535
 20
-2.812877952755906
 30
0.0
 10
9.379527559055118
 20
-2.612877952755905
 30
0.0
 10
9.308692913385826
 20
-2.371208661417323
 30
0.0
 10
9.308692913385826
 20
-2.371208661417323
 30
0.0
 10
9.237858267716536
 20
-2.129543307086614
 30
0.0
 10
9.154527559055119
 20
-1.846212598425197
 30
0.0
 10
9.110082677165355
 20
-1.692043307086614
 30
0.0
 10
9.110082677165355
 20
-1.692043307086614
 30
0.0
 10
9.06563779527559
 20
-1.537877952755905
 30
0.0
 10
9.060078740157481
 20
-1.512877952755906
 30
0.0
 10
9.054523622047244
 20
-1.487877952755906
 30
0.0
  0
SPLINE
  5
93
330
1F
100
AcDbEntity
  8
Layer 1
 62
   250
370
    18
100
AcDbSpline
210
0.0
220
0.0
230
1.0
 70
     8
 71
     3
 72
    16
 73
    12
 74
     0
 42
0.000000001
 43
0.0000000001
 40
0.0
 40
0.0
 40
0.0
 40
0.0
 40
0.25
 40
0.25
 40
0.25
 40
0.25
 40
0.5
 40
0.5
 40
0.5
 40
0.5
 40
1.0
 40
1.0
 40
1.0
 40
1.0
 10
9.862846456692914
 20
-5.946204724409449
 30
0.0
 10
10.51007086614173
 20
-5.698984251968504
 30
0.0
 10
11.15729133858268
 20
-5.451759842519685
 30
0.0
 10
11.49340157480315
 20
-5.326759842519685
 30
0.0
 10
11.49340157480315
 20
-5.326759842519685
 30
0.0
 10
11.8295157480315
 20
-5.201759842519685
 30
0.0
 10
11.8545157480315
 20
-5.198984251968504
 30
0.0
 10
12.02534645669291
 20
-5.214259842519685
 30
0.0
 10
12.02534645669291
 20
-5.214259842519685
 30
0.0
 10
12.19618110236221
 20
-5.22953937007874
 30
0.0
 10
12.51285039370079
 20
-5.262870078740158
 30
0.0
 10
12.8295157480315
 20
-5.296204724409449
 30
0.0
  0
SPLINE
  5
94
330
1F
100
AcDbEntity
  8
Layer 1
 62
   250
370
    18
100
AcDbSpline
210
0.0
220
0.0
230
1.0
 70
     8
 71
     3
 72
    16
 73
    12
 74
     0
 42
0.000000001
 43
0.0000000001
 40
0.0
 40
0.0
 40
0.0
 40
0.0
 40
0.25
 40
0.25
 40
0.25
 40
0.25
 40
0.5
 40
0.5
 40
0.5
 40
0.5
 40
1.0
 40
1.0
 40
1.0
 40
1.0
 10
12.57535433070866
 20
-5.442035433070866
 30
0.0
 10
12.03785039370079
 20
-5.647590551181103
 30
0.0
 10
11.50035039370079
 20
-5.853149606299213
 30
0.0
 10
11.21909842519685
 20
-5.958704724409449
 30
0.0
 10
11.21909842519685
 20
-5.958704724409449
 30
0.0
 10
10.93784645669291
 20
-6.064259842519685
 30
0.0
 10
10.91284645669291
 20
-6.069814960629921
 30
0.0
 10
10.7663188976378
 20
-6.060787401574803
 30
0.0
 10
10.7663188976378
 20
-6.060787401574803
 30
0.0
 10
10.61979133858268
 20
-6.051759842519685
 30
0.0
 10
10.35173228346457
 20
-6.028145669291338
 30
0.0
 10
10.08367716535433
 20
-6.004535433070866
 30
0.0
  0
SPLINE
  5
95
330
1F
100
AcDbEntity
  8
Layer 1
 62
   250
370
    18
100
AcDbSpline
210
0.0
220
0.0
230
1.0
 70
     8
 71
     3
 72
    20
 73
    16
 74
     0
 42
0.000000001
 43
0.0000000001
 40
0.0
 40
0.0
 40
0.0
 40
0.0
 40
0.2
 40
0.2
 40
0.2
 40
0.2
 40
0.4
 40
0.4
 40
0.4
 40
0.4
 40
0.6
 40
0.6
 40
0.6
 40
0.6
 40
1.0
 40
1.0
 40
1.0
 40
1.0
 10
5.950342519685039
 20
-6.454535433070866
 30
0.0
 10
6.035062992125984
 20
-6.521200787401574
 30
0.0
 10
6.119787401574803
 20
-6.587870078740157
 30
0.0
 10
6.180200787401575
 20
-6.680228346456693
 30
0.0
 10
6.180200787401575
 20
-6.680228346456693
 30
0.0
 10
6.240618110236221
 20
-6.772590551181103
 30
0.0
 10
6.276732283464567
 20
-6.890649606299212
 30
0.0
 10
6.297562992125984
 20
-7.008007874015748
 30
0.0
 10
6.297562992125984
 20
-7.008007874015748
 30
0.0
 10
6.318397637795275
 20
-7.125370078740158
 30
0.0
 10
6.323952755905512
 20
-7.242035433070866
 30
0.0
 10
6.309370078740158
 20
-7.35661811023622
 30
0.0
 10
6.309370078740158
 20
-7.35661811023622
 30
0.0
 10
6.294787401574803
 20
-7.471200787401575
 30
0.0
 10
6.260062992125984
 20
-7.583700787401574
 30
0.0
 10
6.225342519685039
 20
-7.696200787401575
 30
0.0
  0
SPLINE
  5
96
330
1F
100
AcDbEntity
  8
Layer 1
 62
   250
370
    18
100
AcDbSpline
210
0.0
220
0.0
230
1.0
 70
     8
 71
     3
 72
    32
 73
    28
 74
     0
 42
0.000000001
 43
0.0000000001
 40
0.0
 40
0.0
 40
0.0
 40
0.0
 40
0.125
 40
0.125
 40
0.125
 40
0.125
 40
0.25
 40
0.25
 40
0.25
 40
0.25
 40
0.375
 40
0.375
 40
0.375
 40
0.375
 40
0.5
 40
0.5
 40
0.5
 40
0.5
 40
0.625
 40
0.625
 40
0.625
 40
0.625
 40
0.75
 40
0.75
 40
0.75
 40
0.75
 40
1.0
 40
1.0
 40
1.0
 40
1.0
 10
5.496173228346457
 20
-6.433704724409449
 30
0.0
 10
5.40311811023622
 20
-6.494814960629921
 30
0.0
 10
5.310062992125984
 20
-6.555925196850394
 30
0.0
 10
5.239228346456693
 20
-6.646200787401574
 30
0.0
 10
5.239228346456693
 20
-6.646200787401574
 30
0.0
 10
5.168397637795276
 20
-6.73648031496063
 30
0.0
 10
5.119783464566929
 20
-6.855925196850394
 30
0.0
 10
5.087145669291338
 20
-6.980228346456693
 30
0.0
 10
5.087145669291338
 20
-6.980228346456693
 30
0.0
 10
5.054507874015748
 20
-7.104535433070867
 30
0.0
 10
5.037838582677165
 20
-7.233704724409449
 30
0.0
 10
5.04061811023622
 20
-7.351062992125985
 30
0.0
 10
5.04061811023622
 20
-7.351062992125985
 30
0.0
 10
5.043397637795276
 20
-7.468425196850394
 30
0.0
 10
5.065618110236221
 20
-7.57398031496063
 30
0.0
 10
5.097562992125984
 20
-7.660090551181102
 30
0.0
 10
5.097562992125984
 20
-7.660090551181102
 30
0.0
 10
5.129507874015748
 20
-7.746200787401575
 30
0.0
 10
5.17117716535433
 20
-7.812870078740158
 30
0.0
 10
5.194787401574803
 20
-7.846897637795275
 30
0.0
 10
5.194787401574803
 20
-7.846897637795275
 30
0.0
 10
5.218397637795276
 20
-7.880925196850393
 30
0.0
 10
5.223952755905512
 20
-7.882311023622047
 30
0.0
 10
5.236452755905511
 20
-7.892728346456693
 30
0.0
 10
5.236452755905511
 20
-7.892728346456693
 30
0.0
 10
5.248952755905512
 20
-7.903145669291338
 30
0.0
 10
5.268397637795275
 20
-7.922590551181102
 30
0.0
 10
5.287842519685039
 20
-7.942035433070866
 30
0.0
  0
SPLINE
  5
97
330
1F
100
AcDbEntity
  8
Layer 1
 62
   250
370
    18
100
AcDbSpline
210
0.0
220
0.0
230
1.0
 70
     8
 71
     3
 72
    28
 73
    24
 74
     0
 42
0.000000001
 43
0.0000000001
 40
0.0
 40
0.0
 40
0.0
 40
0.0
 40
0.1428571428571428
 40
0.1428571428571428
 40
0.1428571428571428
 40
0.1428571428571428
 40
0.2857142857142857
 40
0.2857142857142857
 40
0.2857142857142857
 40
0.2857142857142857
 40
0.4285714285714285
 40
0.4285714285714285
 40
0.4285714285714285
 40
0.4285714285714285
 40
0.5714285714285714
 40
0.5714285714285714
 40
0.5714285714285714
 40
0.5714285714285714
 40
0.7142857142857143
 40
0.7142857142857143
 40
0.7142857142857143
 40
0.7142857142857143
 40
1.0
 40
1.0
 40
1.0
 40
1.0
 10
6.437826771653543
 20
-5.542027559055118
 30
0.0
 10
6.696161417322835
 20
-5.319803149606299
 30
0.0
 10
6.954492125984252
 20
-5.097582677165354
 30
0.0
 10
7.114212598425197
 20
-4.985082677165354
 30
0.0
 10
7.114212598425197
 20
-4.985082677165354
 30
0.0
 10
7.273937007874015
 20
-4.872582677165354
 30
0.0
 10
7.335047244094488
 20
-4.869803149606299
 30
0.0
 10
7.466992125984252
 20
-4.879523622047244
 30
0.0
 10
7.466992125984252
 20
-4.879523622047244
 30
0.0
 10
7.598937007874015
 20
-4.889248031496063
 30
0.0
 10
7.801712598425197
 20
-4.911472440944882
 30
0.0
 10
7.946157480314961
 20
-4.923972440944882
 30
0.0
 10
7.946157480314961
 20
-4.923972440944882
 30
0.0
 10
8.090602362204724
 20
-4.936472440944882
 30
0.0
 10
8.176716535433071
 20
-4.939248031496063
 30
0.0
 10
8.225326771653544
 20
-4.957303149606299
 30
0.0
 10
8.225326771653544
 20
-4.957303149606299
 30
0.0
 10
8.273937007874016
 20
-4.975362204724409
 30
0.0
 10
8.285047244094487
 20
-5.008692913385826
 30
0.0
 10
8.291992125984253
 20
-5.036468503937008
 30
0.0
 10
8.291992125984253
 20
-5.036468503937008
 30
0.0
 10
8.298937007874017
 20
-5.064248031496063
 30
0.0
 10
8.301712598425198
 20
-5.086472440944882
 30
0.0
 10
8.304492125984252
 20
-5.108692913385827
 30
0.0
  0
SPLINE
  5
98
330
1F
100
AcDbEntity
  8
Layer 1
 62
   250
370
    18
100
AcDbSpline
210
0.0
220
0.0
230
1.0
 70
     8
 71
     3
 72
    12
 73
     8
 74
     0
 42
0.000000001
 43
0.0000000001
 40
0.0
 40
0.0
 40
0.0
 40
0.0
 40
0.3333333333333333
 40
0.3333333333333333
 40
0.3333333333333333
 40
0.3333333333333333
 40
1.0
 40
1.0
 40
1.0
 40
1.0
 10
7.479484251968504
 20
-5.09201968503937
 30
0.0
 10
7.396149606299213
 20
-5.21701968503937
 30
0.0
 10
7.312818897637795
 20
-5.342023622047244
 30
0.0
 10
7.158649606299212
 20
-5.472578740157481
 30
0.0
 10
7.158649606299212
 20
-5.472578740157481
 30
0.0
 10
7.004484251968504
 20
-5.603133858267716
 30
0.0
 10
6.779484251968504
 20
-5.739244094488189
 30
0.0
 10
6.554484251968504
 20
-5.875354330708661
 30
0.0
  0
SPLINE
  5
99
330
1F
100
AcDbEntity
  8
Layer 1
 62
   250
370
    18
100
AcDbSpline
210
0.0
220
0.0
230
1.0
 70
     8
 71
     3
 72
    24
 73
    20
 74
     0
 42
0.000000001
 43
0.0000000001
 40
0.0
 40
0.0
 40
0.0
 40
0.0
 40
0.1666666666666667
 40
0.1666666666666667
 40
0.1666666666666667
 40
0.1666666666666667
 40
0.3333333333333333
 40
0.3333333333333333
 40
0.3333333333333333
 40
0.3333333333333333
 40
0.5
 40
0.5
 40
0.5
 40
0.5
 40
0.6666666666666666
 40
0.6666666666666666
 40
0.6666666666666666
 40
0.6666666666666666
 40
1.0
 40
1.0
 40
1.0
 40
1.0
 10
-5.020523622047244
 20
-7.696181102362205
 30
0.0
 10
-4.867748031496063
 20
-7.692015748031496
 30
0.0
 10
-4.714968503937008
 20
-7.687846456692913
 30
0.0
 10
-4.629551181102363
 20
-7.692708661417323
 30
0.0
 10
-4.629551181102363
 20
-7.692708661417323
 30
0.0
 10
-4.54413779527559
 20
-7.697570866141732
 30
0.0
 10
-4.52607874015748
 20
-7.71146062992126
 30
0.0
 10
-4.512881889763779
 20
-7.74409842519685
 30
0.0
 10
-4.512881889763779
 20
-7.74409842519685
 30
0.0
 10
-4.499688976377953
 20
-7.776740157480315
 30
0.0
 10
-4.491358267716535
 20
-7.828125984251969
 30
0.0
 10
-4.496216535433071
 20
-7.914236220472441
 30
0.0
 10
-4.496216535433071
 20
-7.914236220472441
 30
0.0
 10
-4.50107874015748
 20
-8.000350393700787
 30
0.0
 10
-4.519137795275591
 20
-8.121181102362204
 30
0.0
 10
-4.552468503937008
 20
-8.224653543307086
 30
0.0
 10
-4.552468503937008
 20
-8.224653543307086
 30
0.0
 10
-4.585803149606299
 20
-8.328125984251969
 30
0.0
 10
-4.634413385826772
 20
-8.414236220472441
 30
0.0
 10
-4.683023622047244
 20
-8.500346456692913
 30
0.0
  0
SPLINE
  5
9A
330
1F
100
AcDbEntity
  8
Layer 1
 62
   250
370
    18
100
AcDbSpline
210
0.0
220
0.0
230
1.0
 70
     8
 71
     3
 72
     8
 73
     4
 74
     0
 42
0.000000001
 43
0.0000000001
 40
0.0
 40
0.0
 40
0.0
 40
0.0
 40
1.0
 40
1.0
 40
1.0
 40
1.0
 10
-3.162188976377953
 20
-7.81284251968504
 30
0.0
 10
-1.739964566929134
 20
-6.932287401574803
 30
0.0
 10
-0.317744094488189
 20
-6.051728346456693
 30
0.0
 10
1.10448031496063
 20
-5.171173228346457
 30
0.0
  0
SPLINE
  5
9B
330
1F
100
AcDbEntity
  8
Layer 1
 62
   250
370
    18
100
AcDbSpline
210
0.0
220
0.0
230
1.0
 70
     8
 71
     3
 72
    12
 73
     8
 74
     0
 42
0.000000001
 43
0.0000000001
 40
0.0
 40
0.0
 40
0.0
 40
0.0
 40
0.3333333333333333
 40
0.3333333333333333
 40
0.3333333333333333
 40
0.3333333333333333
 40
1.0
 40
1.0
 40
1.0
 40
1.0
 10
-0.4496653543307086
 20
-8.842007874015748
 30
0.0
 10
0.3961692913385827
 20
-8.664228346456692
 30
0.0
 10
1.242007874015748
 20
-8.486452755905512
 30
0.0
 10
1.748952755905512
 20
-8.385755905511811
 30
0.0
 10
1.748952755905512
 20
-8.385755905511811
 30
0.0
 10
2.255897637795276
 20
-8.285062992125985
 30
0.0
 10
2.423952755905512
 20
-8.261448818897637
 30
0.0
 10
2.592007874015748
 20
-8.237838582677165
 30
0.0
  0
SPLINE
  5
9C
330
1F
100
AcDbEntity
  8
Layer 1
 62
   250
370
    18
100
AcDbSpline
210
0.0
220
0.0
230
1.0
 70
     8
 71
     3
 72
    16
 73
    12
 74
     0
 42
0.000000001
 43
0.0000000001
 40
0.0
 40
0.0
 40
0.0
 40
0.0
 40
0.25
 40
0.25
 40
0.25
 40
0.25
 40
0.5
 40
0.5
 40
0.5
 40
0.5
 40
1.0
 40
1.0
 40
1.0
 40
1.0
 10
-2.257992125984252
 20
-7.475326771653544
 30
0.0
 10
-2.27188188976378
 20
-7.716992125984252
 30
0.0
 10
-2.285771653543307
 20
-7.958661417322834
 30
0.0
 10
-2.259381889763779
 20
-8.190606299212599
 30
0.0
 10
-2.259381889763779
 20
-8.190606299212599
 30
0.0
 10
-2.232996062992126
 20
-8.422551181102362
 30
0.0
 10
-2.166326771653543
 20
-8.644771653543307
 30
0.0
 10
-2.098271653543307
 20
-8.79338188976378
 30
0.0
 10
-2.098271653543307
 20
-8.79338188976378
 30
0.0
 10
-2.030216535433071
 20
-8.941996062992127
 30
0.0
 10
-1.960771653543307
 20
-9.016996062992126
 30
0.0
 10
-1.891326771653543
 20
-9.091996062992125
 30
0.0
  0
SPLINE
  5
9D
330
1F
100
AcDbEntity
  8
Layer 1
 62
   250
370
    18
100
AcDbSpline
210
0.0
220
0.0
230
1.0
 70
     8
 71
     3
 72
     8
 73
     4
 74
     0
 42
0.000000001
 43
0.0000000001
 40
0.0
 40
0.0
 40
0.0
 40
0.0
 40
1.0
 40
1.0
 40
1.0
 40
1.0
 10
-1.853826771653543
 20
-8.116996062992126
 30
0.0
 10
-1.673271653543307
 20
-8.078106299212598
 30
0.0
 10
-1.492712598425197
 20
-8.039220472440945
 30
0.0
 10
-1.312157480314961
 20
-8.000330708661417
 30
0.0
  0
SPLINE
  5
9E
330
1F
100
AcDbEntity
  8
Layer 1
 62
   250
370
    18
100
AcDbSpline
210
0.0
220
0.0
230
1.0
 70
     8
 71
     3
 72
     8
 73
     4
 74
     0
 42
0.000000001
 43
0.0000000001
 40
0.0
 40
0.0
 40
0.0
 40
0.0
 40
1.0
 40
1.0
 40
1.0
 40
1.0
 10
-3.270476377952756
 20
-8.262818897637795
 30
0.0
 10
-3.191311023622047
 20
-8.232263779527559
 30
0.0
 10
-3.112141732283464
 20
-8.201708661417323
 30
0.0
 10
-3.032976377952756
 20
-8.171153543307087
 30
0.0
  0
SPLINE
  5
9F
330
1F
100
AcDbEntity
  8
Layer 1
 62
   250
370
    18
100
AcDbSpline
210
0.0
220
0.0
230
1.0
 70
     8
 71
     3
 72
     8
 73
     4
 74
     0
 42
0.000000001
 43
0.0000000001
 40
0.0
 40
0.0
 40
0.0
 40
0.0
 40
1.0
 40
1.0
 40
1.0
 40
1.0
 10
-3.264228346456693
 20
-8.400322834645669
 30
0.0
 10
-3.185062992125984
 20
-8.369767716535433
 30
0.0
 10
-3.105893700787401
 20
-8.339212598425197
 30
0.0
 10
-3.026728346456693
 20
-8.308657480314961
 30
0.0
  0
SPLINE
  5
A0
330
1F
100
AcDbEntity
  8
Layer 1
 62
   250
370
    18
100
AcDbSpline
210
0.0
220
0.0
230
1.0
 70
     8
 71
     3
 72
     8
 73
     4
 74
     0
 42
0.000000001
 43
0.0000000001
 40
0.0
 40
0.0
 40
0.0
 40
0.0
 40
1.0
 40
1.0
 40
1.0
 40
1.0
 10
-3.271814960629921
 20
-8.546011811023622
 30
0.0
 10
-3.192649606299212
 20
-8.515456692913386
 30
0.0
 10
-3.11348031496063
 20
-8.48490157480315
 30
0.0
 10
-3.034314960629921
 20
-8.454346456692914
 30
0.0
  0
SPLINE
  5
A1
330
1F
100
AcDbEntity
  8
Layer 1
 62
   250
370
    18
100
AcDbSpline
210
0.0
220
0.0
230
1.0
 70
     8
 71
     3
 72
     8
 73
     4
 74
     0
 42
0.000000001
 43
0.0000000001
 40
0.0
 40
0.0
 40
0.0
 40
0.0
 40
1.0
 40
1.0
 40
1.0
 40
1.0
 10
-3.268401574803149
 20
-8.735740157480315
 30
0.0
 10
-3.189236220472441
 20
-8.705185039370079
 30
0.0
 10
-3.110066929133858
 20
-8.674629921259843
 30
0.0
 10
-3.03090157480315
 20
-8.644074803149607
 30
0.0
  0
SPLINE
  5
A2
330
1F
100
AcDbEntity
  8
Layer 1
 62
   250
370
    18
100
AcDbSpline
210
0.0
220
0.0
230
1.0
 70
     8
 71
     3
 72
     8
 73
     4
 74
     0
 42
0.000000001
 43
0.0000000001
 40
0.0
 40
0.0
 40
0.0
 40
0.0
 40
1.0
 40
1.0
 40
1.0
 40
1.0
 10
-5.539236220472441
 20
-6.016968503937008
 30
0.0
 10
-5.303125984251968
 20
-6.530858267716535
 30
0.0
 10
-5.067011811023622
 20
-7.044748031496063
 30
0.0
 10
-4.83090157480315
 20
-7.55863779527559
 30
0.0
  0
SPLINE
  5
A3
330
1F
100
AcDbEntity
  8
Layer 1
 62
   250
370
    18
100
AcDbSpline
210
0.0
220
0.0
230
1.0
 70
     8
 71
     3
 72
     8
 73
     4
 74
     0
 42
0.000000001
 43
0.0000000001
 40
0.0
 40
0.0
 40
0.0
 40
0.0
 40
1.0
 40
1.0
 40
1.0
 40
1.0
 10
-4.489232283464567
 20
-8.425303149606298
 30
0.0
 10
-4.397566929133858
 20
-8.616972440944881
 30
0.0
 10
-4.305897637795276
 20
-8.80863779527559
 30
0.0
 10
-4.214232283464567
 20
-9.000307086614173
 30
0.0
  0
SPLINE
  5
A4
330
1F
100
AcDbEntity
  8
Layer 1
 62
   250
370
    18
100
AcDbSpline
210
0.0
220
0.0
230
1.0
 70
    24
 71
     3
 72
     8
 73
     4
 74
     0
 42
0.000000001
 43
0.0000000001
 40
0.0
 40
0.0
 40
0.0
 40
0.0
 40
1.0
 40
1.0
 40
1.0
 40
1.0
 10
-5.53090157480315
 20
-4.875295275590551
 30
0.0
 10
-4.980901574803149
 20
-5.958629921259843
 30
0.0
 10
-4.43090157480315
 20
-7.041964566929134
 30
0.0
 10
-3.88090157480315
 20
-8.125299212598426
 30
0.0
  0
SPLINE
  5
A5
330
1F
100
AcDbEntity
  8
Layer 1
 62
   250
370
    18
100
AcDbSpline
210
0.0
220
0.0
230
1.0
 70
     8
 71
     3
 72
    20
 73
    16
 74
     0
 42
0.000000001
 43
0.0000000001
 40
0.0
 40
0.0
 40
0.0
 40
0.0
 40
0.2
 40
0.2
 40
0.2
 40
0.2
 40
0.4
 40
0.4
 40
0.4
 40
0.4
 40
0.6
 40
0.6
 40
0.6
 40
0.6
 40
1.0
 40
1.0
 40
1.0
 40
1.0
 10
-6.251736220472441
 20
-4.31696062992126
 30
0.0
 10
-6.178125984251968
 20
-4.282240157480315
 30
0.0
 10
-6.104511811023622
 20
-4.247515748031496
 30
0.0
 10
-6.031594488188976
 20
-4.164181102362205
 30
0.0
 10
-6.031594488188976
 20
-4.164181102362205
 30
0.0
 10
-5.958681102362204
 20
-4.080850393700787
 30
0.0
 10
-5.886456692913386
 20
-3.948905511811024
 30
0.0
 10
-5.851732283464567
 20
-3.820433070866142
 30
0.0
 10
-5.851732283464567
 20
-3.820433070866142
 30
0.0
 10
-5.817011811023622
 20
-3.69196062992126
 30
0.0
 10
-5.819791338582677
 20
-3.56696062992126
 30
0.0
 10
-5.824649606299213
 20
-3.487791338582677
 30
0.0
 10
-5.824649606299213
 20
-3.487791338582677
 30
0.0
 10
-5.829511811023622
 20
-3.408625984251969
 30
0.0
 10
-5.836456692913385
 20
-3.375295275590551
 30
0.0
 10
-5.84340157480315
 20
-3.34196062992126
 30
0.0
  0
SPLINE
  5
A6
330
1F
100
AcDbEntity
  8
Layer 1
 62
   250
370
    18
100
AcDbSpline
210
0.0
220
0.0
230
1.0
 70
     8
 71
     3
 72
    16
 73
    12
 74
     0
 42
0.000000001
 43
0.0000000001
 40
0.0
 40
0.0
 40
0.0
 40
0.0
 40
0.25
 40
0.25
 40
0.25
 40
0.25
 40
0.5
 40
0.5
 40
0.5
 40
0.5
 40
1.0
 40
1.0
 40
1.0
 40
1.0
 10
11.34411417322835
 20
-4.066925196850394
 30
0.0
 10
11.65800393700787
 20
-4.044700787401575
 30
0.0
 10
11.97188976377953
 20
-4.02248031496063
 30
0.0
 10
12.37466929133858
 20
-4.026645669291338
 30
0.0
 10
12.37466929133858
 20
-4.026645669291338
 30
0.0
 10
12.77744881889764
 20
-4.030811023622047
 30
0.0
 10
13.26911417322835
 20
-4.061370078740158
 30
0.0
 10
13.61633858267717
 20
-4.09748031496063
 30
0.0
 10
13.61633858267717
 20
-4.09748031496063
 30
0.0
 10
13.96356299212598
 20
-4.133590551181102
 30
0.0
 10
14.16633858267716
 20
-4.175259842519685
 30
0.0
 10
14.36911811023622
 20
-4.216925196850394
 30
0.0
  0
SPLINE
  5
A7
330
1F
100
AcDbEntity
  8
Layer 1
 62
   250
370
    18
100
AcDbSpline
210
0.0
220
0.0
230
1.0
 70
     8
 71
     3
 72
    12
 73
     8
 74
     0
 42
0.000000001
 43
0.0000000001
 40
0.0
 40
0.0
 40
0.0
 40
0.0
 40
0.3333333333333333
 40
0.3333333333333333
 40
0.3333333333333333
 40
0.3333333333333333
 40
1.0
 40
1.0
 40
1.0
 40
1.0
 10
12.46911811023622
 20
-2.908586614173228
 30
0.0
 10
12.55245275590551
 20
-2.905811023622047
 30
0.0
 10
12.63578346456693
 20
-2.903031496062992
 30
0.0
 10
12.74828346456693
 20
-2.91692125984252
 30
0.0
 10
12.74828346456693
 20
-2.91692125984252
 30
0.0
 10
12.8607874015748
 20
-2.930811023622047
 30
0.0
 10
13.00245275590551
 20
-2.961366141732284
 30
0.0
 10
13.14412204724409
 20
-2.99192125984252
 30
0.0
  0
ENDSEC
  0
SECTION
  2
OBJECTS
  0
DICTIONARY
  5
C
330
0
100
AcDbDictionary
281
     1
  3
ACAD_DETAILVIEWSTYLE
350
E3
  3
ACAD_GROUP
350
D
  3
ACAD_LAYOUT
350
1A
  3
ACAD_MATERIAL
350
43
  3
ACAD_MLEADERSTYLE
350
6B
  3
ACAD_MLINESTYLE
350
17
  3
ACAD_PLOTSETTINGS
350
19
  3
ACAD_PLOTSTYLENAME
350
E
  3
ACAD_SCALELIST
350
47
  3
ACAD_SECTIONVIEWSTYLE
350
E4
  3
ACAD_TABLESTYLE
350
69
  3
ACAD_VISUALSTYLE
350
2A
  3
ACDB_RECOMPOSE_DATA
350
E0
  3
AcDbVariableDictionary
350
A8
  0
SUN
  5
6D
330
29
100
AcDbSun
 90
        1
290
     0
 63
     7
421
 16777215
 40
1.0
291
     1
 91
  2455826
 92
 54000000
292
     0
 70
     2
 71
   256
280
     1
  0
DICTIONARY
  5
E3
102
{ACAD_REACTORS
330
C
102
}
330
C
100
AcDbDictionary
281
     1
  0
DICTIONARY
  5
D
102
{ACAD_REACTORS
330
C
102
}
330
C
100
AcDbDictionary
281
     1
  0
DICTIONARY
  5
1A
102
{ACAD_REACTORS
330
C
102
}
330
C
100
AcDbDictionary
281
     1
  3
Layout1
350
1E
  3
Layout2
350
26
  3
Model
350
22
  0
DICTIONARY
  5
43
102
{ACAD_REACTORS
330
C
102
}
330
C
100
AcDbDictionary
281
     1
  3
ByBlock
350
45
  3
ByLayer
350
44
  3
Global
350
46
  0
DICTIONARY
  5
6B
102
{ACAD_REACTORS
330
C
102
}
330
C
100
AcDbDictionary
281
     1
  3
Standard
350
6C
  0
DICTIONARY
  5
17
102
{ACAD_REACTORS
330
C
102
}
330
C
100
AcDbDictionary
281
     1
  3
Standard
350
18
  0
DICTIONARY
  5
19
102
{ACAD_REACTORS
330
C
102
}
330
C
100
AcDbDictionary
281
     1
  0
ACDBDICTIONARYWDFLT
  5
E
102
{ACAD_REACTORS
330
C
102
}
330
C
100
AcDbDictionary
281
     1
  3
Normal
350
F
100
AcDbDictionaryWithDefault
340
F
  0
DICTIONARY
  5
47
102
{ACAD_REACTORS
330
C
102
}
330
C
100
AcDbDictionary
281
     1
  3
A0
350
48
  3
A1
350
49
  3
A2
350
4A
  3
A3
350
4B
  3
A4
350
4C
  3
A5
350
4D
  3
A6
350
4E
  3
A7
350
4F
  3
A8
350
50
  3
A9
350
51
  3
B0
350
52
  3
B1
350
53
  3
B2
350
54
  3
B3
350
55
  3
B4
350
56
  3
B5
350
57
  3
B6
350
58
  3
B7
350
59
  3
B8
350
5A
  3
B9
350
5B
  3
C0
350
5C
  3
C1
350
5D
  3
C2
350
5E
  3
C3
350
5F
  3
C4
350
60
  3
C5
350
61
  3
C6
350
62
  3
C7
350
63
  3
C8
350
64
  3
C9
350
65
  3
D0
350
66
  3
D1
350
67
  3
D2
350
68
  0
DICTIONARY
  5
E4
102
{ACAD_REACTORS
330
C
102
}
330
C
100
AcDbDictionary
281
     1
  0
DICTIONARY
  5
69
102
{ACAD_REACTORS
330
C
102
}
330
C
100
AcDbDictionary
281
     1
  3
Standard
350
6A
  0
DICTIONARY
  5
2A
102
{ACAD_REACTORS
330
C
102
}
330
C
100
AcDbDictionary
281
     1
  3
2dWireframe
350
2F
  3
Basic
350
32
  3
Brighten
350
36
  3
ColorChange
350
3A
  3
Conceptual
350
34
  3
Dim
350
35
  3
EdgeColorOff
350
3D
  3
Facepattern
350
39
  3
Flat
350
2B
  3
FlatWithEdges
350
2C
  3
Gouraud
350
2D
  3
GouraudWithEdges
350
2E
  3
Hidden
350
31
  3
JitterOff
350
3B
  3
Linepattern
350
38
  3
OverhangOff
350
3C
  3
Realistic
350
33
  3
Shaded
350
42
  3
Shaded with edges
350
41
  3
Shades of Gray
350
3E
  3
Sketchy
350
3F
  3
Thicken
350
37
  3
Wireframe
350
30
  3
X-Ray
350
40
  0
XRECORD
  5
E0
102
{ACAD_REACTORS
330
C
102
}
330
C
100
AcDbXrecord
280
     1
 90
        1
330
6A
  0
DICTIONARY
  5
A8
102
{ACAD_REACTORS
330
C
102
}
330
C
100
AcDbDictionary
281
     1
  3
CANNOSCALE
350
A9
  3
CMLEADERSTYLE
350
E2
  3
CTABLESTYLE
350
E1
  3
XCLIPFRAME
350
AA
  0
LAYOUT
  5
1E
102
{ACAD_REACTORS
330
1A
102
}
330
1A
100
AcDbPlotSettings
  1

  2
none_device
  4

  6

 40
0.0
 41
0.0
 42
0.0
 43
0.0
 44
0.0
 45
0.0
 46
0.0
 47
0.0
 48
0.0
 49
0.0
140
0.0
141
0.0
142
1.0
143
1.0
 70
   688
 72
     0
 73
     0
 74
     5
  7

 75
    16
 76
     0
 77
     2
 78
   300
147
1.0
148
0.0
149
0.0
100
AcDbLayout
  1
Layout1
 70
     1
 71
     1
 10
0.0
 20
0.0
 11
12.0
 21
9.0
 12
0.0
 22
0.0
 32
0.0
 14
1.000000000000000E+20
 24
1.000000000000000E+20
 34
1.000000000000000E+20
 15
-1.000000000000000E+20
 25
-1.000000000000000E+20
 35
-1.000000000000000E+20
146
0.0
 13
0.0
 23
0.0
 33
0.0
 16
1.0
 26
0.0
 36
0.0
 17
0.0
 27
1.0
 37
0.0
 76
     0
330
1B
  0
LAYOUT
  5
26
102
{ACAD_REACTORS
330
1A
102
}
330
1A
100
AcDbPlotSettings
  1

  2
none_device
  4

  6

 40
0.0
 41
0.0
 42
0.0
 43
0.0
 44
0.0
 45
0.0
 46
0.0
 47
0.0
 48
0.0
 49
0.0
140
0.0
141
0.0
142
1.0
143
1.0
 70
   688
 72
     0
 73
     0
 74
     5
  7

 75
    16
 76
     0
 77
     2
 78
   300
147
1.0
148
0.0
149
0.0
100
AcDbLayout
  1
Layout2
 70
     1
 71
     2
 10
0.0
 20
0.0
 11
0.0
 21
0.0
 12
0.0
 22
0.0
 32
0.0
 14
0.0
 24
0.0
 34
0.0
 15
0.0
 25
0.0
 35
0.0
146
0.0
 13
0.0
 23
0.0
 33
0.0
 16
1.0
 26
0.0
 36
0.0
 17
0.0
 27
1.0
 37
0.0
 76
     0
330
23
  0
LAYOUT
  5
22
102
{ACAD_REACTORS
330
1A
102
}
330
1A
100
AcDbPlotSettings
  1

  2
none_device
  4
Letter_(8.50_x_11.00_Inches)
  6

 40
6.35
 41
6.35
 42
6.35000508
 43
6.35000508
 44
215.9
 45
279.4
 46
0.0
 47
0.0
 48
0.0
 49
0.0
140
0.0
141
0.0
142
1.0
143
1.0
 70
  1712
 72
     0
 73
     0
 74
     0
  7

 75
     0
 76
     0
 77
     2
 78
   300
147
1.0
148
0.0
149
0.0
100
AcDbLayout
  1
Model
 70
     1
 71
     0
 10
0.0
 20
0.0
 11
12.0
 21
9.0
 12
0.0
 22
0.0
 32
0.0
 14
-13.65603149606299
 24
-11.34897244094488
 34
0.0
 15
19.1865905511811
 25
5.524818897637795
 35
0.0
146
0.0
 13
0.0
 23
0.0
 33
0.0
 16
1.0
 26
0.0
 36
0.0
 17
0.0
 27
1.0
 37
0.0
 76
     0
330
1F
331
29
  0
MATERIAL
  5
45
102
{ACAD_REACTORS
330
43
102
}
330
43
100
AcDbMaterial
  1
ByBlock
 72
     1
 94
      127
  0
MATERIAL
  5
44
102
{ACAD_REACTORS
330
43
102
}
330
43
100
AcDbMaterial
  1
ByLayer
 72
     1
 94
      127
  0
MATERIAL
  5
46
102
{ACAD_REACTORS
330
43
102
}
330
43
100
AcDbMaterial
  1
Global
 72
     1
 94
      127
  0
MLEADERSTYLE
  5
6C
102
{ACAD_REACTORS
330
6B
102
}
102
{ACAD_XDICTIONARY
360
DE
102
}
330
6B
100
AcDbMLeaderStyle
170
     2
171
     1
172
     0
 90
        2
 40
0.0
 41
0.0
173
     1
 91
-1056964608
340
14
 92
       -2
290
     1
 42
0.09
291
     1
 43
0.36
  3
Standard
341
0
 44
0.18
300

342
11
174
     1
178
     6
175
     1
176
     0
 93
-1056964608
 45
0.18
292
     0
297
     0
 46
0.18
343
0
 94
-1056964608
 47
1.0
 49
1.0
140
1.0
293
     1
141
0.0
294
     1
177
     0
142
1.0
295
     0
296
     0
143
0.125
1001
ACAD_MLEADERVER
1070
     2
  0
MLINESTYLE
  5
18
102
{ACAD_REACTORS
330
17
102
}
330
17
100
AcDbMlineStyle
  2
Standard
 70
     0
  3

 62
   256
 51
90.0
 52
90.0
 71
     2
 49
0.5
 62
   256
  6
BYLAYER
 49
-0.5
 62
   256
  6
BYLAYER
  0
ACDBPLACEHOLDER
  5
F
102
{ACAD_REACTORS
330
E
102
}
330
E
  0
SCALE
  5
48
102
{ACAD_REACTORS
330
47
102
}
330
47
100
AcDbScale
 70
     0
300
1:1
140
1.0
141
1.0
290
     1
  0
SCALE
  5
49
102
{ACAD_REACTORS
330
47
102
}
330
47
100
AcDbScale
 70
     0
300
1:2
140
1.0
141
2.0
290
     0
  0
SCALE
  5
4A
102
{ACAD_REACTORS
330
47
102
}
330
47
100
AcDbScale
 70
     0
300
1:4
140
1.0
141
4.0
290
     0
  0
SCALE
  5
4B
102
{ACAD_REACTORS
330
47
102
}
330
47
100
AcDbScale
 70
     0
300
1:5
140
1.0
141
5.0
290
     0
  0
SCALE
  5
4C
102
{ACAD_REACTORS
330
47
102
}
330
47
100
AcDbScale
 70
     0
300
1:8
140
1.0
141
8.0
290
     0
  0
SCALE
  5
4D
102
{ACAD_REACTORS
330
47
102
}
330
47
100
AcDbScale
 70
     0
300
1:10
140
1.0
141
10.0
290
     0
  0
SCALE
  5
4E
102
{ACAD_REACTORS
330
47
102
}
330
47
100
AcDbScale
 70
     0
300
1:16
140
1.0
141
16.0
290
     0
  0
SCALE
  5
4F
102
{ACAD_REACTORS
330
47
102
}
330
47
100
AcDbScale
 70
     0
300
1:20
140
1.0
141
20.0
290
     0
  0
SCALE
  5
50
102
{ACAD_REACTORS
330
47
102
}
330
47
100
AcDbScale
 70
     0
300
1:30
140
1.0
141
30.0
290
     0
  0
SCALE
  5
51
102
{ACAD_REACTORS
330
47
102
}
330
47
100
AcDbScale
 70
     0
300
1:40
140
1.0
141
40.0
290
     0
  0
SCALE
  5
52
102
{ACAD_REACTORS
330
47
102
}
330
47
100
AcDbScale
 70
     0
300
1:50
140
1.0
141
50.0
290
     0
  0
SCALE
  5
53
102
{ACAD_REACTORS
330
47
102
}
330
47
100
AcDbScale
 70
     0
300
1:100
140
1.0
141
100.0
290
     0
  0
SCALE
  5
54
102
{ACAD_REACTORS
330
47
102
}
330
47
100
AcDbScale
 70
     0
300
2:1
140
2.0
141
1.0
290
     0
  0
SCALE
  5
55
102
{ACAD_REACTORS
330
47
102
}
330
47
100
AcDbScale
 70
     0
300
4:1
140
4.0
141
1.0
290
     0
  0
SCALE
  5
56
102
{ACAD_REACTORS
330
47
102
}
330
47
100
AcDbScale
 70
     0
300
8:1
140
8.0
141
1.0
290
     0
  0
SCALE
  5
57
102
{ACAD_REACTORS
330
47
102
}
330
47
100
AcDbScale
 70
     0
300
10:1
140
10.0
141
1.0
290
     0
  0
SCALE
  5
58
102
{ACAD_REACTORS
330
47
102
}
330
47
100
AcDbScale
 70
     0
300
100:1
140
100.0
141
1.0
290
     0
  0
SCALE
  5
59
102
{ACAD_REACTORS
330
47
102
}
330
47
100
AcDbScale
 70
     0
300
1/128" = 1'-0"
140
0.0078125
141
12.0
290
     0
  0
SCALE
  5
5A
102
{ACAD_REACTORS
330
47
102
}
330
47
100
AcDbScale
 70
     0
300
1/64" = 1'-0"
140
0.015625
141
12.0
290
     0
  0
SCALE
  5
5B
102
{ACAD_REACTORS
330
47
102
}
330
47
100
AcDbScale
 70
     0
300
1/32" = 1'-0"
140
0.03125
141
12.0
290
     0
  0
SCALE
  5
5C
102
{ACAD_REACTORS
330
47
102
}
330
47
100
AcDbScale
 70
     0
300
1/16" = 1'-0"
140
0.0625
141
12.0
290
     0
  0
SCALE
  5
5D
102
{ACAD_REACTORS
330
47
102
}
330
47
100
AcDbScale
 70
     0
300
3/32" = 1'-0"
140
0.09375
141
12.0
290
     0
  0
SCALE
  5
5E
102
{ACAD_REACTORS
330
47
102
}
330
47
100
AcDbScale
 70
     0
300
1/8" = 1'-0"
140
0.125
141
12.0
290
     0
  0
SCALE
  5
5F
102
{ACAD_REACTORS
330
47
102
}
330
47
100
AcDbScale
 70
     0
300
3/16" = 1'-0"
140
0.1875
141
12.0
290
     0
  0
SCALE
  5
60
102
{ACAD_REACTORS
330
47
102
}
330
47
100
AcDbScale
 70
     0
300
1/4" = 1'-0"
140
0.25
141
12.0
290
     0
  0
SCALE
  5
61
102
{ACAD_REACTORS
330
47
102
}
330
47
100
AcDbScale
 70
     0
300
3/8" = 1'-0"
140
0.375
141
12.0
290
     0
  0
SCALE
  5
62
102
{ACAD_REACTORS
330
47
102
}
330
47
100
AcDbScale
 70
     0
300
1/2" = 1'-0"
140
0.5
141
12.0
290
     0
  0
SCALE
  5
63
102
{ACAD_REACTORS
330
47
102
}
330
47
100
AcDbScale
 70
     0
300
3/4" = 1'-0"
140
0.75
141
12.0
290
     0
  0
SCALE
  5
64
102
{ACAD_REACTORS
330
47
102
}
330
47
100
AcDbScale
 70
     0
300
1" = 1'-0"
140
1.0
141
12.0
290
     0
  0
SCALE
  5
65
102
{ACAD_REACTORS
330
47
102
}
330
47
100
AcDbScale
 70
     0
300
1-1/2" = 1'-0"
140
1.5
141
12.0
290
     0
  0
SCALE
  5
66
102
{ACAD_REACTORS
330
47
102
}
330
47
100
AcDbScale
 70
     0
300
3" = 1'-0"
140
3.0
141
12.0
290
     0
  0
SCALE
  5
67
102
{ACAD_REACTORS
330
47
102
}
330
47
100
AcDbScale
 70
     0
300
6" = 1'-0"
140
6.0
141
12.0
290
     0
  0
SCALE
  5
68
102
{ACAD_REACTORS
330
47
102
}
330
47
100
AcDbScale
 70
     0
300
1'-0" = 1'-0"
140
12.0
141
12.0
290
     0
  0
TABLESTYLE
  5
6A
102
{ACAD_REACTORS
330
69
102
}
102
{ACAD_XDICTIONARY
360
DB
102
}
330
69
100
AcDbTableStyle
  3
Standard
 70
     0
 71
     0
 40
0.06
 41
0.06
280
     0
281
     0
  7
Standard
140
0.18
170
     2
 62
     0
 63
   257
283
     0
 90
        4
 91
        0
  1

274
    -2
284
     1
 64
     0
275
    -2
285
     1
 65
     0
276
    -2
286
     1
 66
     0
277
    -2
287
     1
 67
     0
278
    -2
288
     1
 68
     0
279
    -2
289
     1
 69
     0
  7
Standard
140
0.25
170
     5
 62
     0
 63
   257
283
     0
 90
        4
 91
        0
  1

274
    -2
284
     1
 64
     0
275
    -2
285
     1
 65
     0
276
    -2
286
     1
 66
     0
277
    -2
287
     1
 67
     0
278
    -2
288
     1
 68
     0
279
    -2
289
     1
 69
     0
  7
Standard
140
0.18
170
     5
 62
     0
 63
   257
283
     0
 90
        4
 91
        0
  1

274
    -2
284
     1
 64
     0
275
    -2
285
     1
 65
     0
276
    -2
286
     1
 66
     0
277
    -2
287
     1
 67
     0
278
    -2
288
     1
 68
     0
279
    -2
289
     1
 69
     0
  0
VISUALSTYLE
  5
2F
102
{ACAD_REACTORS
330
2A
102
}
102
{ACAD_XDICTIONARY
360
B3
102
}
330
2A
100
AcDbVisualStyle
  2
2dWireframe
 70
     4
 71
     0
 72
     2
 73
     0
 90
        0
 40
0.6
 41
30.0
 62
     5
 63
     7
421
 16777215
 74
     1
 91
        4
 64
     7
 65
   257
 75
     1
175
     1
 42
1.0
 92
        0
 66
   257
 43
1.0
 76
     1
 77
     6
 78
     2
 67
     7
 79
     5
170
     0
171
     0
290
     0
174
     0
 93
        1
 44
0.0
173
     0
291
     0
 45
0.0
  0
VISUALSTYLE
  5
32
102
{ACAD_REACTORS
330
2A
102
}
102
{ACAD_XDICTIONARY
360
B9
102
}
330
2A
100
AcDbVisualStyle
  2
Basic
 70
     7
 71
     1
 72
     0
 73
     1
 90
        0
 40
0.6
 41
30.0
 62
     5
 63
     7
421
 16777215
 74
     0
 91
        4
 64
     7
 65
   257
 75
     1
175
     1
 42
1.0
 92
        8
 66
     7
 43
1.0
 76
     1
 77
     6
 78
     2
 67
     7
 79
     5
170
     0
171
     0
290
     0
174
     0
 93
        1
 44
0.0
173
     0
291
     1
 45
0.0
  0
VISUALSTYLE
  5
36
102
{ACAD_REACTORS
330
2A
102
}
102
{ACAD_XDICTIONARY
360
C1
102
}
330
2A
100
AcDbVisualStyle
  2
Brighten
 70
    12
 71
     2
 72
     2
 73
     0
 90
        0
 40
0.6
 41
30.0
 62
     5
 63
     7
421
 16777215
 74
     1
 91
        4
 64
     7
 65
   257
 75
     1
175
     1
 42
1.0
 92
        8
 66
     7
 43
1.0
 76
     1
 77
     6
 78
     2
 67
     7
 79
     5
170
     0
171
     0
290
     0
174
     0
 93
        1
 44
50.0
173
     0
291
     1
 45
0.0
  0
VISUALSTYLE
  5
3A
102
{ACAD_REACTORS
330
2A
102
}
102
{ACAD_XDICTIONARY
360
C9
102
}
330
2A
100
AcDbVisualStyle
  2
ColorChange
 70
    16
 71
     2
 72
     2
 73
     3
 90
        0
 40
0.6
 41
30.0
 62
     5
 63
     8
421
  8421504
 74
     1
 91
        4
 64
     7
 65
   257
 75
     1
175
     1
 42
1.0
 92
        8
 66
     8
424
  8421504
 43
1.0
 76
     1
 77
     6
 78
     2
 67
     7
 79
     5
170
     0
171
     0
290
     0
174
     0
 93
        1
 44
0.0
173
     0
291
     1
 45
0.0
  0
VISUALSTYLE
  5
34
102
{ACAD_REACTORS
330
2A
102
}
102
{ACAD_XDICTIONARY
360
BD
102
}
330
2A
100
AcDbVisualStyle
  2
Conceptual
 70
     9
 71
     3
 72
     2
 73
     0
 90
        0
 40
0.6
 41
30.0
 62
     5
 63
     7
421
 16777215
 74
     2
 91
        2
 64
     7
 65
   257
 75
     1
175
     1
 42
179.0
 92
        8
 66
     7
 43
1.0
 76
     1
 77
     6
 78
     2
 67
     7
 79
     3
170
     0
171
     0
290
     0
174
     0
 93
        1
 44
0.0
173
     0
291
     0
 45
0.0
  0
VISUALSTYLE
  5
35
102
{ACAD_REACTORS
330
2A
102
}
102
{ACAD_XDICTIONARY
360
BF
102
}
330
2A
100
AcDbVisualStyle
  2
Dim
 70
    11
 71
     2
 72
     2
 73
     0
 90
        0
 40
0.6
 41
30.0
 62
     5
 63
     7
421
 16777215
 74
     1
 91
        4
 64
     7
 65
   257
 75
     1
175
     1
 42
1.0
 92
        8
 66
     7
 43
1.0
 76
     1
 77
     6
 78
     2
 67
     7
 79
     5
170
     0
171
     0
290
     0
174
     0
 93
        1
 44
-50.0
173
     0
291
     1
 45
0.0
  0
VISUALSTYLE
  5
3D
102
{ACAD_REACTORS
330
2A
102
}
102
{ACAD_XDICTIONARY
360
CF
102
}
330
2A
100
AcDbVisualStyle
  2
EdgeColorOff
 70
    22
 71
     2
 72
     2
 73
     0
 90
        0
 40
0.6
 41
30.0
 62
     5
 63
     7
421
 16777215
 74
     1
 91
        4
 64
     7
 65
   257
 75
     1
175
     1
 42
1.0
 92
        8
 66
     7
 43
1.0
 76
     1
 77
     6
 78
     2
 67
     7
 79
     5
170
     0
171
     0
290
     0
174
     0
 93
        1
 44
0.0
173
     0
291
     1
 45
0.0
  0
VISUALSTYLE
  5
39
102
{ACAD_REACTORS
330
2A
102
}
102
{ACAD_XDICTIONARY
360
C7
102
}
330
2A
100
AcDbVisualStyle
  2
Facepattern
 70
    15
 71
     2
 72
     2
 73
     0
 90
        0
 40
0.6
 41
30.0
 62
     5
 63
     7
421
 16777215
 74
     1
 91
        4
 64
     7
 65
   257
 75
     1
175
     1
 42
1.0
 92
        8
 66
     7
 43
1.0
 76
     1
 77
     6
 78
     2
 67
     7
 79
     5
170
     0
171
     0
290
     0
174
     0
 93
        1
 44
0.0
173
     0
291
     1
 45
0.0
  0
VISUALSTYLE
  5
2B
102
{ACAD_REACTORS
330
2A
102
}
102
{ACAD_XDICTIONARY
360
AB
102
}
330
2A
100
AcDbVisualStyle
  2
Flat
 70
     0
 71
     2
 72
     1
 73
     1
 90
        2
 40
0.6
 41
30.0
 62
     5
 63
     7
421
 16777215
 74
     0
 91
        0
 64
     7
 65
   257
 75
     1
175
     1
 42
1.0
 92
        8
 66
     7
 43
1.0
 76
     1
 77
     6
 78
     2
 67
     7
 79
     5
170
     0
171
     0
290
     0
174
     0
 93
       13
 44
0.0
173
     0
291
     1
 45
0.0
  0
VISUALSTYLE
  5
2C
102
{ACAD_REACTORS
330
2A
102
}
102
{ACAD_XDICTIONARY
360
AD
102
}
330
2A
100
AcDbVisualStyle
  2
FlatWithEdges
 70
     1
 71
     2
 72
     1
 73
     1
 90
        2
 40
0.6
 41
30.0
 62
     5
 63
     7
421
 16777215
 74
     1
 91
        0
 64
     7
 65
   257
 75
     1
175
     1
 42
1.0
 92
        0
 66
   257
 43
1.0
 76
     1
 77
     6
 78
     2
 67
     7
 79
     5
170
     0
171
     0
290
     0
174
     0
 93
       13
 44
0.0
173
     0
291
     1
 45
0.0
  0
VISUALSTYLE
  5
2D
102
{ACAD_REACTORS
330
2A
102
}
102
{ACAD_XDICTIONARY
360
AF
102
}
330
2A
100
AcDbVisualStyle
  2
Gouraud
 70
     2
 71
     2
 72
     2
 73
     1
 90
        2
 40
0.6
 41
30.0
 62
     5
 63
     7
421
 16777215
 74
     0
 91
        0
 64
     7
 65
   257
 75
     1
175
     1
 42
1.0
 92
        0
 66
     7
 43
1.0
 76
     1
 77
     6
 78
     2
 67
     7
 79
     5
170
     0
171
     0
290
     0
174
     0
 93
       13
 44
0.0
173
     0
291
     1
 45
0.0
  0
VISUALSTYLE
  5
2E
102
{ACAD_REACTORS
330
2A
102
}
102
{ACAD_XDICTIONARY
360
B1
102
}
330
2A
100
AcDbVisualStyle
  2
GouraudWithEdges
 70
     3
 71
     2
 72
     2
 73
     1
 90
        2
 40
0.6
 41
30.0
 62
     5
 63
     7
421
 16777215
 74
     1
 91
        0
 64
     7
 65
   257
 75
     1
175
     1
 42
1.0
 92
        0
 66
   257
 43
1.0
 76
     1
 77
     6
 78
     2
 67
     7
 79
     5
170
     0
171
     0
290
     0
174
     0
 93
       13
 44
0.0
173
     0
291
     1
 45
0.0
  0
VISUALSTYLE
  5
31
102
{ACAD_REACTORS
330
2A
102
}
102
{ACAD_XDICTIONARY
360
B7
102
}
330
2A
100
AcDbVisualStyle
  2
Hidden
 70
     6
 71
     1
 72
     2
 73
     2
 90
        0
 40
0.6
 41
30.0
 62
     5
 63
     7
421
 16777215
 74
     2
 91
        2
 64
     7
 65
   257
 75
     2
175
     1
 42
40.0
 92
        0
 66
   257
 43
1.0
 76
     1
 77
     6
 78
     2
 67
     7
 79
     3
170
     0
171
     0
290
     0
174
     0
 93
        1
 44
0.0
173
     0
291
     0
 45
0.0
  0
VISUALSTYLE
  5
3B
102
{ACAD_REACTORS
330
2A
102
}
102
{ACAD_XDICTIONARY
360
CB
102
}
330
2A
100
AcDbVisualStyle
  2
JitterOff
 70
    20
 71
     2
 72
     2
 73
     0
 90
        0
 40
0.6
 41
30.0
 62
     5
 63
     7
421
 16777215
 74
     1
 91
        4
 64
     7
 65
   257
 75
     1
175
     1
 42
1.0
 92
       10
 66
     7
 43
1.0
 76
     1
 77
     6
 78
     2
 67
     7
 79
     5
170
     0
171
     0
290
     0
174
     0
 93
        1
 44
0.0
173
     0
291
     1
 45
0.0
  0
VISUALSTYLE
  5
38
102
{ACAD_REACTORS
330
2A
102
}
102
{ACAD_XDICTIONARY
360
C5
102
}
330
2A
100
AcDbVisualStyle
  2
Linepattern
 70
    14
 71
     2
 72
     2
 73
     0
 90
        0
 40
0.6
 41
30.0
 62
     5
 63
     7
421
 16777215
 74
     1
 91
        4
 64
     7
 65
   257
 75
     7
175
     7
 42
1.0
 92
        8
 66
     7
 43
1.0
 76
     1
 77
     6
 78
     2
 67
     7
 79
     5
170
     0
171
     0
290
     0
174
     0
 93
        1
 44
0.0
173
     0
291
     1
 45
0.0
  0
VISUALSTYLE
  5
3C
102
{ACAD_REACTORS
330
2A
102
}
102
{ACAD_XDICTIONARY
360
CD
102
}
330
2A
100
AcDbVisualStyle
  2
OverhangOff
 70
    21
 71
     2
 72
     2
 73
     0
 90
        0
 40
0.6
 41
30.0
 62
     5
 63
     7
421
 16777215
 74
     1
 91
        4
 64
     7
 65
   257
 75
     1
175
     1
 42
1.0
 92
        9
 66
     7
 43
1.0
 76
     1
 77
     6
 78
     2
 67
     7
 79
     5
170
     0
171
     0
290
     0
174
     0
 93
        1
 44
0.0
173
     0
291
     1
 45
0.0
  0
VISUALSTYLE
  5
33
102
{ACAD_REACTORS
330
2A
102
}
102
{ACAD_XDICTIONARY
360
BB
102
}
330
2A
100
AcDbVisualStyle
  2
Realistic
 70
     8
 71
     2
 72
     3
 73
     0
 90
        2
 40
0.6
 41
30.0
 62
     5
 63
     7
421
 16777215
 74
     0
 91
        0
 64
     7
 65
   257
 75
     1
175
     1
 42
1.0
 92
        8
 66
   257
 43
1.0
 76
     1
 77
     6
 78
     2
 67
     7
 79
     3
170
     0
171
     0
290
     0
174
     0
 93
       13
 44
0.0
173
     0
291
     0
 45
0.0
  0
VISUALSTYLE
  5
42
102
{ACAD_REACTORS
330
2A
102
}
102
{ACAD_XDICTIONARY
360
D9
102
}
330
2A
100
AcDbVisualStyle
  2
Shaded
 70
    27
 71
     2
 72
     2
 73
     1
 90
        2
 40
0.6
 41
30.0
 62
     5
 63
     7
421
 16777215
 74
     0
 91
        4
 64
     7
 65
   257
 75
     1
175
     1
 42
1.0
 92
        8
 66
   257
 43
1.0
 76
     1
 77
     6
 78
     2
 67
     8
425
  7895160
 79
     3
170
     0
171
     0
290
     0
174
     0
 93
        5
 44
0.0
173
     0
291
     0
 45
0.0
  0
VISUALSTYLE
  5
41
102
{ACAD_REACTORS
330
2A
102
}
102
{ACAD_XDICTIONARY
360
D7
102
}
330
2A
100
AcDbVisualStyle
  2
Shaded with edges
 70
    26
 71
     2
 72
     2
 73
     1
 90
        2
 40
0.6
 41
30.0
 62
     5
 63
     7
421
 16777215
 74
     1
 91
       10
 64
     7
 65
   257
 75
     2
175
     1
 42
1.0
 92
        8
 66
   257
 43
1.0
 76
     1
 77
     6
 78
     2
 67
     7
 79
     3
170
     0
171
     0
290
     0
174
     0
 93
        5
 44
0.0
173
     0
291
     0
 45
0.0
  0
VISUALSTYLE
  5
3E
102
{ACAD_REACTORS
330
2A
102
}
102
{ACAD_XDICTIONARY
360
D1
102
}
330
2A
100
AcDbVisualStyle
  2
Shades of Gray
 70
    23
 71
     2
 72
     2
 73
     3
 90
        0
 40
0.6
 41
30.0
 62
     5
 63
     7
421
 16777215
 74
     2
 91
        2
 64
     7
 65
     7
 75
     1
175
     1
 42
40.0
 92
        8
 66
     7
 43
1.0
 76
     1
 77
     6
 78
     2
 67
     7
 79
     3
170
     0
171
     0
290
     0
174
     0
 93
        1
 44
0.0
173
     0
291
     0
 45
0.0
  0
VISUALSTYLE
  5
3F
102
{ACAD_REACTORS
330
2A
102
}
102
{ACAD_XDICTIONARY
360
D3
102
}
330
2A
100
AcDbVisualStyle
  2
Sketchy
 70
    24
 71
     1
 72
     2
 73
     2
 90
        0
 40
0.6
 41
30.0
 62
     5
 63
     7
421
 16777215
 74
     2
 91
        2
 64
     7
 65
     7
 75
     1
175
     1
 42
40.0
 92
       11
 66
     7
 43
1.0
 76
     1
 77
     6
 78
     2
 67
     7
 79
     6
170
     0
171
     0
290
     0
174
     0
 93
        1
 44
0.0
173
     0
291
     0
 45
0.0
  0
VISUALSTYLE
  5
37
102
{ACAD_REACTORS
330
2A
102
}
102
{ACAD_XDICTIONARY
360
C3
102
}
330
2A
100
AcDbVisualStyle
  2
Thicken
 70
    13
 71
     2
 72
     2
 73
     0
 90
        0
 40
0.6
 41
30.0
 62
     5
 63
     7
421
 16777215
 74
     1
 91
        4
 64
     7
 65
   257
 75
     1
175
     1
 42
1.0
 92
       12
 66
     7
 43
1.0
 76
     1
 77
     6
 78
     2
 67
     7
 79
     5
170
     0
171
     0
290
     0
174
     0
 93
        1
 44
0.0
173
     0
291
     1
 45
0.0
  0
VISUALSTYLE
  5
30
102
{ACAD_REACTORS
330
2A
102
}
102
{ACAD_XDICTIONARY
360
B5
102
}
330
2A
100
AcDbVisualStyle
  2
Wireframe
 70
     5
 71
     0
 72
     2
 73
     0
 90
        0
 40
0.6
 41
30.0
 62
     5
 63
     7
421
 16777215
 74
     1
 91
        4
 64
     7
 65
   257
 75
     1
175
     1
 42
1.0
 92
        0
 66
   257
 43
1.0
 76
     1
 77
     6
 78
     2
 67
     7
 79
     3
170
     0
171
     0
290
     0
174
     0
 93
        1
 44
0.0
173
     0
291
     0
 45
0.0
  0
VISUALSTYLE
  5
40
102
{ACAD_REACTORS
330
2A
102
}
102
{ACAD_XDICTIONARY
360
D5
102
}
330
2A
100
AcDbVisualStyle
  2
X-Ray
 70
    25
 71
     2
 72
     2
 73
     1
 90
        1
 40
0.5
 41
30.0
 62
     5
 63
     7
421
 16777215
 74
     1
 91
        0
 64
     7
 65
   257
 75
     1
175
     1
 42
1.0
 92
        8
 66
     7
 43
1.0
 76
     1
 77
     6
 78
     2
 67
     7
 79
     3
170
     0
171
     0
290
     0
174
     0
 93
       13
 44
0.0
173
     0
291
     0
 45
0.0
  0
DICTIONARYVAR
  5
A9
102
{ACAD_REACTORS
330
A8
102
}
330
A8
100
DictionaryVariables
280
     0
  1
1:1
  0
DICTIONARYVAR
  5
E2
102
{ACAD_REACTORS
330
A8
102
}
330
A8
100
DictionaryVariables
280
     0
  1
Standard
  0
DICTIONARYVAR
  5
E1
102
{ACAD_REACTORS
330
A8
102
}
330
A8
100
DictionaryVariables
280
     0
  1
Standard
  0
DICTIONARYVAR
  5
AA
102
{ACAD_REACTORS
330
A8
102
}
330
A8
100
DictionaryVariables
280
     0
  1
2
  0
DICTIONARY
  5
DE
330
6C
100
AcDbDictionary
280
     1
281
     1
  3
ACAD_XREC_ROUNDTRIP
360
DF
  0
DICTIONARY
  5
DB
330
6A
100
AcDbDictionary
280
     1
281
     1
  3
ACAD_ROUNDTRIP_2008_TABLESTYLE_CELLSTYLEMAP
360
DC
  0
DICTIONARY
  5
B3
330
2F
100
AcDbDictionary
280
     1
281
     1
  3
ACAD_XREC_ROUNDTRIP
360
B4
  0
DICTIONARY
  5
B9
330
32
100
AcDbDictionary
280
     1
281
     1
  3
ACAD_XREC_ROUNDTRIP
360
BA
  0
DICTIONARY
  5
C1
330
36
100
AcDbDictionary
280
     1
281
     1
  3
ACAD_XREC_ROUNDTRIP
360
C2
  0
DICTIONARY
  5
C9
330
3A
100
AcDbDictionary
280
     1
281
     1
  3
ACAD_XREC_ROUNDTRIP
360
CA
  0
DICTIONARY
  5
BD
330
34
100
AcDbDictionary
280
     1
281
     1
  3
ACAD_XREC_ROUNDTRIP
360
BE
  0
DICTIONARY
  5
BF
330
35
100
AcDbDictionary
280
     1
281
     1
  3
ACAD_XREC_ROUNDTRIP
360
C0
  0
DICTIONARY
  5
CF
330
3D
100
AcDbDictionary
280
     1
281
     1
  3
ACAD_XREC_ROUNDTRIP
360
D0
  0
DICTIONARY
  5
C7
330
39
100
AcDbDictionary
280
     1
281
     1
  3
ACAD_XREC_ROUNDTRIP
360
C8
  0
DICTIONARY
  5
AB
330
2B
100
AcDbDictionary
280
     1
281
     1
  3
ACAD_XREC_ROUNDTRIP
360
AC
  0
DICTIONARY
  5
AD
330
2C
100
AcDbDictionary
280
     1
281
     1
  3
ACAD_XREC_ROUNDTRIP
360
AE
  0
DICTIONARY
  5
AF
330
2D
100
AcDbDictionary
280
     1
281
     1
  3
ACAD_XREC_ROUNDTRIP
360
B0
  0
DICTIONARY
  5
B1
330
2E
100
AcDbDictionary
280
     1
281
     1
  3
ACAD_XREC_ROUNDTRIP
360
B2
  0
DICTIONARY
  5
B7
330
31
100
AcDbDictionary
280
     1
281
     1
  3
ACAD_XREC_ROUNDTRIP
360
B8
  0
DICTIONARY
  5
CB
330
3B
100
AcDbDictionary
280
     1
281
     1
  3
ACAD_XREC_ROUNDTRIP
360
CC
  0
DICTIONARY
  5
C5
330
38
100
AcDbDictionary
280
     1
281
     1
  3
ACAD_XREC_ROUNDTRIP
360
C6
  0
DICTIONARY
  5
CD
330
3C
100
AcDbDictionary
280
     1
281
     1
  3
ACAD_XREC_ROUNDTRIP
360
CE
  0
DICTIONARY
  5
BB
330
33
100
AcDbDictionary
280
     1
281
     1
  3
ACAD_XREC_ROUNDTRIP
360
BC
  0
DICTIONARY
  5
D9
330
42
100
AcDbDictionary
280
     1
281
     1
  3
ACAD_XREC_ROUNDTRIP
360
DA
  0
DICTIONARY
  5
D7
330
41
100
AcDbDictionary
280
     1
281
     1
  3
ACAD_XREC_ROUNDTRIP
360
D8
  0
DICTIONARY
  5
D1
330
3E
100
AcDbDictionary
280
     1
281
     1
  3
ACAD_XREC_ROUNDTRIP
360
D2
  0
DICTIONARY
  5
D3
330
3F
100
AcDbDictionary
280
     1
281
     1
  3
ACAD_XREC_ROUNDTRIP
360
D4
  0
DICTIONARY
  5
C3
330
37
100
AcDbDictionary
280
     1
281
     1
  3
ACAD_XREC_ROUNDTRIP
360
C4
  0
DICTIONARY
  5
B5
330
30
100
AcDbDictionary
280
     1
281
     1
  3
ACAD_XREC_ROUNDTRIP
360
B6
  0
DICTIONARY
  5
D5
330
40
100
AcDbDictionary
280
     1
281
     1
  3
ACAD_XREC_ROUNDTRIP
360
D6
  0
XRECORD
  5
DF
102
{ACAD_REACTORS
330
DE
102
}
330
DE
100
AcDbXrecord
280
     1
102
ACAD_ROUNDTRIP_2010_MLEADER_STYLE
  0
CELLSTYLEMAP
  5
DC
102
{ACAD_REACTORS
330
DB
102
}
330
DB
100
AcDbCellStyleMap
 90
        3
300
CELLSTYLE
  1
TABLEFORMAT_BEGIN
 90
        5
170
     1
 91
        0
 92
    32768
 62
   257
 93
        1
300
CONTENTFORMAT
  1
CONTENTFORMAT_BEGIN
 90
        0
 91
        0
 92
        4
 93
        0
300

 40
0.0
140
1.0
 94
        5
 62
     0
340
11
144
0.25
309
CONTENTFORMAT_END
171
     1
301
MARGIN
  1
CELLMARGIN_BEGIN
 40
0.06
 40
0.06
 40
0.06
 40
0.06
 40
0.06
 40
0.06
309
CELLMARGIN_END
 94
        6
 95
        1
302
GRIDFORMAT
  1
GRIDFORMAT_BEGIN
 90
        0
 91
        1
 62
     0
 92
       -2
340
14
 93
        0
 40
0.045
309
GRIDFORMAT_END
 95
        2
302
GRIDFORMAT
  1
GRIDFORMAT_BEGIN
 90
        0
 91
        1
 62
     0
 92
       -2
340
14
 93
        0
 40
0.045
309
GRIDFORMAT_END
 95
        4
302
GRIDFORMAT
  1
GRIDFORMAT_BEGIN
 90
        0
 91
        1
 62
     0
 92
       -2
340
14
 93
        0
 40
0.045
309
GRIDFORMAT_END
 95
        8
302
GRIDFORMAT
  1
GRIDFORMAT_BEGIN
 90
        0
 91
        1
 62
     0
 92
       -2
340
14
 93
        0
 40
0.045
309
GRIDFORMAT_END
 95
       16
302
GRIDFORMAT
  1
GRIDFORMAT_BEGIN
 90
        0
 91
        1
 62
     0
 92
       -2
340
14
 93
        0
 40
0.045
309
GRIDFORMAT_END
 95
       32
302
GRIDFORMAT
  1
GRIDFORMAT_BEGIN
 90
        0
 91
        1
 62
     0
 92
       -2
340
14
 93
        0
 40
0.045
309
GRIDFORMAT_END
309
TABLEFORMAT_END
  1
CELLSTYLE_BEGIN
 90
        1
 91
        1
300
_TITLE
309
CELLSTYLE_END
300
CELLSTYLE
  1
TABLEFORMAT_BEGIN
 90
        5
170
     1
 91
        0
 92
        0
 62
   257
 93
        1
300
CONTENTFORMAT
  1
CONTENTFORMAT_BEGIN
 90
        0
 91
        0
 92
        4
 93
        0
300

 40
0.0
140
1.0
 94
        5
 62
     0
340
11
144
0.18
309
CONTENTFORMAT_END
171
     1
301
MARGIN
  1
CELLMARGIN_BEGIN
 40
0.06
 40
0.06
 40
0.06
 40
0.06
 40
0.06
 40
0.06
309
CELLMARGIN_END
 94
        6
 95
        1
302
GRIDFORMAT
  1
GRIDFORMAT_BEGIN
 90
        0
 91
        1
 62
     0
 92
       -2
340
14
 93
        0
 40
0.045
309
GRIDFORMAT_END
 95
        2
302
GRIDFORMAT
  1
GRIDFORMAT_BEGIN
 90
        0
 91
        1
 62
     0
 92
       -2
340
14
 93
        0
 40
0.045
309
GRIDFORMAT_END
 95
        4
302
GRIDFORMAT
  1
GRIDFORMAT_BEGIN
 90
        0
 91
        1
 62
     0
 92
       -2
340
14
 93
        0
 40
0.045
309
GRIDFORMAT_END
 95
        8
302
GRIDFORMAT
  1
GRIDFORMAT_BEGIN
 90
        0
 91
        1
 62
     0
 92
       -2
340
14
 93
        0
 40
0.045
309
GRIDFORMAT_END
 95
       16
302
GRIDFORMAT
  1
GRIDFORMAT_BEGIN
 90
        0
 91
        1
 62
     0
 92
       -2
340
14
 93
        0
 40
0.045
309
GRIDFORMAT_END
 95
       32
302
GRIDFORMAT
  1
GRIDFORMAT_BEGIN
 90
        0
 91
        1
 62
     0
 92
       -2
340
14
 93
        0
 40
0.045
309
GRIDFORMAT_END
309
TABLEFORMAT_END
  1
CELLSTYLE_BEGIN
 90
        2
 91
        1
300
_HEADER
309
CELLSTYLE_END
300
CELLSTYLE
  1
TABLEFORMAT_BEGIN
 90
        5
170
     1
 91
        0
 92
        0
 62
   257
 93
        1
300
CONTENTFORMAT
  1
CONTENTFORMAT_BEGIN
 90
        0
 91
        0
 92
        4
 93
        0
300

 40
0.0
140
1.0
 94
        2
 62
     0
340
11
144
0.18
309
CONTENTFORMAT_END
171
     1
301
MARGIN
  1
CELLMARGIN_BEGIN
 40
0.06
 40
0.06
 40
0.06
 40
0.06
 40
0.06
 40
0.06
309
CELLMARGIN_END
 94
        6
 95
        1
302
GRIDFORMAT
  1
GRIDFORMAT_BEGIN
 90
        0
 91
        1
 62
     0
 92
       -2
340
14
 93
        0
 40
0.045
309
GRIDFORMAT_END
 95
        2
302
GRIDFORMAT
  1
GRIDFORMAT_BEGIN
 90
        0
 91
        1
 62
     0
 92
       -2
340
14
 93
        0
 40
0.045
309
GRIDFORMAT_END
 95
        4
302
GRIDFORMAT
  1
GRIDFORMAT_BEGIN
 90
        0
 91
        1
 62
     0
 92
       -2
340
14
 93
        0
 40
0.045
309
GRIDFORMAT_END
 95
        8
302
GRIDFORMAT
  1
GRIDFORMAT_BEGIN
 90
        0
 91
        1
 62
     0
 92
       -2
340
14
 93
        0
 40
0.045
309
GRIDFORMAT_END
 95
       16
302
GRIDFORMAT
  1
GRIDFORMAT_BEGIN
 90
        0
 91
        1
 62
     0
 92
       -2
340
14
 93
        0
 40
0.045
309
GRIDFORMAT_END
 95
       32
302
GRIDFORMAT
  1
GRIDFORMAT_BEGIN
 90
        0
 91
        1
 62
     0
 92
       -2
340
14
 93
        0
 40
0.045
309
GRIDFORMAT_END
309
TABLEFORMAT_END
  1
CELLSTYLE_BEGIN
 90
        3
 91
        2
300
_DATA
309
CELLSTYLE_END
  0
XRECORD
  5
B4
102
{ACAD_REACTORS
330
B3
102
}
330
B3
100
AcDbXrecord
280
     1
102
RTVSPropertyOp0
 70
     1
102
RTVSPropertyOp1
 70
     1
102
RTVSPropertyOp2
 70
     1
102
RTVSPropertyOp3
 70
     1
102
RTVSPropertyOp4
 70
     1
102
RTVSPropertyOp5
 70
     1
102
RTVSPropertyOp6
 70
     1
102
RTVSPropertyOp7
 70
     1
102
RTVSPropertyOp8
 70
     1
102
RTVSPropertyOp9
 70
     1
102
RTVSPropertyOp10
 70
     1
102
RTVSPropertyOp11
 70
     1
102
RTVSPropertyOp12
 70
     1
102
RTVSPropertyOp13
 70
     1
102
RTVSPropertyOp14
 70
     1
102
RTVSPropertyOp15
 70
     1
102
RTVSPropertyOp16
 70
     1
102
RTVSPropertyOp17
 70
     1
102
RTVSPropertyOp18
 70
     1
102
RTVSPropertyOp19
 70
     1
102
RTVSPropertyOp20
 70
     1
102
RTVSPropertyOp21
 70
     1
102
RTVSPropertyOp22
 70
     1
102
RTVSPropertyOp23
 70
     1
102
RTVSPropertyOp24
 70
     1
102
RTVSPropertyOp25
 70
     1
102
RTVSPropertyOp26
 70
     1
102
RTVSPropertyOp27
 70
     1
102
RTVSPropertyOp28
 70
     1
102
RTVSPropertyOp29
 70
     1
102
RTVSPropertyOp30
 70
     1
102
RTVSPropertyOp31
 70
     1
102
RTVSPropertyOp32
 70
     1
102
RTVSPropertyOp33
 70
     1
102
RTVSPropertyOp34
 70
     1
102
RTVSPropertyOp35
 70
     1
102
RTVSPropertyOp36
 70
     1
102
RTVSPropertyOp37
 70
     1
102
RTVSPropertyOp38
 70
     1
102
RTVSPropertyOp39
 70
     1
102
RTVSPropertyOp40
 70
     1
102
RTVSPropertyOp41
 70
     1
102
RTVSPropertyOp42
 70
     1
102
RTVSPropertyOp43
 70
     1
102
RTVSPropertyOp44
 70
     1
102
RTVSPropertyOp45
 70
     1
102
RTVSPropertyOp46
 70
     1
102
RTVSPropertyOp47
 70
     1
102
RTVSPropertyOp48
 70
     1
102
RTVSPropertyOp49
 70
     1
102
RTVSPropertyOp50
 70
     1
102
RTVSPropertyOp51
 70
     0
102
RTVSPropertyOp52
 70
     0
102
RTVSPropertyOp53
 70
     1
102
RTVSPropertyOp54
 70
     1
102
RTVSPropertyOp55
 70
     1
102
RTVSPropertyOp56
 70
     1
102
RTVSPropertyOp57
 70
     1
102
RTVSPost2010Prop28
280
     1
102
RTVSPost2010PropOp28
 70
     1
102
RTVSPost2010Prop29
280
     1
102
RTVSPost2010PropOp29
 70
     1
102
RTVSPost2010Prop30
280
     0
102
RTVSPost2010PropOp30
 70
     1
102
RTVSPost2010Prop31
280
     0
102
RTVSPost2010PropOp31
 70
     1
102
RTVSPost2010Prop32
280
     0
102
RTVSPost2010PropOp32
 70
     1
102
RTVSPost2010Prop33
280
     0
102
RTVSPost2010PropOp33
 70
     1
102
RTVSPost2010Prop34
280
     0
102
RTVSPost2010PropOp34
 70
     1
102
RTVSPost2010Prop35
280
     0
102
RTVSPost2010PropOp35
 70
     1
102
RTVSPost2010Prop36
280
     0
102
RTVSPost2010PropOp36
 70
     1
102
RTVSPost2010Prop37
 90
       50
102
RTVSPost2010PropOp37
 70
     1
102
RTVSPost2010Prop38
140
0.0
102
RTVSPost2010PropOp38
 70
     1
102
RTVSPost2010Prop39
140
1.0
102
RTVSPost2010PropOp39
 70
     1
102
RTVSPost2010Prop40
 90
        0
102
RTVSPost2010PropOp40
 70
     1
102
RTVSPost2010Prop41ColorIndex
 90
       18
102
RTVSPost2010Prop41ColorRGB
 90
        0
102
RTVSPost2010PropOp41
 70
     1
102
RTVSPost2010Prop42
 90
       50
102
RTVSPost2010PropOp42
 70
     1
102
RTVSPost2010Prop43
 90
        3
102
RTVSPost2010PropOp43
 70
     1
102
RTVSPost2010Prop44ColorIndex
 90
        5
102
RTVSPost2010Prop44ColorRGB
 90
      255
102
RTVSPost2010PropOp44
 70
     1
102
RTVSPost2010Prop45
280
     0
102
RTVSPost2010PropOp45
 70
     1
102
RTVSPost2010Prop46
 90
       50
102
RTVSPost2010PropOp46
 70
     1
102
RTVSPost2010Prop47
 90
       50
102
RTVSPost2010PropOp47
 70
     1
102
RTVSPost2010Prop48
 90
       50
102
RTVSPost2010PropOp48
 70
     1
102
RTVSPost2010Prop49
280
     0
102
RTVSPost2010PropOp49
 70
     1
102
RTVSPost2010Prop50
 90
       50
102
RTVSPost2010PropOp50
 70
     1
102
RTVSPost2010Prop51ColorIndex
 90
      256
102
RTVSPost2010Prop51ColorRGB
 90
-16777216
102
RTVSPost2010PropOp51
 70
     0
102
RTVSPost2010Prop52
140
1.0
102
RTVSPost2010PropOp52
 70
     0
102
RTVSPost2010Prop53
 90
        2
102
RTVSPost2010PropOp53
 70
     1
102
RTVSPost2010Prop54
  1
strokes_ogs.tif
102
RTVSPost2010PropOp54
 70
     1
102
RTVSPost2010Prop55
280
     0
102
RTVSPost2010PropOp55
 70
     1
102
RTVSPost2010Prop56
140
1.0
102
RTVSPost2010PropOp56
 70
     1
102
RTVSPost2010Prop57
140
1.0
102
RTVSPost2010PropOp57
 70
     1
  0
XRECORD
  5
BA
102
{ACAD_REACTORS
330
B9
102
}
330
B9
100
AcDbXrecord
280
     1
102
RTVSPropertyOp0
 70
     1
102
RTVSPropertyOp1
 70
     1
102
RTVSPropertyOp2
 70
     1
102
RTVSPropertyOp3
 70
     1
102
RTVSPropertyOp4
 70
     1
102
RTVSPropertyOp5
 70
     1
102
RTVSPropertyOp6
 70
     1
102
RTVSPropertyOp7
 70
     1
102
RTVSPropertyOp8
 70
     1
102
RTVSPropertyOp9
 70
     1
102
RTVSPropertyOp10
 70
     1
102
RTVSPropertyOp11
 70
     1
102
RTVSPropertyOp12
 70
     1
102
RTVSPropertyOp13
 70
     1
102
RTVSPropertyOp14
 70
     1
102
RTVSPropertyOp15
 70
     1
102
RTVSPropertyOp16
 70
     1
102
RTVSPropertyOp17
 70
     1
102
RTVSPropertyOp18
 70
     1
102
RTVSPropertyOp19
 70
     1
102
RTVSPropertyOp20
 70
     1
102
RTVSPropertyOp21
 70
     1
102
RTVSPropertyOp22
 70
     1
102
RTVSPropertyOp23
 70
     1
102
RTVSPropertyOp24
 70
     1
102
RTVSPropertyOp25
 70
     1
102
RTVSPropertyOp26
 70
     1
102
RTVSPropertyOp27
 70
     1
102
RTVSPropertyOp28
 70
     1
102
RTVSPropertyOp29
 70
     1
102
RTVSPropertyOp30
 70
     1
102
RTVSPropertyOp31
 70
     1
102
RTVSPropertyOp32
 70
     1
102
RTVSPropertyOp33
 70
     1
102
RTVSPropertyOp34
 70
     1
102
RTVSPropertyOp35
 70
     1
102
RTVSPropertyOp36
 70
     1
102
RTVSPropertyOp37
 70
     1
102
RTVSPropertyOp38
 70
     1
102
RTVSPropertyOp39
 70
     1
102
RTVSPropertyOp40
 70
     1
102
RTVSPropertyOp41
 70
     1
102
RTVSPropertyOp42
 70
     1
102
RTVSPropertyOp43
 70
     1
102
RTVSPropertyOp44
 70
     1
102
RTVSPropertyOp45
 70
     1
102
RTVSPropertyOp46
 70
     1
102
RTVSPropertyOp47
 70
     1
102
RTVSPropertyOp48
 70
     1
102
RTVSPropertyOp49
 70
     1
102
RTVSPropertyOp50
 70
     1
102
RTVSPropertyOp51
 70
     0
102
RTVSPropertyOp52
 70
     0
102
RTVSPropertyOp53
 70
     1
102
RTVSPropertyOp54
 70
     1
102
RTVSPropertyOp55
 70
     1
102
RTVSPropertyOp56
 70
     1
102
RTVSPropertyOp57
 70
     1
102
RTVSPost2010Prop28
280
     0
102
RTVSPost2010PropOp28
 70
     1
102
RTVSPost2010Prop29
280
     1
102
RTVSPost2010PropOp29
 70
     1
102
RTVSPost2010Prop30
280
     1
102
RTVSPost2010PropOp30
 70
     1
102
RTVSPost2010Prop31
280
     0
102
RTVSPost2010PropOp31
 70
     1
102
RTVSPost2010Prop32
280
     0
102
RTVSPost2010PropOp32
 70
     1
102
RTVSPost2010Prop33
280
     0
102
RTVSPost2010PropOp33
 70
     1
102
RTVSPost2010Prop34
280
     0
102
RTVSPost2010PropOp34
 70
     1
102
RTVSPost2010Prop35
280
     0
102
RTVSPost2010PropOp35
 70
     1
102
RTVSPost2010Prop36
280
     0
102
RTVSPost2010PropOp36
 70
     1
102
RTVSPost2010Prop37
 90
       50
102
RTVSPost2010PropOp37
 70
     1
102
RTVSPost2010Prop38
140
0.0
102
RTVSPost2010PropOp38
 70
     1
102
RTVSPost2010Prop39
140
1.0
102
RTVSPost2010PropOp39
 70
     1
102
RTVSPost2010Prop40
 90
        0
102
RTVSPost2010PropOp40
 70
     1
102
RTVSPost2010Prop41ColorIndex
 90
       18
102
RTVSPost2010Prop41ColorRGB
 90
        0
102
RTVSPost2010PropOp41
 70
     1
102
RTVSPost2010Prop42
 90
       50
102
RTVSPost2010PropOp42
 70
     1
102
RTVSPost2010Prop43
 90
        3
102
RTVSPost2010PropOp43
 70
     1
102
RTVSPost2010Prop44ColorIndex
 90
        5
102
RTVSPost2010Prop44ColorRGB
 90
      255
102
RTVSPost2010PropOp44
 70
     1
102
RTVSPost2010Prop45
280
     0
102
RTVSPost2010PropOp45
 70
     1
102
RTVSPost2010Prop46
 90
       50
102
RTVSPost2010PropOp46
 70
     1
102
RTVSPost2010Prop47
 90
       50
102
RTVSPost2010PropOp47
 70
     1
102
RTVSPost2010Prop48
 90
       50
102
RTVSPost2010PropOp48
 70
     1
102
RTVSPost2010Prop49
280
     0
102
RTVSPost2010PropOp49
 70
     1
102
RTVSPost2010Prop50
 90
       50
102
RTVSPost2010PropOp50
 70
     1
102
RTVSPost2010Prop51ColorIndex
 90
      256
102
RTVSPost2010Prop51ColorRGB
 90
-16777216
102
RTVSPost2010PropOp51
 70
     0
102
RTVSPost2010Prop52
140
1.0
102
RTVSPost2010PropOp52
 70
     0
102
RTVSPost2010Prop53
 90
        2
102
RTVSPost2010PropOp53
 70
     1
102
RTVSPost2010Prop54
  1
strokes_ogs.tif
102
RTVSPost2010PropOp54
 70
     1
102
RTVSPost2010Prop55
280
     0
102
RTVSPost2010PropOp55
 70
     1
102
RTVSPost2010Prop56
140
1.0
102
RTVSPost2010PropOp56
 70
     1
102
RTVSPost2010Prop57
140
1.0
102
RTVSPost2010PropOp57
 70
     1
  0
XRECORD
  5
C2
102
{ACAD_REACTORS
330
C1
102
}
330
C1
100
AcDbXrecord
280
     1
102
RTVSPropertyOp0
 70
     1
102
RTVSPropertyOp1
 70
     1
102
RTVSPropertyOp2
 70
     1
102
RTVSPropertyOp3
 70
     1
102
RTVSPropertyOp4
 70
     1
102
RTVSPropertyOp5
 70
     1
102
RTVSPropertyOp6
 70
     1
102
RTVSPropertyOp7
 70
     1
102
RTVSPropertyOp8
 70
     1
102
RTVSPropertyOp9
 70
     1
102
RTVSPropertyOp10
 70
     1
102
RTVSPropertyOp11
 70
     1
102
RTVSPropertyOp12
 70
     1
102
RTVSPropertyOp13
 70
     1
102
RTVSPropertyOp14
 70
     1
102
RTVSPropertyOp15
 70
     1
102
RTVSPropertyOp16
 70
     1
102
RTVSPropertyOp17
 70
     1
102
RTVSPropertyOp18
 70
     1
102
RTVSPropertyOp19
 70
     1
102
RTVSPropertyOp20
 70
     1
102
RTVSPropertyOp21
 70
     1
102
RTVSPropertyOp22
 70
     1
102
RTVSPropertyOp23
 70
     1
102
RTVSPropertyOp24
 70
     1
102
RTVSPropertyOp25
 70
     1
102
RTVSPropertyOp26
 70
     1
102
RTVSPropertyOp27
 70
     1
102
RTVSPropertyOp28
 70
     1
102
RTVSPropertyOp29
 70
     1
102
RTVSPropertyOp30
 70
     1
102
RTVSPropertyOp31
 70
     1
102
RTVSPropertyOp32
 70
     1
102
RTVSPropertyOp33
 70
     1
102
RTVSPropertyOp34
 70
     1
102
RTVSPropertyOp35
 70
     1
102
RTVSPropertyOp36
 70
     1
102
RTVSPropertyOp37
 70
     1
102
RTVSPropertyOp38
 70
     1
102
RTVSPropertyOp39
 70
     1
102
RTVSPropertyOp40
 70
     1
102
RTVSPropertyOp41
 70
     1
102
RTVSPropertyOp42
 70
     1
102
RTVSPropertyOp43
 70
     1
102
RTVSPropertyOp44
 70
     1
102
RTVSPropertyOp45
 70
     1
102
RTVSPropertyOp46
 70
     1
102
RTVSPropertyOp47
 70
     1
102
RTVSPropertyOp48
 70
     1
102
RTVSPropertyOp49
 70
     1
102
RTVSPropertyOp50
 70
     1
102
RTVSPropertyOp51
 70
     0
102
RTVSPropertyOp52
 70
     0
102
RTVSPropertyOp53
 70
     1
102
RTVSPropertyOp54
 70
     1
102
RTVSPropertyOp55
 70
     1
102
RTVSPropertyOp56
 70
     1
102
RTVSPropertyOp57
 70
     1
102
RTVSPost2010Prop28
280
     0
102
RTVSPost2010PropOp28
 70
     1
102
RTVSPost2010Prop29
280
     1
102
RTVSPost2010PropOp29
 70
     1
102
RTVSPost2010Prop30
280
     1
102
RTVSPost2010PropOp30
 70
     1
102
RTVSPost2010Prop31
280
     0
102
RTVSPost2010PropOp31
 70
     1
102
RTVSPost2010Prop32
280
     0
102
RTVSPost2010PropOp32
 70
     1
102
RTVSPost2010Prop33
280
     0
102
RTVSPost2010PropOp33
 70
     1
102
RTVSPost2010Prop34
280
     0
102
RTVSPost2010PropOp34
 70
     1
102
RTVSPost2010Prop35
280
     0
102
RTVSPost2010PropOp35
 70
     1
102
RTVSPost2010Prop36
280
     0
102
RTVSPost2010PropOp36
 70
     1
102
RTVSPost2010Prop37
 90
       50
102
RTVSPost2010PropOp37
 70
     1
102
RTVSPost2010Prop38
140
0.0
102
RTVSPost2010PropOp38
 70
     1
102
RTVSPost2010Prop39
140
1.0
102
RTVSPost2010PropOp39
 70
     1
102
RTVSPost2010Prop40
 90
        0
102
RTVSPost2010PropOp40
 70
     1
102
RTVSPost2010Prop41ColorIndex
 90
       18
102
RTVSPost2010Prop41ColorRGB
 90
        0
102
RTVSPost2010PropOp41
 70
     1
102
RTVSPost2010Prop42
 90
       50
102
RTVSPost2010PropOp42
 70
     1
102
RTVSPost2010Prop43
 90
        3
102
RTVSPost2010PropOp43
 70
     1
102
RTVSPost2010Prop44ColorIndex
 90
        5
102
RTVSPost2010Prop44ColorRGB
 90
      255
102
RTVSPost2010PropOp44
 70
     1
102
RTVSPost2010Prop45
280
     0
102
RTVSPost2010PropOp45
 70
     1
102
RTVSPost2010Prop46
 90
       50
102
RTVSPost2010PropOp46
 70
     1
102
RTVSPost2010Prop47
 90
       50
102
RTVSPost2010PropOp47
 70
     1
102
RTVSPost2010Prop48
 90
       50
102
RTVSPost2010PropOp48
 70
     1
102
RTVSPost2010Prop49
280
     0
102
RTVSPost2010PropOp49
 70
     1
102
RTVSPost2010Prop50
 90
       50
102
RTVSPost2010PropOp50
 70
     1
102
RTVSPost2010Prop51ColorIndex
 90
      256
102
RTVSPost2010Prop51ColorRGB
 90
-16777216
102
RTVSPost2010PropOp51
 70
     0
102
RTVSPost2010Prop52
140
1.0
102
RTVSPost2010PropOp52
 70
     0
102
RTVSPost2010Prop53
 90
        2
102
RTVSPost2010PropOp53
 70
     1
102
RTVSPost2010Prop54
  1
strokes_ogs.tif
102
RTVSPost2010PropOp54
 70
     1
102
RTVSPost2010Prop55
280
     0
102
RTVSPost2010PropOp55
 70
     1
102
RTVSPost2010Prop56
140
1.0
102
RTVSPost2010PropOp56
 70
     1
102
RTVSPost2010Prop57
140
1.0
102
RTVSPost2010PropOp57
 70
     1
  0
XRECORD
  5
CA
102
{ACAD_REACTORS
330
C9
102
}
330
C9
100
AcDbXrecord
280
     1
102
RTVSPropertyOp0
 70
     1
102
RTVSPropertyOp1
 70
     1
102
RTVSPropertyOp2
 70
     1
102
RTVSPropertyOp3
 70
     1
102
RTVSPropertyOp4
 70
     1
102
RTVSPropertyOp5
 70
     1
102
RTVSPropertyOp6
 70
     1
102
RTVSPropertyOp7
 70
     1
102
RTVSPropertyOp8
 70
     1
102
RTVSPropertyOp9
 70
     1
102
RTVSPropertyOp10
 70
     1
102
RTVSPropertyOp11
 70
     1
102
RTVSPropertyOp12
 70
     1
102
RTVSPropertyOp13
 70
     1
102
RTVSPropertyOp14
 70
     1
102
RTVSPropertyOp15
 70
     1
102
RTVSPropertyOp16
 70
     1
102
RTVSPropertyOp17
 70
     1
102
RTVSPropertyOp18
 70
     1
102
RTVSPropertyOp19
 70
     1
102
RTVSPropertyOp20
 70
     1
102
RTVSPropertyOp21
 70
     1
102
RTVSPropertyOp22
 70
     1
102
RTVSPropertyOp23
 70
     1
102
RTVSPropertyOp24
 70
     1
102
RTVSPropertyOp25
 70
     1
102
RTVSPropertyOp26
 70
     1
102
RTVSPropertyOp27
 70
     1
102
RTVSPropertyOp28
 70
     1
102
RTVSPropertyOp29
 70
     1
102
RTVSPropertyOp30
 70
     1
102
RTVSPropertyOp31
 70
     1
102
RTVSPropertyOp32
 70
     1
102
RTVSPropertyOp33
 70
     1
102
RTVSPropertyOp34
 70
     1
102
RTVSPropertyOp35
 70
     1
102
RTVSPropertyOp36
 70
     1
102
RTVSPropertyOp37
 70
     1
102
RTVSPropertyOp38
 70
     1
102
RTVSPropertyOp39
 70
     1
102
RTVSPropertyOp40
 70
     1
102
RTVSPropertyOp41
 70
     1
102
RTVSPropertyOp42
 70
     1
102
RTVSPropertyOp43
 70
     1
102
RTVSPropertyOp44
 70
     1
102
RTVSPropertyOp45
 70
     1
102
RTVSPropertyOp46
 70
     1
102
RTVSPropertyOp47
 70
     1
102
RTVSPropertyOp48
 70
     1
102
RTVSPropertyOp49
 70
     1
102
RTVSPropertyOp50
 70
     1
102
RTVSPropertyOp51
 70
     0
102
RTVSPropertyOp52
 70
     0
102
RTVSPropertyOp53
 70
     1
102
RTVSPropertyOp54
 70
     1
102
RTVSPropertyOp55
 70
     1
102
RTVSPropertyOp56
 70
     1
102
RTVSPropertyOp57
 70
     1
102
RTVSPost2010Prop28
280
     0
102
RTVSPost2010PropOp28
 70
     1
102
RTVSPost2010Prop29
280
     1
102
RTVSPost2010PropOp29
 70
     1
102
RTVSPost2010Prop30
280
     1
102
RTVSPost2010PropOp30
 70
     1
102
RTVSPost2010Prop31
280
     0
102
RTVSPost2010PropOp31
 70
     1
102
RTVSPost2010Prop32
280
     0
102
RTVSPost2010PropOp32
 70
     1
102
RTVSPost2010Prop33
280
     0
102
RTVSPost2010PropOp33
 70
     1
102
RTVSPost2010Prop34
280
     0
102
RTVSPost2010PropOp34
 70
     1
102
RTVSPost2010Prop35
280
     0
102
RTVSPost2010PropOp35
 70
     1
102
RTVSPost2010Prop36
280
     0
102
RTVSPost2010PropOp36
 70
     1
102
RTVSPost2010Prop37
 90
       50
102
RTVSPost2010PropOp37
 70
     1
102
RTVSPost2010Prop38
140
0.0
102
RTVSPost2010PropOp38
 70
     1
102
RTVSPost2010Prop39
140
1.0
102
RTVSPost2010PropOp39
 70
     1
102
RTVSPost2010Prop40
 90
        0
102
RTVSPost2010PropOp40
 70
     1
102
RTVSPost2010Prop41ColorIndex
 90
       18
102
RTVSPost2010Prop41ColorRGB
 90
        0
102
RTVSPost2010PropOp41
 70
     1
102
RTVSPost2010Prop42
 90
       50
102
RTVSPost2010PropOp42
 70
     1
102
RTVSPost2010Prop43
 90
        3
102
RTVSPost2010PropOp43
 70
     1
102
RTVSPost2010Prop44ColorIndex
 90
        5
102
RTVSPost2010Prop44ColorRGB
 90
      255
102
RTVSPost2010PropOp44
 70
     1
102
RTVSPost2010Prop45
280
     0
102
RTVSPost2010PropOp45
 70
     1
102
RTVSPost2010Prop46
 90
       50
102
RTVSPost2010PropOp46
 70
     1
102
RTVSPost2010Prop47
 90
       50
102
RTVSPost2010PropOp47
 70
     1
102
RTVSPost2010Prop48
 90
       50
102
RTVSPost2010PropOp48
 70
     1
102
RTVSPost2010Prop49
280
     0
102
RTVSPost2010PropOp49
 70
     1
102
RTVSPost2010Prop50
 90
       50
102
RTVSPost2010PropOp50
 70
     1
102
RTVSPost2010Prop51ColorIndex
 90
      256
102
RTVSPost2010Prop51ColorRGB
 90
-16777216
102
RTVSPost2010PropOp51
 70
     0
102
RTVSPost2010Prop52
140
1.0
102
RTVSPost2010PropOp52
 70
     0
102
RTVSPost2010Prop53
 90
        2
102
RTVSPost2010PropOp53
 70
     1
102
RTVSPost2010Prop54
  1
strokes_ogs.tif
102
RTVSPost2010PropOp54
 70
     1
102
RTVSPost2010Prop55
280
     0
102
RTVSPost2010PropOp55
 70
     1
102
RTVSPost2010Prop56
140
1.0
102
RTVSPost2010PropOp56
 70
     1
102
RTVSPost2010Prop57
140
1.0
102
RTVSPost2010PropOp57
 70
     1
  0
XRECORD
  5
BE
102
{ACAD_REACTORS
330
BD
102
}
330
BD
100
AcDbXrecord
280
     1
102
RTVSPropertyOp0
 70
     1
102
RTVSPropertyOp1
 70
     1
102
RTVSPropertyOp2
 70
     1
102
RTVSPropertyOp3
 70
     1
102
RTVSPropertyOp4
 70
     1
102
RTVSPropertyOp5
 70
     1
102
RTVSPropertyOp6
 70
     1
102
RTVSPropertyOp7
 70
     1
102
RTVSPropertyOp8
 70
     1
102
RTVSPropertyOp9
 70
     1
102
RTVSPropertyOp10
 70
     1
102
RTVSPropertyOp11
 70
     1
102
RTVSPropertyOp12
 70
     1
102
RTVSPropertyOp13
 70
     1
102
RTVSPropertyOp14
 70
     1
102
RTVSPropertyOp15
 70
     1
102
RTVSPropertyOp16
 70
     1
102
RTVSPropertyOp17
 70
     1
102
RTVSPropertyOp18
 70
     1
102
RTVSPropertyOp19
 70
     1
102
RTVSPropertyOp20
 70
     1
102
RTVSPropertyOp21
 70
     1
102
RTVSPropertyOp22
 70
     1
102
RTVSPropertyOp23
 70
     1
102
RTVSPropertyOp24
 70
     1
102
RTVSPropertyOp25
 70
     1
102
RTVSPropertyOp26
 70
     1
102
RTVSPropertyOp27
 70
     1
102
RTVSPropertyOp28
 70
     1
102
RTVSPropertyOp29
 70
     1
102
RTVSPropertyOp30
 70
     1
102
RTVSPropertyOp31
 70
     1
102
RTVSPropertyOp32
 70
     1
102
RTVSPropertyOp33
 70
     1
102
RTVSPropertyOp34
 70
     1
102
RTVSPropertyOp35
 70
     1
102
RTVSPropertyOp36
 70
     1
102
RTVSPropertyOp37
 70
     1
102
RTVSPropertyOp38
 70
     1
102
RTVSPropertyOp39
 70
     1
102
RTVSPropertyOp40
 70
     1
102
RTVSPropertyOp41
 70
     1
102
RTVSPropertyOp42
 70
     1
102
RTVSPropertyOp43
 70
     1
102
RTVSPropertyOp44
 70
     1
102
RTVSPropertyOp45
 70
     1
102
RTVSPropertyOp46
 70
     1
102
RTVSPropertyOp47
 70
     1
102
RTVSPropertyOp48
 70
     1
102
RTVSPropertyOp49
 70
     1
102
RTVSPropertyOp50
 70
     1
102
RTVSPropertyOp51
 70
     0
102
RTVSPropertyOp52
 70
     0
102
RTVSPropertyOp53
 70
     1
102
RTVSPropertyOp54
 70
     1
102
RTVSPropertyOp55
 70
     1
102
RTVSPropertyOp56
 70
     1
102
RTVSPropertyOp57
 70
     1
102
RTVSPost2010Prop28
280
     0
102
RTVSPost2010PropOp28
 70
     1
102
RTVSPost2010Prop29
280
     1
102
RTVSPost2010PropOp29
 70
     1
102
RTVSPost2010Prop30
280
     1
102
RTVSPost2010PropOp30
 70
     1
102
RTVSPost2010Prop31
280
     0
102
RTVSPost2010PropOp31
 70
     1
102
RTVSPost2010Prop32
280
     0
102
RTVSPost2010PropOp32
 70
     1
102
RTVSPost2010Prop33
280
     0
102
RTVSPost2010PropOp33
 70
     1
102
RTVSPost2010Prop34
280
     0
102
RTVSPost2010PropOp34
 70
     1
102
RTVSPost2010Prop35
280
     0
102
RTVSPost2010PropOp35
 70
     1
102
RTVSPost2010Prop36
280
     0
102
RTVSPost2010PropOp36
 70
     1
102
RTVSPost2010Prop37
 90
       50
102
RTVSPost2010PropOp37
 70
     1
102
RTVSPost2010Prop38
140
0.0
102
RTVSPost2010PropOp38
 70
     1
102
RTVSPost2010Prop39
140
1.0
102
RTVSPost2010PropOp39
 70
     1
102
RTVSPost2010Prop40
 90
        0
102
RTVSPost2010PropOp40
 70
     1
102
RTVSPost2010Prop41ColorIndex
 90
       18
102
RTVSPost2010Prop41ColorRGB
 90
        0
102
RTVSPost2010PropOp41
 70
     1
102
RTVSPost2010Prop42
 90
       50
102
RTVSPost2010PropOp42
 70
     1
102
RTVSPost2010Prop43
 90
        3
102
RTVSPost2010PropOp43
 70
     1
102
RTVSPost2010Prop44ColorIndex
 90
        5
102
RTVSPost2010Prop44ColorRGB
 90
      255
102
RTVSPost2010PropOp44
 70
     1
102
RTVSPost2010Prop45
280
     0
102
RTVSPost2010PropOp45
 70
     1
102
RTVSPost2010Prop46
 90
       50
102
RTVSPost2010PropOp46
 70
     1
102
RTVSPost2010Prop47
 90
       50
102
RTVSPost2010PropOp47
 70
     1
102
RTVSPost2010Prop48
 90
       50
102
RTVSPost2010PropOp48
 70
     1
102
RTVSPost2010Prop49
280
     0
102
RTVSPost2010PropOp49
 70
     1
102
RTVSPost2010Prop50
 90
       50
102
RTVSPost2010PropOp50
 70
     1
102
RTVSPost2010Prop51ColorIndex
 90
      256
102
RTVSPost2010Prop51ColorRGB
 90
-16777216
102
RTVSPost2010PropOp51
 70
     0
102
RTVSPost2010Prop52
140
1.0
102
RTVSPost2010PropOp52
 70
     0
102
RTVSPost2010Prop53
 90
        2
102
RTVSPost2010PropOp53
 70
     1
102
RTVSPost2010Prop54
  1
strokes_ogs.tif
102
RTVSPost2010PropOp54
 70
     1
102
RTVSPost2010Prop55
280
     0
102
RTVSPost2010PropOp55
 70
     1
102
RTVSPost2010Prop56
140
1.0
102
RTVSPost2010PropOp56
 70
     1
102
RTVSPost2010Prop57
140
1.0
102
RTVSPost2010PropOp57
 70
     1
  0
XRECORD
  5
C0
102
{ACAD_REACTORS
330
BF
102
}
330
BF
100
AcDbXrecord
280
     1
102
RTVSPropertyOp0
 70
     1
102
RTVSPropertyOp1
 70
     1
102
RTVSPropertyOp2
 70
     1
102
RTVSPropertyOp3
 70
     1
102
RTVSPropertyOp4
 70
     1
102
RTVSPropertyOp5
 70
     1
102
RTVSPropertyOp6
 70
     1
102
RTVSPropertyOp7
 70
     1
102
RTVSPropertyOp8
 70
     1
102
RTVSPropertyOp9
 70
     1
102
RTVSPropertyOp10
 70
     1
102
RTVSPropertyOp11
 70
     1
102
RTVSPropertyOp12
 70
     1
102
RTVSPropertyOp13
 70
     1
102
RTVSPropertyOp14
 70
     1
102
RTVSPropertyOp15
 70
     1
102
RTVSPropertyOp16
 70
     1
102
RTVSPropertyOp17
 70
     1
102
RTVSPropertyOp18
 70
     1
102
RTVSPropertyOp19
 70
     1
102
RTVSPropertyOp20
 70
     1
102
RTVSPropertyOp21
 70
     1
102
RTVSPropertyOp22
 70
     1
102
RTVSPropertyOp23
 70
     1
102
RTVSPropertyOp24
 70
     1
102
RTVSPropertyOp25
 70
     1
102
RTVSPropertyOp26
 70
     1
102
RTVSPropertyOp27
 70
     1
102
RTVSPropertyOp28
 70
     1
102
RTVSPropertyOp29
 70
     1
102
RTVSPropertyOp30
 70
     1
102
RTVSPropertyOp31
 70
     1
102
RTVSPropertyOp32
 70
     1
102
RTVSPropertyOp33
 70
     1
102
RTVSPropertyOp34
 70
     1
102
RTVSPropertyOp35
 70
     1
102
RTVSPropertyOp36
 70
     1
102
RTVSPropertyOp37
 70
     1
102
RTVSPropertyOp38
 70
     1
102
RTVSPropertyOp39
 70
     1
102
RTVSPropertyOp40
 70
     1
102
RTVSPropertyOp41
 70
     1
102
RTVSPropertyOp42
 70
     1
102
RTVSPropertyOp43
 70
     1
102
RTVSPropertyOp44
 70
     1
102
RTVSPropertyOp45
 70
     1
102
RTVSPropertyOp46
 70
     1
102
RTVSPropertyOp47
 70
     1
102
RTVSPropertyOp48
 70
     1
102
RTVSPropertyOp49
 70
     1
102
RTVSPropertyOp50
 70
     1
102
RTVSPropertyOp51
 70
     0
102
RTVSPropertyOp52
 70
     0
102
RTVSPropertyOp53
 70
     1
102
RTVSPropertyOp54
 70
     1
102
RTVSPropertyOp55
 70
     1
102
RTVSPropertyOp56
 70
     1
102
RTVSPropertyOp57
 70
     1
102
RTVSPost2010Prop28
280
     0
102
RTVSPost2010PropOp28
 70
     1
102
RTVSPost2010Prop29
280
     1
102
RTVSPost2010PropOp29
 70
     1
102
RTVSPost2010Prop30
280
     1
102
RTVSPost2010PropOp30
 70
     1
102
RTVSPost2010Prop31
280
     0
102
RTVSPost2010PropOp31
 70
     1
102
RTVSPost2010Prop32
280
     0
102
RTVSPost2010PropOp32
 70
     1
102
RTVSPost2010Prop33
280
     0
102
RTVSPost2010PropOp33
 70
     1
102
RTVSPost2010Prop34
280
     0
102
RTVSPost2010PropOp34
 70
     1
102
RTVSPost2010Prop35
280
     0
102
RTVSPost2010PropOp35
 70
     1
102
RTVSPost2010Prop36
280
     0
102
RTVSPost2010PropOp36
 70
     1
102
RTVSPost2010Prop37
 90
       50
102
RTVSPost2010PropOp37
 70
     1
102
RTVSPost2010Prop38
140
0.0
102
RTVSPost2010PropOp38
 70
     1
102
RTVSPost2010Prop39
140
1.0
102
RTVSPost2010PropOp39
 70
     1
102
RTVSPost2010Prop40
 90
        0
102
RTVSPost2010PropOp40
 70
     1
102
RTVSPost2010Prop41ColorIndex
 90
       18
102
RTVSPost2010Prop41ColorRGB
 90
        0
102
RTVSPost2010PropOp41
 70
     1
102
RTVSPost2010Prop42
 90
       50
102
RTVSPost2010PropOp42
 70
     1
102
RTVSPost2010Prop43
 90
        3
102
RTVSPost2010PropOp43
 70
     1
102
RTVSPost2010Prop44ColorIndex
 90
        5
102
RTVSPost2010Prop44ColorRGB
 90
      255
102
RTVSPost2010PropOp44
 70
     1
102
RTVSPost2010Prop45
280
     0
102
RTVSPost2010PropOp45
 70
     1
102
RTVSPost2010Prop46
 90
       50
102
RTVSPost2010PropOp46
 70
     1
102
RTVSPost2010Prop47
 90
       50
102
RTVSPost2010PropOp47
 70
     1
102
RTVSPost2010Prop48
 90
       50
102
RTVSPost2010PropOp48
 70
     1
102
RTVSPost2010Prop49
280
     0
102
RTVSPost2010PropOp49
 70
     1
102
RTVSPost2010Prop50
 90
       50
102
RTVSPost2010PropOp50
 70
     1
102
RTVSPost2010Prop51ColorIndex
 90
      256
102
RTVSPost2010Prop51ColorRGB
 90
-16777216
102
RTVSPost2010PropOp51
 70
     0
102
RTVSPost2010Prop52
140
1.0
102
RTVSPost2010PropOp52
 70
     0
102
RTVSPost2010Prop53
 90
        2
102
RTVSPost2010PropOp53
 70
     1
102
RTVSPost2010Prop54
  1
strokes_ogs.tif
102
RTVSPost2010PropOp54
 70
     1
102
RTVSPost2010Prop55
280
     0
102
RTVSPost2010PropOp55
 70
     1
102
RTVSPost2010Prop56
140
1.0
102
RTVSPost2010PropOp56
 70
     1
102
RTVSPost2010Prop57
140
1.0
102
RTVSPost2010PropOp57
 70
     1
  0
XRECORD
  5
D0
102
{ACAD_REACTORS
330
CF
102
}
330
CF
100
AcDbXrecord
280
     1
102
RTVSPropertyOp0
 70
     0
102
RTVSPropertyOp1
 70
     0
102
RTVSPropertyOp2
 70
     0
102
RTVSPropertyOp3
 70
     0
102
RTVSPropertyOp4
 70
     0
102
RTVSPropertyOp5
 70
     0
102
RTVSPropertyOp6
 70
     0
102
RTVSPropertyOp7
 70
     0
102
RTVSPropertyOp8
 70
     0
102
RTVSPropertyOp9
 70
     0
102
RTVSPropertyOp10
 70
     0
102
RTVSPropertyOp11
 70
     0
102
RTVSPropertyOp12
 70
     0
102
RTVSPropertyOp13
 70
     0
102
RTVSPropertyOp14
 70
     2
102
RTVSPropertyOp15
 70
     0
102
RTVSPropertyOp16
 70
     0
102
RTVSPropertyOp17
 70
     0
102
RTVSPropertyOp18
 70
     0
102
RTVSPropertyOp19
 70
     0
102
RTVSPropertyOp20
 70
     0
102
RTVSPropertyOp21
 70
     0
102
RTVSPropertyOp22
 70
     0
102
RTVSPropertyOp23
 70
     0
102
RTVSPropertyOp24
 70
     0
102
RTVSPropertyOp25
 70
     0
102
RTVSPropertyOp26
 70
     0
102
RTVSPropertyOp27
 70
     0
102
RTVSPropertyOp28
 70
     0
102
RTVSPropertyOp29
 70
     0
102
RTVSPropertyOp30
 70
     0
102
RTVSPropertyOp31
 70
     0
102
RTVSPropertyOp32
 70
     0
102
RTVSPropertyOp33
 70
     0
102
RTVSPropertyOp34
 70
     0
102
RTVSPropertyOp35
 70
     0
102
RTVSPropertyOp36
 70
     0
102
RTVSPropertyOp37
 70
     0
102
RTVSPropertyOp38
 70
     0
102
RTVSPropertyOp39
 70
     0
102
RTVSPropertyOp40
 70
     0
102
RTVSPropertyOp41
 70
     0
102
RTVSPropertyOp42
 70
     0
102
RTVSPropertyOp43
 70
     0
102
RTVSPropertyOp44
 70
     0
102
RTVSPropertyOp45
 70
     0
102
RTVSPropertyOp46
 70
     0
102
RTVSPropertyOp47
 70
     0
102
RTVSPropertyOp48
 70
     0
102
RTVSPropertyOp49
 70
     0
102
RTVSPropertyOp50
 70
     0
102
RTVSPropertyOp51
 70
     0
102
RTVSPropertyOp52
 70
     0
102
RTVSPropertyOp53
 70
     0
102
RTVSPropertyOp54
 70
     0
102
RTVSPropertyOp55
 70
     0
102
RTVSPropertyOp56
 70
     0
102
RTVSPropertyOp57
 70
     0
102
RTVSPost2010Prop28
280
     0
102
RTVSPost2010PropOp28
 70
     0
102
RTVSPost2010Prop29
280
     1
102
RTVSPost2010PropOp29
 70
     0
102
RTVSPost2010Prop30
280
     1
102
RTVSPost2010PropOp30
 70
     0
102
RTVSPost2010Prop31
280
     0
102
RTVSPost2010PropOp31
 70
     0
102
RTVSPost2010Prop32
280
     0
102
RTVSPost2010PropOp32
 70
     0
102
RTVSPost2010Prop33
280
     0
102
RTVSPost2010PropOp33
 70
     0
102
RTVSPost2010Prop34
280
     0
102
RTVSPost2010PropOp34
 70
     0
102
RTVSPost2010Prop35
280
     0
102
RTVSPost2010PropOp35
 70
     0
102
RTVSPost2010Prop36
280
     0
102
RTVSPost2010PropOp36
 70
     0
102
RTVSPost2010Prop37
 90
       50
102
RTVSPost2010PropOp37
 70
     0
102
RTVSPost2010Prop38
140
0.0
102
RTVSPost2010PropOp38
 70
     0
102
RTVSPost2010Prop39
140
1.0
102
RTVSPost2010PropOp39
 70
     0
102
RTVSPost2010Prop40
 90
        0
102
RTVSPost2010PropOp40
 70
     0
102
RTVSPost2010Prop41ColorIndex
 90
       18
102
RTVSPost2010Prop41ColorRGB
 90
        0
102
RTVSPost2010PropOp41
 70
     0
102
RTVSPost2010Prop42
 90
       50
102
RTVSPost2010PropOp42
 70
     0
102
RTVSPost2010Prop43
 90
        3
102
RTVSPost2010PropOp43
 70
     0
102
RTVSPost2010Prop44ColorIndex
 90
        5
102
RTVSPost2010Prop44ColorRGB
 90
      255
102
RTVSPost2010PropOp44
 70
     0
102
RTVSPost2010Prop45
280
     0
102
RTVSPost2010PropOp45
 70
     0
102
RTVSPost2010Prop46
 90
       50
102
RTVSPost2010PropOp46
 70
     0
102
RTVSPost2010Prop47
 90
       50
102
RTVSPost2010PropOp47
 70
     0
102
RTVSPost2010Prop48
 90
       50
102
RTVSPost2010PropOp48
 70
     0
102
RTVSPost2010Prop49
280
     0
102
RTVSPost2010PropOp49
 70
     0
102
RTVSPost2010Prop50
 90
       50
102
RTVSPost2010PropOp50
 70
     0
102
RTVSPost2010Prop51ColorIndex
 90
      256
102
RTVSPost2010Prop51ColorRGB
 90
-16777216
102
RTVSPost2010PropOp51
 70
     0
102
RTVSPost2010Prop52
140
1.0
102
RTVSPost2010PropOp52
 70
     0
102
RTVSPost2010Prop53
 90
        2
102
RTVSPost2010PropOp53
 70
     0
102
RTVSPost2010Prop54
  1
strokes_ogs.tif
102
RTVSPost2010PropOp54
 70
     0
102
RTVSPost2010Prop55
280
     0
102
RTVSPost2010PropOp55
 70
     0
102
RTVSPost2010Prop56
140
1.0
102
RTVSPost2010PropOp56
 70
     0
102
RTVSPost2010Prop57
140
1.0
102
RTVSPost2010PropOp57
 70
     0
  0
XRECORD
  5
C8
102
{ACAD_REACTORS
330
C7
102
}
330
C7
100
AcDbXrecord
280
     1
102
RTVSPropertyOp0
 70
     1
102
RTVSPropertyOp1
 70
     1
102
RTVSPropertyOp2
 70
     1
102
RTVSPropertyOp3
 70
     1
102
RTVSPropertyOp4
 70
     1
102
RTVSPropertyOp5
 70
     1
102
RTVSPropertyOp6
 70
     1
102
RTVSPropertyOp7
 70
     1
102
RTVSPropertyOp8
 70
     1
102
RTVSPropertyOp9
 70
     1
102
RTVSPropertyOp10
 70
     1
102
RTVSPropertyOp11
 70
     1
102
RTVSPropertyOp12
 70
     1
102
RTVSPropertyOp13
 70
     1
102
RTVSPropertyOp14
 70
     1
102
RTVSPropertyOp15
 70
     1
102
RTVSPropertyOp16
 70
     1
102
RTVSPropertyOp17
 70
     1
102
RTVSPropertyOp18
 70
     1
102
RTVSPropertyOp19
 70
     1
102
RTVSPropertyOp20
 70
     1
102
RTVSPropertyOp21
 70
     1
102
RTVSPropertyOp22
 70
     1
102
RTVSPropertyOp23
 70
     1
102
RTVSPropertyOp24
 70
     1
102
RTVSPropertyOp25
 70
     1
102
RTVSPropertyOp26
 70
     1
102
RTVSPropertyOp27
 70
     1
102
RTVSPropertyOp28
 70
     1
102
RTVSPropertyOp29
 70
     1
102
RTVSPropertyOp30
 70
     1
102
RTVSPropertyOp31
 70
     1
102
RTVSPropertyOp32
 70
     1
102
RTVSPropertyOp33
 70
     1
102
RTVSPropertyOp34
 70
     1
102
RTVSPropertyOp35
 70
     1
102
RTVSPropertyOp36
 70
     1
102
RTVSPropertyOp37
 70
     1
102
RTVSPropertyOp38
 70
     1
102
RTVSPropertyOp39
 70
     1
102
RTVSPropertyOp40
 70
     1
102
RTVSPropertyOp41
 70
     1
102
RTVSPropertyOp42
 70
     1
102
RTVSPropertyOp43
 70
     1
102
RTVSPropertyOp44
 70
     1
102
RTVSPropertyOp45
 70
     1
102
RTVSPropertyOp46
 70
     1
102
RTVSPropertyOp47
 70
     1
102
RTVSPropertyOp48
 70
     1
102
RTVSPropertyOp49
 70
     1
102
RTVSPropertyOp50
 70
     1
102
RTVSPropertyOp51
 70
     0
102
RTVSPropertyOp52
 70
     0
102
RTVSPropertyOp53
 70
     1
102
RTVSPropertyOp54
 70
     1
102
RTVSPropertyOp55
 70
     1
102
RTVSPropertyOp56
 70
     1
102
RTVSPropertyOp57
 70
     1
102
RTVSPost2010Prop28
280
     0
102
RTVSPost2010PropOp28
 70
     1
102
RTVSPost2010Prop29
280
     1
102
RTVSPost2010PropOp29
 70
     1
102
RTVSPost2010Prop30
280
     1
102
RTVSPost2010PropOp30
 70
     1
102
RTVSPost2010Prop31
280
     0
102
RTVSPost2010PropOp31
 70
     1
102
RTVSPost2010Prop32
280
     0
102
RTVSPost2010PropOp32
 70
     1
102
RTVSPost2010Prop33
280
     0
102
RTVSPost2010PropOp33
 70
     1
102
RTVSPost2010Prop34
280
     0
102
RTVSPost2010PropOp34
 70
     1
102
RTVSPost2010Prop35
280
     0
102
RTVSPost2010PropOp35
 70
     1
102
RTVSPost2010Prop36
280
     0
102
RTVSPost2010PropOp36
 70
     1
102
RTVSPost2010Prop37
 90
       50
102
RTVSPost2010PropOp37
 70
     1
102
RTVSPost2010Prop38
140
0.0
102
RTVSPost2010PropOp38
 70
     1
102
RTVSPost2010Prop39
140
1.0
102
RTVSPost2010PropOp39
 70
     1
102
RTVSPost2010Prop40
 90
        0
102
RTVSPost2010PropOp40
 70
     1
102
RTVSPost2010Prop41ColorIndex
 90
       18
102
RTVSPost2010Prop41ColorRGB
 90
        0
102
RTVSPost2010PropOp41
 70
     1
102
RTVSPost2010Prop42
 90
       50
102
RTVSPost2010PropOp42
 70
     1
102
RTVSPost2010Prop43
 90
        3
102
RTVSPost2010PropOp43
 70
     1
102
RTVSPost2010Prop44ColorIndex
 90
        5
102
RTVSPost2010Prop44ColorRGB
 90
      255
102
RTVSPost2010PropOp44
 70
     1
102
RTVSPost2010Prop45
280
     0
102
RTVSPost2010PropOp45
 70
     1
102
RTVSPost2010Prop46
 90
       50
102
RTVSPost2010PropOp46
 70
     1
102
RTVSPost2010Prop47
 90
       50
102
RTVSPost2010PropOp47
 70
     1
102
RTVSPost2010Prop48
 90
       50
102
RTVSPost2010PropOp48
 70
     1
102
RTVSPost2010Prop49
280
     0
102
RTVSPost2010PropOp49
 70
     1
102
RTVSPost2010Prop50
 90
       50
102
RTVSPost2010PropOp50
 70
     1
102
RTVSPost2010Prop51ColorIndex
 90
      256
102
RTVSPost2010Prop51ColorRGB
 90
-16777216
102
RTVSPost2010PropOp51
 70
     0
102
RTVSPost2010Prop52
140
1.0
102
RTVSPost2010PropOp52
 70
     0
102
RTVSPost2010Prop53
 90
        2
102
RTVSPost2010PropOp53
 70
     1
102
RTVSPost2010Prop54
  1
strokes_ogs.tif
102
RTVSPost2010PropOp54
 70
     1
102
RTVSPost2010Prop55
280
     0
102
RTVSPost2010PropOp55
 70
     1
102
RTVSPost2010Prop56
140
1.0
102
RTVSPost2010PropOp56
 70
     1
102
RTVSPost2010Prop57
140
1.0
102
RTVSPost2010PropOp57
 70
     1
  0
XRECORD
  5
AC
102
{ACAD_REACTORS
330
AB
102
}
330
AB
100
AcDbXrecord
280
     1
102
RTVSPropertyOp0
 70
     1
102
RTVSPropertyOp1
 70
     1
102
RTVSPropertyOp2
 70
     1
102
RTVSPropertyOp3
 70
     1
102
RTVSPropertyOp4
 70
     1
102
RTVSPropertyOp5
 70
     1
102
RTVSPropertyOp6
 70
     1
102
RTVSPropertyOp7
 70
     1
102
RTVSPropertyOp8
 70
     1
102
RTVSPropertyOp9
 70
     1
102
RTVSPropertyOp10
 70
     1
102
RTVSPropertyOp11
 70
     1
102
RTVSPropertyOp12
 70
     1
102
RTVSPropertyOp13
 70
     1
102
RTVSPropertyOp14
 70
     1
102
RTVSPropertyOp15
 70
     1
102
RTVSPropertyOp16
 70
     1
102
RTVSPropertyOp17
 70
     1
102
RTVSPropertyOp18
 70
     1
102
RTVSPropertyOp19
 70
     1
102
RTVSPropertyOp20
 70
     1
102
RTVSPropertyOp21
 70
     1
102
RTVSPropertyOp22
 70
     1
102
RTVSPropertyOp23
 70
     1
102
RTVSPropertyOp24
 70
     1
102
RTVSPropertyOp25
 70
     1
102
RTVSPropertyOp26
 70
     1
102
RTVSPropertyOp27
 70
     1
102
RTVSPropertyOp28
 70
     1
102
RTVSPropertyOp29
 70
     1
102
RTVSPropertyOp30
 70
     1
102
RTVSPropertyOp31
 70
     1
102
RTVSPropertyOp32
 70
     1
102
RTVSPropertyOp33
 70
     1
102
RTVSPropertyOp34
 70
     1
102
RTVSPropertyOp35
 70
     1
102
RTVSPropertyOp36
 70
     1
102
RTVSPropertyOp37
 70
     1
102
RTVSPropertyOp38
 70
     1
102
RTVSPropertyOp39
 70
     1
102
RTVSPropertyOp40
 70
     1
102
RTVSPropertyOp41
 70
     1
102
RTVSPropertyOp42
 70
     1
102
RTVSPropertyOp43
 70
     1
102
RTVSPropertyOp44
 70
     1
102
RTVSPropertyOp45
 70
     1
102
RTVSPropertyOp46
 70
     1
102
RTVSPropertyOp47
 70
     1
102
RTVSPropertyOp48
 70
     1
102
RTVSPropertyOp49
 70
     1
102
RTVSPropertyOp50
 70
     1
102
RTVSPropertyOp51
 70
     0
102
RTVSPropertyOp52
 70
     0
102
RTVSPropertyOp53
 70
     1
102
RTVSPropertyOp54
 70
     1
102
RTVSPropertyOp55
 70
     1
102
RTVSPropertyOp56
 70
     1
102
RTVSPropertyOp57
 70
     1
102
RTVSPost2010Prop28
280
     0
102
RTVSPost2010PropOp28
 70
     1
102
RTVSPost2010Prop29
280
     1
102
RTVSPost2010PropOp29
 70
     1
102
RTVSPost2010Prop30
280
     1
102
RTVSPost2010PropOp30
 70
     1
102
RTVSPost2010Prop31
280
     0
102
RTVSPost2010PropOp31
 70
     1
102
RTVSPost2010Prop32
280
     0
102
RTVSPost2010PropOp32
 70
     1
102
RTVSPost2010Prop33
280
     0
102
RTVSPost2010PropOp33
 70
     1
102
RTVSPost2010Prop34
280
     0
102
RTVSPost2010PropOp34
 70
     1
102
RTVSPost2010Prop35
280
     0
102
RTVSPost2010PropOp35
 70
     1
102
RTVSPost2010Prop36
280
     0
102
RTVSPost2010PropOp36
 70
     1
102
RTVSPost2010Prop37
 90
       50
102
RTVSPost2010PropOp37
 70
     1
102
RTVSPost2010Prop38
140
0.0
102
RTVSPost2010PropOp38
 70
     1
102
RTVSPost2010Prop39
140
1.0
102
RTVSPost2010PropOp39
 70
     1
102
RTVSPost2010Prop40
 90
        0
102
RTVSPost2010PropOp40
 70
     1
102
RTVSPost2010Prop41ColorIndex
 90
       18
102
RTVSPost2010Prop41ColorRGB
 90
        0
102
RTVSPost2010PropOp41
 70
     1
102
RTVSPost2010Prop42
 90
       50
102
RTVSPost2010PropOp42
 70
     1
102
RTVSPost2010Prop43
 90
        3
102
RTVSPost2010PropOp43
 70
     1
102
RTVSPost2010Prop44ColorIndex
 90
        5
102
RTVSPost2010Prop44ColorRGB
 90
      255
102
RTVSPost2010PropOp44
 70
     1
102
RTVSPost2010Prop45
280
     0
102
RTVSPost2010PropOp45
 70
     1
102
RTVSPost2010Prop46
 90
       50
102
RTVSPost2010PropOp46
 70
     1
102
RTVSPost2010Prop47
 90
       50
102
RTVSPost2010PropOp47
 70
     1
102
RTVSPost2010Prop48
 90
       50
102
RTVSPost2010PropOp48
 70
     1
102
RTVSPost2010Prop49
280
     0
102
RTVSPost2010PropOp49
 70
     1
102
RTVSPost2010Prop50
 90
       50
102
RTVSPost2010PropOp50
 70
     1
102
RTVSPost2010Prop51ColorIndex
 90
      256
102
RTVSPost2010Prop51ColorRGB
 90
-16777216
102
RTVSPost2010PropOp51
 70
     0
102
RTVSPost2010Prop52
140
1.0
102
RTVSPost2010PropOp52
 70
     0
102
RTVSPost2010Prop53
 90
        2
102
RTVSPost2010PropOp53
 70
     1
102
RTVSPost2010Prop54
  1
strokes_ogs.tif
102
RTVSPost2010PropOp54
 70
     1
102
RTVSPost2010Prop55
280
     0
102
RTVSPost2010PropOp55
 70
     1
102
RTVSPost2010Prop56
140
1.0
102
RTVSPost2010PropOp56
 70
     1
102
RTVSPost2010Prop57
140
1.0
102
RTVSPost2010PropOp57
 70
     1
  0
XRECORD
  5
AE
102
{ACAD_REACTORS
330
AD
102
}
330
AD
100
AcDbXrecord
280
     1
102
RTVSPropertyOp0
 70
     1
102
RTVSPropertyOp1
 70
     1
102
RTVSPropertyOp2
 70
     1
102
RTVSPropertyOp3
 70
     1
102
RTVSPropertyOp4
 70
     1
102
RTVSPropertyOp5
 70
     1
102
RTVSPropertyOp6
 70
     1
102
RTVSPropertyOp7
 70
     1
102
RTVSPropertyOp8
 70
     1
102
RTVSPropertyOp9
 70
     1
102
RTVSPropertyOp10
 70
     1
102
RTVSPropertyOp11
 70
     1
102
RTVSPropertyOp12
 70
     1
102
RTVSPropertyOp13
 70
     1
102
RTVSPropertyOp14
 70
     1
102
RTVSPropertyOp15
 70
     1
102
RTVSPropertyOp16
 70
     1
102
RTVSPropertyOp17
 70
     1
102
RTVSPropertyOp18
 70
     1
102
RTVSPropertyOp19
 70
     1
102
RTVSPropertyOp20
 70
     1
102
RTVSPropertyOp21
 70
     1
102
RTVSPropertyOp22
 70
     1
102
RTVSPropertyOp23
 70
     1
102
RTVSPropertyOp24
 70
     1
102
RTVSPropertyOp25
 70
     1
102
RTVSPropertyOp26
 70
     1
102
RTVSPropertyOp27
 70
     1
102
RTVSPropertyOp28
 70
     1
102
RTVSPropertyOp29
 70
     1
102
RTVSPropertyOp30
 70
     1
102
RTVSPropertyOp31
 70
     1
102
RTVSPropertyOp32
 70
     1
102
RTVSPropertyOp33
 70
     1
102
RTVSPropertyOp34
 70
     1
102
RTVSPropertyOp35
 70
     1
102
RTVSPropertyOp36
 70
     1
102
RTVSPropertyOp37
 70
     1
102
RTVSPropertyOp38
 70
     1
102
RTVSPropertyOp39
 70
     1
102
RTVSPropertyOp40
 70
     1
102
RTVSPropertyOp41
 70
     1
102
RTVSPropertyOp42
 70
     1
102
RTVSPropertyOp43
 70
     1
102
RTVSPropertyOp44
 70
     1
102
RTVSPropertyOp45
 70
     1
102
RTVSPropertyOp46
 70
     1
102
RTVSPropertyOp47
 70
     1
102
RTVSPropertyOp48
 70
     1
102
RTVSPropertyOp49
 70
     1
102
RTVSPropertyOp50
 70
     1
102
RTVSPropertyOp51
 70
     0
102
RTVSPropertyOp52
 70
     0
102
RTVSPropertyOp53
 70
     1
102
RTVSPropertyOp54
 70
     1
102
RTVSPropertyOp55
 70
     1
102
RTVSPropertyOp56
 70
     1
102
RTVSPropertyOp57
 70
     1
102
RTVSPost2010Prop28
280
     0
102
RTVSPost2010PropOp28
 70
     1
102
RTVSPost2010Prop29
280
     1
102
RTVSPost2010PropOp29
 70
     1
102
RTVSPost2010Prop30
280
     1
102
RTVSPost2010PropOp30
 70
     1
102
RTVSPost2010Prop31
280
     0
102
RTVSPost2010PropOp31
 70
     1
102
RTVSPost2010Prop32
280
     0
102
RTVSPost2010PropOp32
 70
     1
102
RTVSPost2010Prop33
280
     0
102
RTVSPost2010PropOp33
 70
     1
102
RTVSPost2010Prop34
280
     0
102
RTVSPost2010PropOp34
 70
     1
102
RTVSPost2010Prop35
280
     0
102
RTVSPost2010PropOp35
 70
     1
102
RTVSPost2010Prop36
280
     0
102
RTVSPost2010PropOp36
 70
     1
102
RTVSPost2010Prop37
 90
       50
102
RTVSPost2010PropOp37
 70
     1
102
RTVSPost2010Prop38
140
0.0
102
RTVSPost2010PropOp38
 70
     1
102
RTVSPost2010Prop39
140
1.0
102
RTVSPost2010PropOp39
 70
     1
102
RTVSPost2010Prop40
 90
        0
102
RTVSPost2010PropOp40
 70
     1
102
RTVSPost2010Prop41ColorIndex
 90
       18
102
RTVSPost2010Prop41ColorRGB
 90
        0
102
RTVSPost2010PropOp41
 70
     1
102
RTVSPost2010Prop42
 90
       50
102
RTVSPost2010PropOp42
 70
     1
102
RTVSPost2010Prop43
 90
        3
102
RTVSPost2010PropOp43
 70
     1
102
RTVSPost2010Prop44ColorIndex
 90
        5
102
RTVSPost2010Prop44ColorRGB
 90
      255
102
RTVSPost2010PropOp44
 70
     1
102
RTVSPost2010Prop45
280
     0
102
RTVSPost2010PropOp45
 70
     1
102
RTVSPost2010Prop46
 90
       50
102
RTVSPost2010PropOp46
 70
     1
102
RTVSPost2010Prop47
 90
       50
102
RTVSPost2010PropOp47
 70
     1
102
RTVSPost2010Prop48
 90
       50
102
RTVSPost2010PropOp48
 70
     1
102
RTVSPost2010Prop49
280
     0
102
RTVSPost2010PropOp49
 70
     1
102
RTVSPost2010Prop50
 90
       50
102
RTVSPost2010PropOp50
 70
     1
102
RTVSPost2010Prop51ColorIndex
 90
      256
102
RTVSPost2010Prop51ColorRGB
 90
-16777216
102
RTVSPost2010PropOp51
 70
     0
102
RTVSPost2010Prop52
140
1.0
102
RTVSPost2010PropOp52
 70
     0
102
RTVSPost2010Prop53
 90
        2
102
RTVSPost2010PropOp53
 70
     1
102
RTVSPost2010Prop54
  1
strokes_ogs.tif
102
RTVSPost2010PropOp54
 70
     1
102
RTVSPost2010Prop55
280
     0
102
RTVSPost2010PropOp55
 70
     1
102
RTVSPost2010Prop56
140
1.0
102
RTVSPost2010PropOp56
 70
     1
102
RTVSPost2010Prop57
140
1.0
102
RTVSPost2010PropOp57
 70
     1
  0
XRECORD
  5
B0
102
{ACAD_REACTORS
330
AF
102
}
330
AF
100
AcDbXrecord
280
     1
102
RTVSPropertyOp0
 70
     1
102
RTVSPropertyOp1
 70
     1
102
RTVSPropertyOp2
 70
     1
102
RTVSPropertyOp3
 70
     1
102
RTVSPropertyOp4
 70
     1
102
RTVSPropertyOp5
 70
     1
102
RTVSPropertyOp6
 70
     1
102
RTVSPropertyOp7
 70
     1
102
RTVSPropertyOp8
 70
     1
102
RTVSPropertyOp9
 70
     1
102
RTVSPropertyOp10
 70
     1
102
RTVSPropertyOp11
 70
     1
102
RTVSPropertyOp12
 70
     1
102
RTVSPropertyOp13
 70
     1
102
RTVSPropertyOp14
 70
     1
102
RTVSPropertyOp15
 70
     1
102
RTVSPropertyOp16
 70
     1
102
RTVSPropertyOp17
 70
     1
102
RTVSPropertyOp18
 70
     1
102
RTVSPropertyOp19
 70
     1
102
RTVSPropertyOp20
 70
     1
102
RTVSPropertyOp21
 70
     1
102
RTVSPropertyOp22
 70
     1
102
RTVSPropertyOp23
 70
     1
102
RTVSPropertyOp24
 70
     1
102
RTVSPropertyOp25
 70
     1
102
RTVSPropertyOp26
 70
     1
102
RTVSPropertyOp27
 70
     1
102
RTVSPropertyOp28
 70
     1
102
RTVSPropertyOp29
 70
     1
102
RTVSPropertyOp30
 70
     1
102
RTVSPropertyOp31
 70
     1
102
RTVSPropertyOp32
 70
     1
102
RTVSPropertyOp33
 70
     1
102
RTVSPropertyOp34
 70
     1
102
RTVSPropertyOp35
 70
     1
102
RTVSPropertyOp36
 70
     1
102
RTVSPropertyOp37
 70
     1
102
RTVSPropertyOp38
 70
     1
102
RTVSPropertyOp39
 70
     1
102
RTVSPropertyOp40
 70
     1
102
RTVSPropertyOp41
 70
     1
102
RTVSPropertyOp42
 70
     1
102
RTVSPropertyOp43
 70
     1
102
RTVSPropertyOp44
 70
     1
102
RTVSPropertyOp45
 70
     1
102
RTVSPropertyOp46
 70
     1
102
RTVSPropertyOp47
 70
     1
102
RTVSPropertyOp48
 70
     1
102
RTVSPropertyOp49
 70
     1
102
RTVSPropertyOp50
 70
     1
102
RTVSPropertyOp51
 70
     0
102
RTVSPropertyOp52
 70
     0
102
RTVSPropertyOp53
 70
     1
102
RTVSPropertyOp54
 70
     1
102
RTVSPropertyOp55
 70
     1
102
RTVSPropertyOp56
 70
     1
102
RTVSPropertyOp57
 70
     1
102
RTVSPost2010Prop28
280
     0
102
RTVSPost2010PropOp28
 70
     1
102
RTVSPost2010Prop29
280
     1
102
RTVSPost2010PropOp29
 70
     1
102
RTVSPost2010Prop30
280
     1
102
RTVSPost2010PropOp30
 70
     1
102
RTVSPost2010Prop31
280
     0
102
RTVSPost2010PropOp31
 70
     1
102
RTVSPost2010Prop32
280
     0
102
RTVSPost2010PropOp32
 70
     1
102
RTVSPost2010Prop33
280
     0
102
RTVSPost2010PropOp33
 70
     1
102
RTVSPost2010Prop34
280
     0
102
RTVSPost2010PropOp34
 70
     1
102
RTVSPost2010Prop35
280
     0
102
RTVSPost2010PropOp35
 70
     1
102
RTVSPost2010Prop36
280
     0
102
RTVSPost2010PropOp36
 70
     1
102
RTVSPost2010Prop37
 90
       50
102
RTVSPost2010PropOp37
 70
     1
102
RTVSPost2010Prop38
140
0.0
102
RTVSPost2010PropOp38
 70
     1
102
RTVSPost2010Prop39
140
1.0
102
RTVSPost2010PropOp39
 70
     1
102
RTVSPost2010Prop40
 90
        0
102
RTVSPost2010PropOp40
 70
     1
102
RTVSPost2010Prop41ColorIndex
 90
       18
102
RTVSPost2010Prop41ColorRGB
 90
        0
102
RTVSPost2010PropOp41
 70
     1
102
RTVSPost2010Prop42
 90
       50
102
RTVSPost2010PropOp42
 70
     1
102
RTVSPost2010Prop43
 90
        3
102
RTVSPost2010PropOp43
 70
     1
102
RTVSPost2010Prop44ColorIndex
 90
        5
102
RTVSPost2010Prop44ColorRGB
 90
      255
102
RTVSPost2010PropOp44
 70
     1
102
RTVSPost2010Prop45
280
     0
102
RTVSPost2010PropOp45
 70
     1
102
RTVSPost2010Prop46
 90
       50
102
RTVSPost2010PropOp46
 70
     1
102
RTVSPost2010Prop47
 90
       50
102
RTVSPost2010PropOp47
 70
     1
102
RTVSPost2010Prop48
 90
       50
102
RTVSPost2010PropOp48
 70
     1
102
RTVSPost2010Prop49
280
     0
102
RTVSPost2010PropOp49
 70
     1
102
RTVSPost2010Prop50
 90
       50
102
RTVSPost2010PropOp50
 70
     1
102
RTVSPost2010Prop51ColorIndex
 90
      256
102
RTVSPost2010Prop51ColorRGB
 90
-16777216
102
RTVSPost2010PropOp51
 70
     0
102
RTVSPost2010Prop52
140
1.0
102
RTVSPost2010PropOp52
 70
     0
102
RTVSPost2010Prop53
 90
        2
102
RTVSPost2010PropOp53
 70
     1
102
RTVSPost2010Prop54
  1
strokes_ogs.tif
102
RTVSPost2010PropOp54
 70
     1
102
RTVSPost2010Prop55
280
     0
102
RTVSPost2010PropOp55
 70
     1
102
RTVSPost2010Prop56
140
1.0
102
RTVSPost2010PropOp56
 70
     1
102
RTVSPost2010Prop57
140
1.0
102
RTVSPost2010PropOp57
 70
     1
  0
XRECORD
  5
B2
102
{ACAD_REACTORS
330
B1
102
}
330
B1
100
AcDbXrecord
280
     1
102
RTVSPropertyOp0
 70
     1
102
RTVSPropertyOp1
 70
     1
102
RTVSPropertyOp2
 70
     1
102
RTVSPropertyOp3
 70
     1
102
RTVSPropertyOp4
 70
     1
102
RTVSPropertyOp5
 70
     1
102
RTVSPropertyOp6
 70
     1
102
RTVSPropertyOp7
 70
     1
102
RTVSPropertyOp8
 70
     1
102
RTVSPropertyOp9
 70
     1
102
RTVSPropertyOp10
 70
     1
102
RTVSPropertyOp11
 70
     1
102
RTVSPropertyOp12
 70
     1
102
RTVSPropertyOp13
 70
     1
102
RTVSPropertyOp14
 70
     1
102
RTVSPropertyOp15
 70
     1
102
RTVSPropertyOp16
 70
     1
102
RTVSPropertyOp17
 70
     1
102
RTVSPropertyOp18
 70
     1
102
RTVSPropertyOp19
 70
     1
102
RTVSPropertyOp20
 70
     1
102
RTVSPropertyOp21
 70
     1
102
RTVSPropertyOp22
 70
     1
102
RTVSPropertyOp23
 70
     1
102
RTVSPropertyOp24
 70
     1
102
RTVSPropertyOp25
 70
     1
102
RTVSPropertyOp26
 70
     1
102
RTVSPropertyOp27
 70
     1
102
RTVSPropertyOp28
 70
     1
102
RTVSPropertyOp29
 70
     1
102
RTVSPropertyOp30
 70
     1
102
RTVSPropertyOp31
 70
     1
102
RTVSPropertyOp32
 70
     1
102
RTVSPropertyOp33
 70
     1
102
RTVSPropertyOp34
 70
     1
102
RTVSPropertyOp35
 70
     1
102
RTVSPropertyOp36
 70
     1
102
RTVSPropertyOp37
 70
     1
102
RTVSPropertyOp38
 70
     1
102
RTVSPropertyOp39
 70
     1
102
RTVSPropertyOp40
 70
     1
102
RTVSPropertyOp41
 70
     1
102
RTVSPropertyOp42
 70
     1
102
RTVSPropertyOp43
 70
     1
102
RTVSPropertyOp44
 70
     1
102
RTVSPropertyOp45
 70
     1
102
RTVSPropertyOp46
 70
     1
102
RTVSPropertyOp47
 70
     1
102
RTVSPropertyOp48
 70
     1
102
RTVSPropertyOp49
 70
     1
102
RTVSPropertyOp50
 70
     1
102
RTVSPropertyOp51
 70
     0
102
RTVSPropertyOp52
 70
     0
102
RTVSPropertyOp53
 70
     1
102
RTVSPropertyOp54
 70
     1
102
RTVSPropertyOp55
 70
     1
102
RTVSPropertyOp56
 70
     1
102
RTVSPropertyOp57
 70
     1
102
RTVSPost2010Prop28
280
     0
102
RTVSPost2010PropOp28
 70
     1
102
RTVSPost2010Prop29
280
     1
102
RTVSPost2010PropOp29
 70
     1
102
RTVSPost2010Prop30
280
     1
102
RTVSPost2010PropOp30
 70
     1
102
RTVSPost2010Prop31
280
     0
102
RTVSPost2010PropOp31
 70
     1
102
RTVSPost2010Prop32
280
     0
102
RTVSPost2010PropOp32
 70
     1
102
RTVSPost2010Prop33
280
     0
102
RTVSPost2010PropOp33
 70
     1
102
RTVSPost2010Prop34
280
     0
102
RTVSPost2010PropOp34
 70
     1
102
RTVSPost2010Prop35
280
     0
102
RTVSPost2010PropOp35
 70
     1
102
RTVSPost2010Prop36
280
     0
102
RTVSPost2010PropOp36
 70
     1
102
RTVSPost2010Prop37
 90
       50
102
RTVSPost2010PropOp37
 70
     1
102
RTVSPost2010Prop38
140
0.0
102
RTVSPost2010PropOp38
 70
     1
102
RTVSPost2010Prop39
140
1.0
102
RTVSPost2010PropOp39
 70
     1
102
RTVSPost2010Prop40
 90
        0
102
RTVSPost2010PropOp40
 70
     1
102
RTVSPost2010Prop41ColorIndex
 90
       18
102
RTVSPost2010Prop41ColorRGB
 90
        0
102
RTVSPost2010PropOp41
 70
     1
102
RTVSPost2010Prop42
 90
       50
102
RTVSPost2010PropOp42
 70
     1
102
RTVSPost2010Prop43
 90
        3
102
RTVSPost2010PropOp43
 70
     1
102
RTVSPost2010Prop44ColorIndex
 90
        5
102
RTVSPost2010Prop44ColorRGB
 90
      255
102
RTVSPost2010PropOp44
 70
     1
102
RTVSPost2010Prop45
280
     0
102
RTVSPost2010PropOp45
 70
     1
102
RTVSPost2010Prop46
 90
       50
102
RTVSPost2010PropOp46
 70
     1
102
RTVSPost2010Prop47
 90
       50
102
RTVSPost2010PropOp47
 70
     1
102
RTVSPost2010Prop48
 90
       50
102
RTVSPost2010PropOp48
 70
     1
102
RTVSPost2010Prop49
280
     0
102
RTVSPost2010PropOp49
 70
     1
102
RTVSPost2010Prop50
 90
       50
102
RTVSPost2010PropOp50
 70
     1
102
RTVSPost2010Prop51ColorIndex
 90
      256
102
RTVSPost2010Prop51ColorRGB
 90
-16777216
102
RTVSPost2010PropOp51
 70
     0
102
RTVSPost2010Prop52
140
1.0
102
RTVSPost2010PropOp52
 70
     0
102
RTVSPost2010Prop53
 90
        2
102
RTVSPost2010PropOp53
 70
     1
102
RTVSPost2010Prop54
  1
strokes_ogs.tif
102
RTVSPost2010PropOp54
 70
     1
102
RTVSPost2010Prop55
280
     0
102
RTVSPost2010PropOp55
 70
     1
102
RTVSPost2010Prop56
140
1.0
102
RTVSPost2010PropOp56
 70
     1
102
RTVSPost2010Prop57
140
1.0
102
RTVSPost2010PropOp57
 70
     1
  0
XRECORD
  5
B8
102
{ACAD_REACTORS
330
B7
102
}
330
B7
100
AcDbXrecord
280
     1
102
RTVSPropertyOp0
 70
     1
102
RTVSPropertyOp1
 70
     1
102
RTVSPropertyOp2
 70
     1
102
RTVSPropertyOp3
 70
     1
102
RTVSPropertyOp4
 70
     1
102
RTVSPropertyOp5
 70
     1
102
RTVSPropertyOp6
 70
     1
102
RTVSPropertyOp7
 70
     1
102
RTVSPropertyOp8
 70
     1
102
RTVSPropertyOp9
 70
     1
102
RTVSPropertyOp10
 70
     1
102
RTVSPropertyOp11
 70
     1
102
RTVSPropertyOp12
 70
     1
102
RTVSPropertyOp13
 70
     1
102
RTVSPropertyOp14
 70
     1
102
RTVSPropertyOp15
 70
     1
102
RTVSPropertyOp16
 70
     1
102
RTVSPropertyOp17
 70
     1
102
RTVSPropertyOp18
 70
     1
102
RTVSPropertyOp19
 70
     1
102
RTVSPropertyOp20
 70
     1
102
RTVSPropertyOp21
 70
     1
102
RTVSPropertyOp22
 70
     1
102
RTVSPropertyOp23
 70
     1
102
RTVSPropertyOp24
 70
     1
102
RTVSPropertyOp25
 70
     1
102
RTVSPropertyOp26
 70
     1
102
RTVSPropertyOp27
 70
     1
102
RTVSPropertyOp28
 70
     1
102
RTVSPropertyOp29
 70
     1
102
RTVSPropertyOp30
 70
     1
102
RTVSPropertyOp31
 70
     1
102
RTVSPropertyOp32
 70
     1
102
RTVSPropertyOp33
 70
     1
102
RTVSPropertyOp34
 70
     1
102
RTVSPropertyOp35
 70
     1
102
RTVSPropertyOp36
 70
     1
102
RTVSPropertyOp37
 70
     1
102
RTVSPropertyOp38
 70
     1
102
RTVSPropertyOp39
 70
     1
102
RTVSPropertyOp40
 70
     1
102
RTVSPropertyOp41
 70
     1
102
RTVSPropertyOp42
 70
     1
102
RTVSPropertyOp43
 70
     1
102
RTVSPropertyOp44
 70
     1
102
RTVSPropertyOp45
 70
     1
102
RTVSPropertyOp46
 70
     1
102
RTVSPropertyOp47
 70
     1
102
RTVSPropertyOp48
 70
     1
102
RTVSPropertyOp49
 70
     1
102
RTVSPropertyOp50
 70
     1
102
RTVSPropertyOp51
 70
     0
102
RTVSPropertyOp52
 70
     0
102
RTVSPropertyOp53
 70
     1
102
RTVSPropertyOp54
 70
     1
102
RTVSPropertyOp55
 70
     1
102
RTVSPropertyOp56
 70
     1
102
RTVSPropertyOp57
 70
     1
102
RTVSPost2010Prop28
280
     0
102
RTVSPost2010PropOp28
 70
     1
102
RTVSPost2010Prop29
280
     1
102
RTVSPost2010PropOp29
 70
     1
102
RTVSPost2010Prop30
280
     1
102
RTVSPost2010PropOp30
 70
     1
102
RTVSPost2010Prop31
280
     0
102
RTVSPost2010PropOp31
 70
     1
102
RTVSPost2010Prop32
280
     0
102
RTVSPost2010PropOp32
 70
     1
102
RTVSPost2010Prop33
280
     0
102
RTVSPost2010PropOp33
 70
     1
102
RTVSPost2010Prop34
280
     0
102
RTVSPost2010PropOp34
 70
     1
102
RTVSPost2010Prop35
280
     0
102
RTVSPost2010PropOp35
 70
     1
102
RTVSPost2010Prop36
280
     0
102
RTVSPost2010PropOp36
 70
     1
102
RTVSPost2010Prop37
 90
       50
102
RTVSPost2010PropOp37
 70
     1
102
RTVSPost2010Prop38
140
0.0
102
RTVSPost2010PropOp38
 70
     1
102
RTVSPost2010Prop39
140
1.0
102
RTVSPost2010PropOp39
 70
     1
102
RTVSPost2010Prop40
 90
        0
102
RTVSPost2010PropOp40
 70
     1
102
RTVSPost2010Prop41ColorIndex
 90
       18
102
RTVSPost2010Prop41ColorRGB
 90
        0
102
RTVSPost2010PropOp41
 70
     1
102
RTVSPost2010Prop42
 90
       50
102
RTVSPost2010PropOp42
 70
     1
102
RTVSPost2010Prop43
 90
        3
102
RTVSPost2010PropOp43
 70
     1
102
RTVSPost2010Prop44ColorIndex
 90
        5
102
RTVSPost2010Prop44ColorRGB
 90
      255
102
RTVSPost2010PropOp44
 70
     1
102
RTVSPost2010Prop45
280
     0
102
RTVSPost2010PropOp45
 70
     1
102
RTVSPost2010Prop46
 90
       50
102
RTVSPost2010PropOp46
 70
     1
102
RTVSPost2010Prop47
 90
       50
102
RTVSPost2010PropOp47
 70
     1
102
RTVSPost2010Prop48
 90
       50
102
RTVSPost2010PropOp48
 70
     1
102
RTVSPost2010Prop49
280
     0
102
RTVSPost2010PropOp49
 70
     1
102
RTVSPost2010Prop50
 90
       50
102
RTVSPost2010PropOp50
 70
     1
102
RTVSPost2010Prop51ColorIndex
 90
      256
102
RTVSPost2010Prop51ColorRGB
 90
-16777216
102
RTVSPost2010PropOp51
 70
     0
102
RTVSPost2010Prop52
140
1.0
102
RTVSPost2010PropOp52
 70
     0
102
RTVSPost2010Prop53
 90
        2
102
RTVSPost2010PropOp53
 70
     1
102
RTVSPost2010Prop54
  1
strokes_ogs.tif
102
RTVSPost2010PropOp54
 70
     1
102
RTVSPost2010Prop55
280
     0
102
RTVSPost2010PropOp55
 70
     1
102
RTVSPost2010Prop56
140
1.0
102
RTVSPost2010PropOp56
 70
     1
102
RTVSPost2010Prop57
140
1.0
102
RTVSPost2010PropOp57
 70
     1
  0
XRECORD
  5
CC
102
{ACAD_REACTORS
330
CB
102
}
330
CB
100
AcDbXrecord
280
     1
102
RTVSPropertyOp0
 70
     0
102
RTVSPropertyOp1
 70
     0
102
RTVSPropertyOp2
 70
     0
102
RTVSPropertyOp3
 70
     0
102
RTVSPropertyOp4
 70
     0
102
RTVSPropertyOp5
 70
     0
102
RTVSPropertyOp6
 70
     0
102
RTVSPropertyOp7
 70
     0
102
RTVSPropertyOp8
 70
     0
102
RTVSPropertyOp9
 70
     0
102
RTVSPropertyOp10
 70
     0
102
RTVSPropertyOp11
 70
     0
102
RTVSPropertyOp12
 70
     0
102
RTVSPropertyOp13
 70
     0
102
RTVSPropertyOp14
 70
     2
102
RTVSPropertyOp15
 70
     0
102
RTVSPropertyOp16
 70
     0
102
RTVSPropertyOp17
 70
     0
102
RTVSPropertyOp18
 70
     0
102
RTVSPropertyOp19
 70
     0
102
RTVSPropertyOp20
 70
     0
102
RTVSPropertyOp21
 70
     0
102
RTVSPropertyOp22
 70
     0
102
RTVSPropertyOp23
 70
     0
102
RTVSPropertyOp24
 70
     0
102
RTVSPropertyOp25
 70
     0
102
RTVSPropertyOp26
 70
     0
102
RTVSPropertyOp27
 70
     0
102
RTVSPropertyOp28
 70
     0
102
RTVSPropertyOp29
 70
     0
102
RTVSPropertyOp30
 70
     0
102
RTVSPropertyOp31
 70
     0
102
RTVSPropertyOp32
 70
     0
102
RTVSPropertyOp33
 70
     0
102
RTVSPropertyOp34
 70
     0
102
RTVSPropertyOp35
 70
     0
102
RTVSPropertyOp36
 70
     0
102
RTVSPropertyOp37
 70
     0
102
RTVSPropertyOp38
 70
     0
102
RTVSPropertyOp39
 70
     0
102
RTVSPropertyOp40
 70
     0
102
RTVSPropertyOp41
 70
     0
102
RTVSPropertyOp42
 70
     0
102
RTVSPropertyOp43
 70
     0
102
RTVSPropertyOp44
 70
     0
102
RTVSPropertyOp45
 70
     0
102
RTVSPropertyOp46
 70
     0
102
RTVSPropertyOp47
 70
     0
102
RTVSPropertyOp48
 70
     0
102
RTVSPropertyOp49
 70
     0
102
RTVSPropertyOp50
 70
     0
102
RTVSPropertyOp51
 70
     0
102
RTVSPropertyOp52
 70
     0
102
RTVSPropertyOp53
 70
     0
102
RTVSPropertyOp54
 70
     0
102
RTVSPropertyOp55
 70
     0
102
RTVSPropertyOp56
 70
     0
102
RTVSPropertyOp57
 70
     0
102
RTVSPost2010Prop28
280
     0
102
RTVSPost2010PropOp28
 70
     0
102
RTVSPost2010Prop29
280
     1
102
RTVSPost2010PropOp29
 70
     0
102
RTVSPost2010Prop30
280
     1
102
RTVSPost2010PropOp30
 70
     0
102
RTVSPost2010Prop31
280
     0
102
RTVSPost2010PropOp31
 70
     0
102
RTVSPost2010Prop32
280
     0
102
RTVSPost2010PropOp32
 70
     0
102
RTVSPost2010Prop33
280
     0
102
RTVSPost2010PropOp33
 70
     0
102
RTVSPost2010Prop34
280
     0
102
RTVSPost2010PropOp34
 70
     0
102
RTVSPost2010Prop35
280
     0
102
RTVSPost2010PropOp35
 70
     0
102
RTVSPost2010Prop36
280
     0
102
RTVSPost2010PropOp36
 70
     0
102
RTVSPost2010Prop37
 90
       50
102
RTVSPost2010PropOp37
 70
     0
102
RTVSPost2010Prop38
140
0.0
102
RTVSPost2010PropOp38
 70
     0
102
RTVSPost2010Prop39
140
1.0
102
RTVSPost2010PropOp39
 70
     0
102
RTVSPost2010Prop40
 90
        0
102
RTVSPost2010PropOp40
 70
     0
102
RTVSPost2010Prop41ColorIndex
 90
       18
102
RTVSPost2010Prop41ColorRGB
 90
        0
102
RTVSPost2010PropOp41
 70
     0
102
RTVSPost2010Prop42
 90
       50
102
RTVSPost2010PropOp42
 70
     0
102
RTVSPost2010Prop43
 90
        3
102
RTVSPost2010PropOp43
 70
     0
102
RTVSPost2010Prop44ColorIndex
 90
        5
102
RTVSPost2010Prop44ColorRGB
 90
      255
102
RTVSPost2010PropOp44
 70
     0
102
RTVSPost2010Prop45
280
     0
102
RTVSPost2010PropOp45
 70
     0
102
RTVSPost2010Prop46
 90
       50
102
RTVSPost2010PropOp46
 70
     0
102
RTVSPost2010Prop47
 90
       50
102
RTVSPost2010PropOp47
 70
     0
102
RTVSPost2010Prop48
 90
       50
102
RTVSPost2010PropOp48
 70
     0
102
RTVSPost2010Prop49
280
     0
102
RTVSPost2010PropOp49
 70
     0
102
RTVSPost2010Prop50
 90
       50
102
RTVSPost2010PropOp50
 70
     0
102
RTVSPost2010Prop51ColorIndex
 90
      256
102
RTVSPost2010Prop51ColorRGB
 90
-16777216
102
RTVSPost2010PropOp51
 70
     0
102
RTVSPost2010Prop52
140
1.0
102
RTVSPost2010PropOp52
 70
     0
102
RTVSPost2010Prop53
 90
        2
102
RTVSPost2010PropOp53
 70
     0
102
RTVSPost2010Prop54
  1
strokes_ogs.tif
102
RTVSPost2010PropOp54
 70
     0
102
RTVSPost2010Prop55
280
     0
102
RTVSPost2010PropOp55
 70
     0
102
RTVSPost2010Prop56
140
1.0
102
RTVSPost2010PropOp56
 70
     0
102
RTVSPost2010Prop57
140
1.0
102
RTVSPost2010PropOp57
 70
     0
  0
XRECORD
  5
C6
102
{ACAD_REACTORS
330
C5
102
}
330
C5
100
AcDbXrecord
280
     1
102
RTVSPropertyOp0
 70
     1
102
RTVSPropertyOp1
 70
     1
102
RTVSPropertyOp2
 70
     1
102
RTVSPropertyOp3
 70
     1
102
RTVSPropertyOp4
 70
     1
102
RTVSPropertyOp5
 70
     1
102
RTVSPropertyOp6
 70
     1
102
RTVSPropertyOp7
 70
     1
102
RTVSPropertyOp8
 70
     1
102
RTVSPropertyOp9
 70
     1
102
RTVSPropertyOp10
 70
     1
102
RTVSPropertyOp11
 70
     1
102
RTVSPropertyOp12
 70
     1
102
RTVSPropertyOp13
 70
     1
102
RTVSPropertyOp14
 70
     1
102
RTVSPropertyOp15
 70
     1
102
RTVSPropertyOp16
 70
     1
102
RTVSPropertyOp17
 70
     1
102
RTVSPropertyOp18
 70
     1
102
RTVSPropertyOp19
 70
     1
102
RTVSPropertyOp20
 70
     1
102
RTVSPropertyOp21
 70
     1
102
RTVSPropertyOp22
 70
     1
102
RTVSPropertyOp23
 70
     1
102
RTVSPropertyOp24
 70
     1
102
RTVSPropertyOp25
 70
     1
102
RTVSPropertyOp26
 70
     1
102
RTVSPropertyOp27
 70
     1
102
RTVSPropertyOp28
 70
     1
102
RTVSPropertyOp29
 70
     1
102
RTVSPropertyOp30
 70
     1
102
RTVSPropertyOp31
 70
     1
102
RTVSPropertyOp32
 70
     1
102
RTVSPropertyOp33
 70
     1
102
RTVSPropertyOp34
 70
     1
102
RTVSPropertyOp35
 70
     1
102
RTVSPropertyOp36
 70
     1
102
RTVSPropertyOp37
 70
     1
102
RTVSPropertyOp38
 70
     1
102
RTVSPropertyOp39
 70
     1
102
RTVSPropertyOp40
 70
     1
102
RTVSPropertyOp41
 70
     1
102
RTVSPropertyOp42
 70
     1
102
RTVSPropertyOp43
 70
     1
102
RTVSPropertyOp44
 70
     1
102
RTVSPropertyOp45
 70
     1
102
RTVSPropertyOp46
 70
     1
102
RTVSPropertyOp47
 70
     1
102
RTVSPropertyOp48
 70
     1
102
RTVSPropertyOp49
 70
     1
102
RTVSPropertyOp50
 70
     1
102
RTVSPropertyOp51
 70
     0
102
RTVSPropertyOp52
 70
     0
102
RTVSPropertyOp53
 70
     1
102
RTVSPropertyOp54
 70
     1
102
RTVSPropertyOp55
 70
     1
102
RTVSPropertyOp56
 70
     1
102
RTVSPropertyOp57
 70
     1
102
RTVSPost2010Prop28
280
     0
102
RTVSPost2010PropOp28
 70
     1
102
RTVSPost2010Prop29
280
     1
102
RTVSPost2010PropOp29
 70
     1
102
RTVSPost2010Prop30
280
     1
102
RTVSPost2010PropOp30
 70
     1
102
RTVSPost2010Prop31
280
     0
102
RTVSPost2010PropOp31
 70
     1
102
RTVSPost2010Prop32
280
     0
102
RTVSPost2010PropOp32
 70
     1
102
RTVSPost2010Prop33
280
     0
102
RTVSPost2010PropOp33
 70
     1
102
RTVSPost2010Prop34
280
     0
102
RTVSPost2010PropOp34
 70
     1
102
RTVSPost2010Prop35
280
     0
102
RTVSPost2010PropOp35
 70
     1
102
RTVSPost2010Prop36
280
     0
102
RTVSPost2010PropOp36
 70
     1
102
RTVSPost2010Prop37
 90
       50
102
RTVSPost2010PropOp37
 70
     1
102
RTVSPost2010Prop38
140
0.0
102
RTVSPost2010PropOp38
 70
     1
102
RTVSPost2010Prop39
140
1.0
102
RTVSPost2010PropOp39
 70
     1
102
RTVSPost2010Prop40
 90
        0
102
RTVSPost2010PropOp40
 70
     1
102
RTVSPost2010Prop41ColorIndex
 90
       18
102
RTVSPost2010Prop41ColorRGB
 90
        0
102
RTVSPost2010PropOp41
 70
     1
102
RTVSPost2010Prop42
 90
       50
102
RTVSPost2010PropOp42
 70
     1
102
RTVSPost2010Prop43
 90
        3
102
RTVSPost2010PropOp43
 70
     1
102
RTVSPost2010Prop44ColorIndex
 90
        5
102
RTVSPost2010Prop44ColorRGB
 90
      255
102
RTVSPost2010PropOp44
 70
     1
102
RTVSPost2010Prop45
280
     0
102
RTVSPost2010PropOp45
 70
     1
102
RTVSPost2010Prop46
 90
       50
102
RTVSPost2010PropOp46
 70
     1
102
RTVSPost2010Prop47
 90
       50
102
RTVSPost2010PropOp47
 70
     1
102
RTVSPost2010Prop48
 90
       50
102
RTVSPost2010PropOp48
 70
     1
102
RTVSPost2010Prop49
280
     0
102
RTVSPost2010PropOp49
 70
     1
102
RTVSPost2010Prop50
 90
       50
102
RTVSPost2010PropOp50
 70
     1
102
RTVSPost2010Prop51ColorIndex
 90
      256
102
RTVSPost2010Prop51ColorRGB
 90
-16777216
102
RTVSPost2010PropOp51
 70
     0
102
RTVSPost2010Prop52
140
1.0
102
RTVSPost2010PropOp52
 70
     0
102
RTVSPost2010Prop53
 90
        2
102
RTVSPost2010PropOp53
 70
     1
102
RTVSPost2010Prop54
  1
strokes_ogs.tif
102
RTVSPost2010PropOp54
 70
     1
102
RTVSPost2010Prop55
280
     0
102
RTVSPost2010PropOp55
 70
     1
102
RTVSPost2010Prop56
140
1.0
102
RTVSPost2010PropOp56
 70
     1
102
RTVSPost2010Prop57
140
1.0
102
RTVSPost2010PropOp57
 70
     1
  0
XRECORD
  5
CE
102
{ACAD_REACTORS
330
CD
102
}
330
CD
100
AcDbXrecord
280
     1
102
RTVSPropertyOp0
 70
     0
102
RTVSPropertyOp1
 70
     0
102
RTVSPropertyOp2
 70
     0
102
RTVSPropertyOp3
 70
     0
102
RTVSPropertyOp4
 70
     0
102
RTVSPropertyOp5
 70
     0
102
RTVSPropertyOp6
 70
     0
102
RTVSPropertyOp7
 70
     0
102
RTVSPropertyOp8
 70
     0
102
RTVSPropertyOp9
 70
     0
102
RTVSPropertyOp10
 70
     0
102
RTVSPropertyOp11
 70
     0
102
RTVSPropertyOp12
 70
     0
102
RTVSPropertyOp13
 70
     0
102
RTVSPropertyOp14
 70
     2
102
RTVSPropertyOp15
 70
     0
102
RTVSPropertyOp16
 70
     0
102
RTVSPropertyOp17
 70
     0
102
RTVSPropertyOp18
 70
     0
102
RTVSPropertyOp19
 70
     0
102
RTVSPropertyOp20
 70
     0
102
RTVSPropertyOp21
 70
     0
102
RTVSPropertyOp22
 70
     0
102
RTVSPropertyOp23
 70
     0
102
RTVSPropertyOp24
 70
     0
102
RTVSPropertyOp25
 70
     0
102
RTVSPropertyOp26
 70
     0
102
RTVSPropertyOp27
 70
     0
102
RTVSPropertyOp28
 70
     0
102
RTVSPropertyOp29
 70
     0
102
RTVSPropertyOp30
 70
     0
102
RTVSPropertyOp31
 70
     0
102
RTVSPropertyOp32
 70
     0
102
RTVSPropertyOp33
 70
     0
102
RTVSPropertyOp34
 70
     0
102
RTVSPropertyOp35
 70
     0
102
RTVSPropertyOp36
 70
     0
102
RTVSPropertyOp37
 70
     0
102
RTVSPropertyOp38
 70
     0
102
RTVSPropertyOp39
 70
     0
102
RTVSPropertyOp40
 70
     0
102
RTVSPropertyOp41
 70
     0
102
RTVSPropertyOp42
 70
     0
102
RTVSPropertyOp43
 70
     0
102
RTVSPropertyOp44
 70
     0
102
RTVSPropertyOp45
 70
     0
102
RTVSPropertyOp46
 70
     0
102
RTVSPropertyOp47
 70
     0
102
RTVSPropertyOp48
 70
     0
102
RTVSPropertyOp49
 70
     0
102
RTVSPropertyOp50
 70
     0
102
RTVSPropertyOp51
 70
     0
102
RTVSPropertyOp52
 70
     0
102
RTVSPropertyOp53
 70
     0
102
RTVSPropertyOp54
 70
     0
102
RTVSPropertyOp55
 70
     0
102
RTVSPropertyOp56
 70
     0
102
RTVSPropertyOp57
 70
     0
102
RTVSPost2010Prop28
280
     0
102
RTVSPost2010PropOp28
 70
     0
102
RTVSPost2010Prop29
280
     1
102
RTVSPost2010PropOp29
 70
     0
102
RTVSPost2010Prop30
280
     1
102
RTVSPost2010PropOp30
 70
     0
102
RTVSPost2010Prop31
280
     0
102
RTVSPost2010PropOp31
 70
     0
102
RTVSPost2010Prop32
280
     0
102
RTVSPost2010PropOp32
 70
     0
102
RTVSPost2010Prop33
280
     0
102
RTVSPost2010PropOp33
 70
     0
102
RTVSPost2010Prop34
280
     0
102
RTVSPost2010PropOp34
 70
     0
102
RTVSPost2010Prop35
280
     0
102
RTVSPost2010PropOp35
 70
     0
102
RTVSPost2010Prop36
280
     0
102
RTVSPost2010PropOp36
 70
     0
102
RTVSPost2010Prop37
 90
       50
102
RTVSPost2010PropOp37
 70
     0
102
RTVSPost2010Prop38
140
0.0
102
RTVSPost2010PropOp38
 70
     0
102
RTVSPost2010Prop39
140
1.0
102
RTVSPost2010PropOp39
 70
     0
102
RTVSPost2010Prop40
 90
        0
102
RTVSPost2010PropOp40
 70
     0
102
RTVSPost2010Prop41ColorIndex
 90
       18
102
RTVSPost2010Prop41ColorRGB
 90
        0
102
RTVSPost2010PropOp41
 70
     0
102
RTVSPost2010Prop42
 90
       50
102
RTVSPost2010PropOp42
 70
     0
102
RTVSPost2010Prop43
 90
        3
102
RTVSPost2010PropOp43
 70
     0
102
RTVSPost2010Prop44ColorIndex
 90
        5
102
RTVSPost2010Prop44ColorRGB
 90
      255
102
RTVSPost2010PropOp44
 70
     0
102
RTVSPost2010Prop45
280
     0
102
RTVSPost2010PropOp45
 70
     0
102
RTVSPost2010Prop46
 90
       50
102
RTVSPost2010PropOp46
 70
     0
102
RTVSPost2010Prop47
 90
       50
102
RTVSPost2010PropOp47
 70
     0
102
RTVSPost2010Prop48
 90
       50
102
RTVSPost2010PropOp48
 70
     0
102
RTVSPost2010Prop49
280
     0
102
RTVSPost2010PropOp49
 70
     0
102
RTVSPost2010Prop50
 90
       50
102
RTVSPost2010PropOp50
 70
     0
102
RTVSPost2010Prop51ColorIndex
 90
      256
102
RTVSPost2010Prop51ColorRGB
 90
-16777216
102
RTVSPost2010PropOp51
 70
     0
102
RTVSPost2010Prop52
140
1.0
102
RTVSPost2010PropOp52
 70
     0
102
RTVSPost2010Prop53
 90
        2
102
RTVSPost2010PropOp53
 70
     0
102
RTVSPost2010Prop54
  1
strokes_ogs.tif
102
RTVSPost2010PropOp54
 70
     0
102
RTVSPost2010Prop55
280
     0
102
RTVSPost2010PropOp55
 70
     0
102
RTVSPost2010Prop56
140
1.0
102
RTVSPost2010PropOp56
 70
     0
102
RTVSPost2010Prop57
140
1.0
102
RTVSPost2010PropOp57
 70
     0
  0
XRECORD
  5
BC
102
{ACAD_REACTORS
330
BB
102
}
330
BB
100
AcDbXrecord
280
     1
102
RTVSPropertyOp0
 70
     1
102
RTVSPropertyOp1
 70
     1
102
RTVSPropertyOp2
 70
     1
102
RTVSPropertyOp3
 70
     1
102
RTVSPropertyOp4
 70
     1
102
RTVSPropertyOp5
 70
     1
102
RTVSPropertyOp6
 70
     1
102
RTVSPropertyOp7
 70
     1
102
RTVSPropertyOp8
 70
     1
102
RTVSPropertyOp9
 70
     1
102
RTVSPropertyOp10
 70
     1
102
RTVSPropertyOp11
 70
     1
102
RTVSPropertyOp12
 70
     1
102
RTVSPropertyOp13
 70
     1
102
RTVSPropertyOp14
 70
     1
102
RTVSPropertyOp15
 70
     1
102
RTVSPropertyOp16
 70
     1
102
RTVSPropertyOp17
 70
     1
102
RTVSPropertyOp18
 70
     1
102
RTVSPropertyOp19
 70
     1
102
RTVSPropertyOp20
 70
     1
102
RTVSPropertyOp21
 70
     1
102
RTVSPropertyOp22
 70
     1
102
RTVSPropertyOp23
 70
     1
102
RTVSPropertyOp24
 70
     1
102
RTVSPropertyOp25
 70
     1
102
RTVSPropertyOp26
 70
     1
102
RTVSPropertyOp27
 70
     1
102
RTVSPropertyOp28
 70
     1
102
RTVSPropertyOp29
 70
     1
102
RTVSPropertyOp30
 70
     1
102
RTVSPropertyOp31
 70
     1
102
RTVSPropertyOp32
 70
     1
102
RTVSPropertyOp33
 70
     1
102
RTVSPropertyOp34
 70
     1
102
RTVSPropertyOp35
 70
     1
102
RTVSPropertyOp36
 70
     1
102
RTVSPropertyOp37
 70
     1
102
RTVSPropertyOp38
 70
     1
102
RTVSPropertyOp39
 70
     1
102
RTVSPropertyOp40
 70
     1
102
RTVSPropertyOp41
 70
     1
102
RTVSPropertyOp42
 70
     1
102
RTVSPropertyOp43
 70
     1
102
RTVSPropertyOp44
 70
     1
102
RTVSPropertyOp45
 70
     1
102
RTVSPropertyOp46
 70
     1
102
RTVSPropertyOp47
 70
     1
102
RTVSPropertyOp48
 70
     1
102
RTVSPropertyOp49
 70
     1
102
RTVSPropertyOp50
 70
     1
102
RTVSPropertyOp51
 70
     0
102
RTVSPropertyOp52
 70
     0
102
RTVSPropertyOp53
 70
     1
102
RTVSPropertyOp54
 70
     1
102
RTVSPropertyOp55
 70
     1
102
RTVSPropertyOp56
 70
     1
102
RTVSPropertyOp57
 70
     1
102
RTVSPost2010Prop28
280
     0
102
RTVSPost2010PropOp28
 70
     1
102
RTVSPost2010Prop29
280
     1
102
RTVSPost2010PropOp29
 70
     1
102
RTVSPost2010Prop30
280
     1
102
RTVSPost2010PropOp30
 70
     1
102
RTVSPost2010Prop31
280
     0
102
RTVSPost2010PropOp31
 70
     1
102
RTVSPost2010Prop32
280
     0
102
RTVSPost2010PropOp32
 70
     1
102
RTVSPost2010Prop33
280
     0
102
RTVSPost2010PropOp33
 70
     1
102
RTVSPost2010Prop34
280
     0
102
RTVSPost2010PropOp34
 70
     1
102
RTVSPost2010Prop35
280
     0
102
RTVSPost2010PropOp35
 70
     1
102
RTVSPost2010Prop36
280
     0
102
RTVSPost2010PropOp36
 70
     1
102
RTVSPost2010Prop37
 90
       50
102
RTVSPost2010PropOp37
 70
     1
102
RTVSPost2010Prop38
140
0.0
102
RTVSPost2010PropOp38
 70
     1
102
RTVSPost2010Prop39
140
1.0
102
RTVSPost2010PropOp39
 70
     1
102
RTVSPost2010Prop40
 90
        0
102
RTVSPost2010PropOp40
 70
     1
102
RTVSPost2010Prop41ColorIndex
 90
       18
102
RTVSPost2010Prop41ColorRGB
 90
        0
102
RTVSPost2010PropOp41
 70
     1
102
RTVSPost2010Prop42
 90
       50
102
RTVSPost2010PropOp42
 70
     1
102
RTVSPost2010Prop43
 90
        3
102
RTVSPost2010PropOp43
 70
     1
102
RTVSPost2010Prop44ColorIndex
 90
        5
102
RTVSPost2010Prop44ColorRGB
 90
      255
102
RTVSPost2010PropOp44
 70
     1
102
RTVSPost2010Prop45
280
     0
102
RTVSPost2010PropOp45
 70
     1
102
RTVSPost2010Prop46
 90
       50
102
RTVSPost2010PropOp46
 70
     1
102
RTVSPost2010Prop47
 90
       50
102
RTVSPost2010PropOp47
 70
     1
102
RTVSPost2010Prop48
 90
       50
102
RTVSPost2010PropOp48
 70
     1
102
RTVSPost2010Prop49
280
     0
102
RTVSPost2010PropOp49
 70
     1
102
RTVSPost2010Prop50
 90
       50
102
RTVSPost2010PropOp50
 70
     1
102
RTVSPost2010Prop51ColorIndex
 90
      256
102
RTVSPost2010Prop51ColorRGB
 90
-16777216
102
RTVSPost2010PropOp51
 70
     0
102
RTVSPost2010Prop52
140
1.0
102
RTVSPost2010PropOp52
 70
     0
102
RTVSPost2010Prop53
 90
        2
102
RTVSPost2010PropOp53
 70
     1
102
RTVSPost2010Prop54
  1
strokes_ogs.tif
102
RTVSPost2010PropOp54
 70
     1
102
RTVSPost2010Prop55
280
     0
102
RTVSPost2010PropOp55
 70
     1
102
RTVSPost2010Prop56
140
1.0
102
RTVSPost2010PropOp56
 70
     1
102
RTVSPost2010Prop57
140
1.0
102
RTVSPost2010PropOp57
 70
     1
  0
XRECORD
  5
DA
102
{ACAD_REACTORS
330
D9
102
}
330
D9
100
AcDbXrecord
280
     1
102
RTVSPropertyOp0
 70
     1
102
RTVSPropertyOp1
 70
     1
102
RTVSPropertyOp2
 70
     1
102
RTVSPropertyOp3
 70
     1
102
RTVSPropertyOp4
 70
     1
102
RTVSPropertyOp5
 70
     1
102
RTVSPropertyOp6
 70
     1
102
RTVSPropertyOp7
 70
     1
102
RTVSPropertyOp8
 70
     1
102
RTVSPropertyOp9
 70
     1
102
RTVSPropertyOp10
 70
     1
102
RTVSPropertyOp11
 70
     1
102
RTVSPropertyOp12
 70
     1
102
RTVSPropertyOp13
 70
     1
102
RTVSPropertyOp14
 70
     1
102
RTVSPropertyOp15
 70
     1
102
RTVSPropertyOp16
 70
     1
102
RTVSPropertyOp17
 70
     1
102
RTVSPropertyOp18
 70
     1
102
RTVSPropertyOp19
 70
     1
102
RTVSPropertyOp20
 70
     1
102
RTVSPropertyOp21
 70
     1
102
RTVSPropertyOp22
 70
     1
102
RTVSPropertyOp23
 70
     1
102
RTVSPropertyOp24
 70
     1
102
RTVSPropertyOp25
 70
     1
102
RTVSPropertyOp26
 70
     1
102
RTVSPropertyOp27
 70
     1
102
RTVSPropertyOp28
 70
     1
102
RTVSPropertyOp29
 70
     1
102
RTVSPropertyOp30
 70
     1
102
RTVSPropertyOp31
 70
     1
102
RTVSPropertyOp32
 70
     1
102
RTVSPropertyOp33
 70
     1
102
RTVSPropertyOp34
 70
     1
102
RTVSPropertyOp35
 70
     1
102
RTVSPropertyOp36
 70
     1
102
RTVSPropertyOp37
 70
     1
102
RTVSPropertyOp38
 70
     1
102
RTVSPropertyOp39
 70
     1
102
RTVSPropertyOp40
 70
     1
102
RTVSPropertyOp41
 70
     1
102
RTVSPropertyOp42
 70
     1
102
RTVSPropertyOp43
 70
     1
102
RTVSPropertyOp44
 70
     1
102
RTVSPropertyOp45
 70
     1
102
RTVSPropertyOp46
 70
     1
102
RTVSPropertyOp47
 70
     1
102
RTVSPropertyOp48
 70
     1
102
RTVSPropertyOp49
 70
     1
102
RTVSPropertyOp50
 70
     1
102
RTVSPropertyOp51
 70
     0
102
RTVSPropertyOp52
 70
     0
102
RTVSPropertyOp53
 70
     1
102
RTVSPropertyOp54
 70
     1
102
RTVSPropertyOp55
 70
     1
102
RTVSPropertyOp56
 70
     1
102
RTVSPropertyOp57
 70
     1
102
RTVSPost2010Prop28
280
     0
102
RTVSPost2010PropOp28
 70
     1
102
RTVSPost2010Prop29
280
     1
102
RTVSPost2010PropOp29
 70
     1
102
RTVSPost2010Prop30
280
     1
102
RTVSPost2010PropOp30
 70
     1
102
RTVSPost2010Prop31
280
     0
102
RTVSPost2010PropOp31
 70
     1
102
RTVSPost2010Prop32
280
     0
102
RTVSPost2010PropOp32
 70
     1
102
RTVSPost2010Prop33
280
     0
102
RTVSPost2010PropOp33
 70
     1
102
RTVSPost2010Prop34
280
     0
102
RTVSPost2010PropOp34
 70
     1
102
RTVSPost2010Prop35
280
     0
102
RTVSPost2010PropOp35
 70
     1
102
RTVSPost2010Prop36
280
     0
102
RTVSPost2010PropOp36
 70
     1
102
RTVSPost2010Prop37
 90
       50
102
RTVSPost2010PropOp37
 70
     1
102
RTVSPost2010Prop38
140
0.0
102
RTVSPost2010PropOp38
 70
     1
102
RTVSPost2010Prop39
140
1.0
102
RTVSPost2010PropOp39
 70
     1
102
RTVSPost2010Prop40
 90
        0
102
RTVSPost2010PropOp40
 70
     1
102
RTVSPost2010Prop41ColorIndex
 90
       18
102
RTVSPost2010Prop41ColorRGB
 90
        0
102
RTVSPost2010PropOp41
 70
     1
102
RTVSPost2010Prop42
 90
       50
102
RTVSPost2010PropOp42
 70
     1
102
RTVSPost2010Prop43
 90
        3
102
RTVSPost2010PropOp43
 70
     1
102
RTVSPost2010Prop44ColorIndex
 90
        5
102
RTVSPost2010Prop44ColorRGB
 90
      255
102
RTVSPost2010PropOp44
 70
     1
102
RTVSPost2010Prop45
280
     0
102
RTVSPost2010PropOp45
 70
     1
102
RTVSPost2010Prop46
 90
       50
102
RTVSPost2010PropOp46
 70
     1
102
RTVSPost2010Prop47
 90
       50
102
RTVSPost2010PropOp47
 70
     1
102
RTVSPost2010Prop48
 90
       50
102
RTVSPost2010PropOp48
 70
     1
102
RTVSPost2010Prop49
280
     0
102
RTVSPost2010PropOp49
 70
     1
102
RTVSPost2010Prop50
 90
       50
102
RTVSPost2010PropOp50
 70
     1
102
RTVSPost2010Prop51ColorIndex
 90
      256
102
RTVSPost2010Prop51ColorRGB
 90
-16777216
102
RTVSPost2010PropOp51
 70
     0
102
RTVSPost2010Prop52
140
1.0
102
RTVSPost2010PropOp52
 70
     0
102
RTVSPost2010Prop53
 90
        2
102
RTVSPost2010PropOp53
 70
     1
102
RTVSPost2010Prop54
  1
strokes_ogs.tif
102
RTVSPost2010PropOp54
 70
     1
102
RTVSPost2010Prop55
280
     0
102
RTVSPost2010PropOp55
 70
     1
102
RTVSPost2010Prop56
140
1.0
102
RTVSPost2010PropOp56
 70
     1
102
RTVSPost2010Prop57
140
1.0
102
RTVSPost2010PropOp57
 70
     1
  0
XRECORD
  5
D8
102
{ACAD_REACTORS
330
D7
102
}
330
D7
100
AcDbXrecord
280
     1
102
RTVSPropertyOp0
 70
     1
102
RTVSPropertyOp1
 70
     1
102
RTVSPropertyOp2
 70
     1
102
RTVSPropertyOp3
 70
     1
102
RTVSPropertyOp4
 70
     1
102
RTVSPropertyOp5
 70
     1
102
RTVSPropertyOp6
 70
     1
102
RTVSPropertyOp7
 70
     1
102
RTVSPropertyOp8
 70
     1
102
RTVSPropertyOp9
 70
     1
102
RTVSPropertyOp10
 70
     1
102
RTVSPropertyOp11
 70
     1
102
RTVSPropertyOp12
 70
     1
102
RTVSPropertyOp13
 70
     1
102
RTVSPropertyOp14
 70
     1
102
RTVSPropertyOp15
 70
     1
102
RTVSPropertyOp16
 70
     1
102
RTVSPropertyOp17
 70
     1
102
RTVSPropertyOp18
 70
     1
102
RTVSPropertyOp19
 70
     1
102
RTVSPropertyOp20
 70
     1
102
RTVSPropertyOp21
 70
     1
102
RTVSPropertyOp22
 70
     1
102
RTVSPropertyOp23
 70
     1
102
RTVSPropertyOp24
 70
     1
102
RTVSPropertyOp25
 70
     1
102
RTVSPropertyOp26
 70
     1
102
RTVSPropertyOp27
 70
     1
102
RTVSPropertyOp28
 70
     1
102
RTVSPropertyOp29
 70
     1
102
RTVSPropertyOp30
 70
     1
102
RTVSPropertyOp31
 70
     1
102
RTVSPropertyOp32
 70
     1
102
RTVSPropertyOp33
 70
     1
102
RTVSPropertyOp34
 70
     1
102
RTVSPropertyOp35
 70
     1
102
RTVSPropertyOp36
 70
     1
102
RTVSPropertyOp37
 70
     1
102
RTVSPropertyOp38
 70
     1
102
RTVSPropertyOp39
 70
     1
102
RTVSPropertyOp40
 70
     1
102
RTVSPropertyOp41
 70
     1
102
RTVSPropertyOp42
 70
     1
102
RTVSPropertyOp43
 70
     1
102
RTVSPropertyOp44
 70
     1
102
RTVSPropertyOp45
 70
     1
102
RTVSPropertyOp46
 70
     1
102
RTVSPropertyOp47
 70
     1
102
RTVSPropertyOp48
 70
     1
102
RTVSPropertyOp49
 70
     1
102
RTVSPropertyOp50
 70
     1
102
RTVSPropertyOp51
 70
     0
102
RTVSPropertyOp52
 70
     0
102
RTVSPropertyOp53
 70
     1
102
RTVSPropertyOp54
 70
     1
102
RTVSPropertyOp55
 70
     1
102
RTVSPropertyOp56
 70
     1
102
RTVSPropertyOp57
 70
     1
102
RTVSPost2010Prop28
280
     0
102
RTVSPost2010PropOp28
 70
     1
102
RTVSPost2010Prop29
280
     1
102
RTVSPost2010PropOp29
 70
     1
102
RTVSPost2010Prop30
280
     1
102
RTVSPost2010PropOp30
 70
     1
102
RTVSPost2010Prop31
280
     0
102
RTVSPost2010PropOp31
 70
     1
102
RTVSPost2010Prop32
280
     0
102
RTVSPost2010PropOp32
 70
     1
102
RTVSPost2010Prop33
280
     0
102
RTVSPost2010PropOp33
 70
     1
102
RTVSPost2010Prop34
280
     0
102
RTVSPost2010PropOp34
 70
     1
102
RTVSPost2010Prop35
280
     0
102
RTVSPost2010PropOp35
 70
     1
102
RTVSPost2010Prop36
280
     0
102
RTVSPost2010PropOp36
 70
     1
102
RTVSPost2010Prop37
 90
       50
102
RTVSPost2010PropOp37
 70
     1
102
RTVSPost2010Prop38
140
0.0
102
RTVSPost2010PropOp38
 70
     1
102
RTVSPost2010Prop39
140
1.0
102
RTVSPost2010PropOp39
 70
     1
102
RTVSPost2010Prop40
 90
        0
102
RTVSPost2010PropOp40
 70
     1
102
RTVSPost2010Prop41ColorIndex
 90
       18
102
RTVSPost2010Prop41ColorRGB
 90
        0
102
RTVSPost2010PropOp41
 70
     1
102
RTVSPost2010Prop42
 90
       50
102
RTVSPost2010PropOp42
 70
     1
102
RTVSPost2010Prop43
 90
        3
102
RTVSPost2010PropOp43
 70
     1
102
RTVSPost2010Prop44ColorIndex
 90
        5
102
RTVSPost2010Prop44ColorRGB
 90
      255
102
RTVSPost2010PropOp44
 70
     1
102
RTVSPost2010Prop45
280
     0
102
RTVSPost2010PropOp45
 70
     1
102
RTVSPost2010Prop46
 90
       50
102
RTVSPost2010PropOp46
 70
     1
102
RTVSPost2010Prop47
 90
       50
102
RTVSPost2010PropOp47
 70
     1
102
RTVSPost2010Prop48
 90
       50
102
RTVSPost2010PropOp48
 70
     1
102
RTVSPost2010Prop49
280
     0
102
RTVSPost2010PropOp49
 70
     1
102
RTVSPost2010Prop50
 90
       50
102
RTVSPost2010PropOp50
 70
     1
102
RTVSPost2010Prop51ColorIndex
 90
      256
102
RTVSPost2010Prop51ColorRGB
 90
-16777216
102
RTVSPost2010PropOp51
 70
     0
102
RTVSPost2010Prop52
140
1.0
102
RTVSPost2010PropOp52
 70
     0
102
RTVSPost2010Prop53
 90
        2
102
RTVSPost2010PropOp53
 70
     1
102
RTVSPost2010Prop54
  1
strokes_ogs.tif
102
RTVSPost2010PropOp54
 70
     1
102
RTVSPost2010Prop55
280
     0
102
RTVSPost2010PropOp55
 70
     1
102
RTVSPost2010Prop56
140
1.0
102
RTVSPost2010PropOp56
 70
     1
102
RTVSPost2010Prop57
140
1.0
102
RTVSPost2010PropOp57
 70
     1
  0
XRECORD
  5
D2
102
{ACAD_REACTORS
330
D1
102
}
330
D1
100
AcDbXrecord
280
     1
102
RTVSPropertyOp0
 70
     1
102
RTVSPropertyOp1
 70
     1
102
RTVSPropertyOp2
 70
     1
102
RTVSPropertyOp3
 70
     1
102
RTVSPropertyOp4
 70
     1
102
RTVSPropertyOp5
 70
     1
102
RTVSPropertyOp6
 70
     1
102
RTVSPropertyOp7
 70
     1
102
RTVSPropertyOp8
 70
     1
102
RTVSPropertyOp9
 70
     1
102
RTVSPropertyOp10
 70
     1
102
RTVSPropertyOp11
 70
     1
102
RTVSPropertyOp12
 70
     1
102
RTVSPropertyOp13
 70
     1
102
RTVSPropertyOp14
 70
     1
102
RTVSPropertyOp15
 70
     1
102
RTVSPropertyOp16
 70
     1
102
RTVSPropertyOp17
 70
     1
102
RTVSPropertyOp18
 70
     1
102
RTVSPropertyOp19
 70
     1
102
RTVSPropertyOp20
 70
     1
102
RTVSPropertyOp21
 70
     1
102
RTVSPropertyOp22
 70
     1
102
RTVSPropertyOp23
 70
     1
102
RTVSPropertyOp24
 70
     1
102
RTVSPropertyOp25
 70
     1
102
RTVSPropertyOp26
 70
     1
102
RTVSPropertyOp27
 70
     1
102
RTVSPropertyOp28
 70
     1
102
RTVSPropertyOp29
 70
     1
102
RTVSPropertyOp30
 70
     1
102
RTVSPropertyOp31
 70
     1
102
RTVSPropertyOp32
 70
     1
102
RTVSPropertyOp33
 70
     1
102
RTVSPropertyOp34
 70
     1
102
RTVSPropertyOp35
 70
     1
102
RTVSPropertyOp36
 70
     1
102
RTVSPropertyOp37
 70
     1
102
RTVSPropertyOp38
 70
     1
102
RTVSPropertyOp39
 70
     1
102
RTVSPropertyOp40
 70
     1
102
RTVSPropertyOp41
 70
     1
102
RTVSPropertyOp42
 70
     1
102
RTVSPropertyOp43
 70
     1
102
RTVSPropertyOp44
 70
     1
102
RTVSPropertyOp45
 70
     1
102
RTVSPropertyOp46
 70
     1
102
RTVSPropertyOp47
 70
     1
102
RTVSPropertyOp48
 70
     1
102
RTVSPropertyOp49
 70
     1
102
RTVSPropertyOp50
 70
     1
102
RTVSPropertyOp51
 70
     0
102
RTVSPropertyOp52
 70
     0
102
RTVSPropertyOp53
 70
     1
102
RTVSPropertyOp54
 70
     1
102
RTVSPropertyOp55
 70
     1
102
RTVSPropertyOp56
 70
     1
102
RTVSPropertyOp57
 70
     1
102
RTVSPost2010Prop28
280
     0
102
RTVSPost2010PropOp28
 70
     1
102
RTVSPost2010Prop29
280
     1
102
RTVSPost2010PropOp29
 70
     1
102
RTVSPost2010Prop30
280
     1
102
RTVSPost2010PropOp30
 70
     1
102
RTVSPost2010Prop31
280
     0
102
RTVSPost2010PropOp31
 70
     1
102
RTVSPost2010Prop32
280
     0
102
RTVSPost2010PropOp32
 70
     1
102
RTVSPost2010Prop33
280
     0
102
RTVSPost2010PropOp33
 70
     1
102
RTVSPost2010Prop34
280
     0
102
RTVSPost2010PropOp34
 70
     1
102
RTVSPost2010Prop35
280
     0
102
RTVSPost2010PropOp35
 70
     1
102
RTVSPost2010Prop36
280
     0
102
RTVSPost2010PropOp36
 70
     1
102
RTVSPost2010Prop37
 90
       50
102
RTVSPost2010PropOp37
 70
     1
102
RTVSPost2010Prop38
140
0.0
102
RTVSPost2010PropOp38
 70
     1
102
RTVSPost2010Prop39
140
1.0
102
RTVSPost2010PropOp39
 70
     1
102
RTVSPost2010Prop40
 90
        0
102
RTVSPost2010PropOp40
 70
     1
102
RTVSPost2010Prop41ColorIndex
 90
       18
102
RTVSPost2010Prop41ColorRGB
 90
        0
102
RTVSPost2010PropOp41
 70
     1
102
RTVSPost2010Prop42
 90
       50
102
RTVSPost2010PropOp42
 70
     1
102
RTVSPost2010Prop43
 90
        3
102
RTVSPost2010PropOp43
 70
     1
102
RTVSPost2010Prop44ColorIndex
 90
        5
102
RTVSPost2010Prop44ColorRGB
 90
      255
102
RTVSPost2010PropOp44
 70
     1
102
RTVSPost2010Prop45
280
     0
102
RTVSPost2010PropOp45
 70
     1
102
RTVSPost2010Prop46
 90
       50
102
RTVSPost2010PropOp46
 70
     1
102
RTVSPost2010Prop47
 90
       50
102
RTVSPost2010PropOp47
 70
     1
102
RTVSPost2010Prop48
 90
       50
102
RTVSPost2010PropOp48
 70
     1
102
RTVSPost2010Prop49
280
     0
102
RTVSPost2010PropOp49
 70
     1
102
RTVSPost2010Prop50
 90
       50
102
RTVSPost2010PropOp50
 70
     1
102
RTVSPost2010Prop51ColorIndex
 90
      256
102
RTVSPost2010Prop51ColorRGB
 90
-16777216
102
RTVSPost2010PropOp51
 70
     0
102
RTVSPost2010Prop52
140
1.0
102
RTVSPost2010PropOp52
 70
     0
102
RTVSPost2010Prop53
 90
        2
102
RTVSPost2010PropOp53
 70
     1
102
RTVSPost2010Prop54
  1
strokes_ogs.tif
102
RTVSPost2010PropOp54
 70
     1
102
RTVSPost2010Prop55
280
     0
102
RTVSPost2010PropOp55
 70
     1
102
RTVSPost2010Prop56
140
1.0
102
RTVSPost2010PropOp56
 70
     1
102
RTVSPost2010Prop57
140
1.0
102
RTVSPost2010PropOp57
 70
     1
  0
XRECORD
  5
D4
102
{ACAD_REACTORS
330
D3
102
}
330
D3
100
AcDbXrecord
280
     1
102
RTVSPropertyOp0
 70
     1
102
RTVSPropertyOp1
 70
     1
102
RTVSPropertyOp2
 70
     1
102
RTVSPropertyOp3
 70
     1
102
RTVSPropertyOp4
 70
     1
102
RTVSPropertyOp5
 70
     1
102
RTVSPropertyOp6
 70
     1
102
RTVSPropertyOp7
 70
     1
102
RTVSPropertyOp8
 70
     1
102
RTVSPropertyOp9
 70
     1
102
RTVSPropertyOp10
 70
     1
102
RTVSPropertyOp11
 70
     1
102
RTVSPropertyOp12
 70
     1
102
RTVSPropertyOp13
 70
     1
102
RTVSPropertyOp14
 70
     1
102
RTVSPropertyOp15
 70
     1
102
RTVSPropertyOp16
 70
     1
102
RTVSPropertyOp17
 70
     1
102
RTVSPropertyOp18
 70
     1
102
RTVSPropertyOp19
 70
     1
102
RTVSPropertyOp20
 70
     1
102
RTVSPropertyOp21
 70
     1
102
RTVSPropertyOp22
 70
     1
102
RTVSPropertyOp23
 70
     1
102
RTVSPropertyOp24
 70
     1
102
RTVSPropertyOp25
 70
     1
102
RTVSPropertyOp26
 70
     1
102
RTVSPropertyOp27
 70
     1
102
RTVSPropertyOp28
 70
     1
102
RTVSPropertyOp29
 70
     1
102
RTVSPropertyOp30
 70
     1
102
RTVSPropertyOp31
 70
     1
102
RTVSPropertyOp32
 70
     1
102
RTVSPropertyOp33
 70
     1
102
RTVSPropertyOp34
 70
     1
102
RTVSPropertyOp35
 70
     1
102
RTVSPropertyOp36
 70
     1
102
RTVSPropertyOp37
 70
     1
102
RTVSPropertyOp38
 70
     1
102
RTVSPropertyOp39
 70
     1
102
RTVSPropertyOp40
 70
     1
102
RTVSPropertyOp41
 70
     1
102
RTVSPropertyOp42
 70
     1
102
RTVSPropertyOp43
 70
     1
102
RTVSPropertyOp44
 70
     1
102
RTVSPropertyOp45
 70
     1
102
RTVSPropertyOp46
 70
     1
102
RTVSPropertyOp47
 70
     1
102
RTVSPropertyOp48
 70
     1
102
RTVSPropertyOp49
 70
     1
102
RTVSPropertyOp50
 70
     1
102
RTVSPropertyOp51
 70
     0
102
RTVSPropertyOp52
 70
     0
102
RTVSPropertyOp53
 70
     1
102
RTVSPropertyOp54
 70
     1
102
RTVSPropertyOp55
 70
     1
102
RTVSPropertyOp56
 70
     1
102
RTVSPropertyOp57
 70
     1
102
RTVSPost2010Prop28
280
     0
102
RTVSPost2010PropOp28
 70
     1
102
RTVSPost2010Prop29
280
     1
102
RTVSPost2010PropOp29
 70
     1
102
RTVSPost2010Prop30
280
     1
102
RTVSPost2010PropOp30
 70
     1
102
RTVSPost2010Prop31
280
     0
102
RTVSPost2010PropOp31
 70
     1
102
RTVSPost2010Prop32
280
     0
102
RTVSPost2010PropOp32
 70
     1
102
RTVSPost2010Prop33
280
     0
102
RTVSPost2010PropOp33
 70
     1
102
RTVSPost2010Prop34
280
     0
102
RTVSPost2010PropOp34
 70
     1
102
RTVSPost2010Prop35
280
     0
102
RTVSPost2010PropOp35
 70
     1
102
RTVSPost2010Prop36
280
     0
102
RTVSPost2010PropOp36
 70
     1
102
RTVSPost2010Prop37
 90
       50
102
RTVSPost2010PropOp37
 70
     1
102
RTVSPost2010Prop38
140
0.0
102
RTVSPost2010PropOp38
 70
     1
102
RTVSPost2010Prop39
140
1.0
102
RTVSPost2010PropOp39
 70
     1
102
RTVSPost2010Prop40
 90
        0
102
RTVSPost2010PropOp40
 70
     1
102
RTVSPost2010Prop41ColorIndex
 90
       18
102
RTVSPost2010Prop41ColorRGB
 90
        0
102
RTVSPost2010PropOp41
 70
     1
102
RTVSPost2010Prop42
 90
       50
102
RTVSPost2010PropOp42
 70
     1
102
RTVSPost2010Prop43
 90
        3
102
RTVSPost2010PropOp43
 70
     1
102
RTVSPost2010Prop44ColorIndex
 90
        5
102
RTVSPost2010Prop44ColorRGB
 90
      255
102
RTVSPost2010PropOp44
 70
     1
102
RTVSPost2010Prop45
280
     0
102
RTVSPost2010PropOp45
 70
     1
102
RTVSPost2010Prop46
 90
       50
102
RTVSPost2010PropOp46
 70
     1
102
RTVSPost2010Prop47
 90
       50
102
RTVSPost2010PropOp47
 70
     1
102
RTVSPost2010Prop48
 90
       50
102
RTVSPost2010PropOp48
 70
     1
102
RTVSPost2010Prop49
280
     0
102
RTVSPost2010PropOp49
 70
     1
102
RTVSPost2010Prop50
 90
       50
102
RTVSPost2010PropOp50
 70
     1
102
RTVSPost2010Prop51ColorIndex
 90
      256
102
RTVSPost2010Prop51ColorRGB
 90
-16777216
102
RTVSPost2010PropOp51
 70
     0
102
RTVSPost2010Prop52
140
1.0
102
RTVSPost2010PropOp52
 70
     0
102
RTVSPost2010Prop53
 90
        2
102
RTVSPost2010PropOp53
 70
     1
102
RTVSPost2010Prop54
  1
strokes_ogs.tif
102
RTVSPost2010PropOp54
 70
     1
102
RTVSPost2010Prop55
280
     0
102
RTVSPost2010PropOp55
 70
     1
102
RTVSPost2010Prop56
140
1.0
102
RTVSPost2010PropOp56
 70
     1
102
RTVSPost2010Prop57
140
1.0
102
RTVSPost2010PropOp57
 70
     1
  0
XRECORD
  5
C4
102
{ACAD_REACTORS
330
C3
102
}
330
C3
100
AcDbXrecord
280
     1
102
RTVSPropertyOp0
 70
     1
102
RTVSPropertyOp1
 70
     1
102
RTVSPropertyOp2
 70
     1
102
RTVSPropertyOp3
 70
     1
102
RTVSPropertyOp4
 70
     1
102
RTVSPropertyOp5
 70
     1
102
RTVSPropertyOp6
 70
     1
102
RTVSPropertyOp7
 70
     1
102
RTVSPropertyOp8
 70
     1
102
RTVSPropertyOp9
 70
     1
102
RTVSPropertyOp10
 70
     1
102
RTVSPropertyOp11
 70
     1
102
RTVSPropertyOp12
 70
     1
102
RTVSPropertyOp13
 70
     1
102
RTVSPropertyOp14
 70
     1
102
RTVSPropertyOp15
 70
     1
102
RTVSPropertyOp16
 70
     1
102
RTVSPropertyOp17
 70
     1
102
RTVSPropertyOp18
 70
     1
102
RTVSPropertyOp19
 70
     1
102
RTVSPropertyOp20
 70
     1
102
RTVSPropertyOp21
 70
     1
102
RTVSPropertyOp22
 70
     1
102
RTVSPropertyOp23
 70
     1
102
RTVSPropertyOp24
 70
     1
102
RTVSPropertyOp25
 70
     1
102
RTVSPropertyOp26
 70
     1
102
RTVSPropertyOp27
 70
     1
102
RTVSPropertyOp28
 70
     1
102
RTVSPropertyOp29
 70
     1
102
RTVSPropertyOp30
 70
     1
102
RTVSPropertyOp31
 70
     1
102
RTVSPropertyOp32
 70
     1
102
RTVSPropertyOp33
 70
     1
102
RTVSPropertyOp34
 70
     1
102
RTVSPropertyOp35
 70
     1
102
RTVSPropertyOp36
 70
     1
102
RTVSPropertyOp37
 70
     1
102
RTVSPropertyOp38
 70
     1
102
RTVSPropertyOp39
 70
     1
102
RTVSPropertyOp40
 70
     1
102
RTVSPropertyOp41
 70
     1
102
RTVSPropertyOp42
 70
     1
102
RTVSPropertyOp43
 70
     1
102
RTVSPropertyOp44
 70
     1
102
RTVSPropertyOp45
 70
     1
102
RTVSPropertyOp46
 70
     1
102
RTVSPropertyOp47
 70
     1
102
RTVSPropertyOp48
 70
     1
102
RTVSPropertyOp49
 70
     1
102
RTVSPropertyOp50
 70
     1
102
RTVSPropertyOp51
 70
     0
102
RTVSPropertyOp52
 70
     0
102
RTVSPropertyOp53
 70
     1
102
RTVSPropertyOp54
 70
     1
102
RTVSPropertyOp55
 70
     1
102
RTVSPropertyOp56
 70
     1
102
RTVSPropertyOp57
 70
     1
102
RTVSPost2010Prop28
280
     0
102
RTVSPost2010PropOp28
 70
     1
102
RTVSPost2010Prop29
280
     1
102
RTVSPost2010PropOp29
 70
     1
102
RTVSPost2010Prop30
280
     1
102
RTVSPost2010PropOp30
 70
     1
102
RTVSPost2010Prop31
280
     0
102
RTVSPost2010PropOp31
 70
     1
102
RTVSPost2010Prop32
280
     0
102
RTVSPost2010PropOp32
 70
     1
102
RTVSPost2010Prop33
280
     0
102
RTVSPost2010PropOp33
 70
     1
102
RTVSPost2010Prop34
280
     0
102
RTVSPost2010PropOp34
 70
     1
102
RTVSPost2010Prop35
280
     0
102
RTVSPost2010PropOp35
 70
     1
102
RTVSPost2010Prop36
280
     0
102
RTVSPost2010PropOp36
 70
     1
102
RTVSPost2010Prop37
 90
       50
102
RTVSPost2010PropOp37
 70
     1
102
RTVSPost2010Prop38
140
0.0
102
RTVSPost2010PropOp38
 70
     1
102
RTVSPost2010Prop39
140
1.0
102
RTVSPost2010PropOp39
 70
     1
102
RTVSPost2010Prop40
 90
        0
102
RTVSPost2010PropOp40
 70
     1
102
RTVSPost2010Prop41ColorIndex
 90
       18
102
RTVSPost2010Prop41ColorRGB
 90
        0
102
RTVSPost2010PropOp41
 70
     1
102
RTVSPost2010Prop42
 90
       50
102
RTVSPost2010PropOp42
 70
     1
102
RTVSPost2010Prop43
 90
        3
102
RTVSPost2010PropOp43
 70
     1
102
RTVSPost2010Prop44ColorIndex
 90
        5
102
RTVSPost2010Prop44ColorRGB
 90
      255
102
RTVSPost2010PropOp44
 70
     1
102
RTVSPost2010Prop45
280
     0
102
RTVSPost2010PropOp45
 70
     1
102
RTVSPost2010Prop46
 90
       50
102
RTVSPost2010PropOp46
 70
     1
102
RTVSPost2010Prop47
 90
       50
102
RTVSPost2010PropOp47
 70
     1
102
RTVSPost2010Prop48
 90
       50
102
RTVSPost2010PropOp48
 70
     1
102
RTVSPost2010Prop49
280
     0
102
RTVSPost2010PropOp49
 70
     1
102
RTVSPost2010Prop50
 90
       50
102
RTVSPost2010PropOp50
 70
     1
102
RTVSPost2010Prop51ColorIndex
 90
      256
102
RTVSPost2010Prop51ColorRGB
 90
-16777216
102
RTVSPost2010PropOp51
 70
     0
102
RTVSPost2010Prop52
140
1.0
102
RTVSPost2010PropOp52
 70
     0
102
RTVSPost2010Prop53
 90
        2
102
RTVSPost2010PropOp53
 70
     1
102
RTVSPost2010Prop54
  1
strokes_ogs.tif
102
RTVSPost2010PropOp54
 70
     1
102
RTVSPost2010Prop55
280
     0
102
RTVSPost2010PropOp55
 70
     1
102
RTVSPost2010Prop56
140
1.0
102
RTVSPost2010PropOp56
 70
     1
102
RTVSPost2010Prop57
140
1.0
102
RTVSPost2010PropOp57
 70
     1
  0
XRECORD
  5
B6
102
{ACAD_REACTORS
330
B5
102
}
330
B5
100
AcDbXrecord
280
     1
102
RTVSPropertyOp0
 70
     1
102
RTVSPropertyOp1
 70
     1
102
RTVSPropertyOp2
 70
     1
102
RTVSPropertyOp3
 70
     1
102
RTVSPropertyOp4
 70
     1
102
RTVSPropertyOp5
 70
     1
102
RTVSPropertyOp6
 70
     1
102
RTVSPropertyOp7
 70
     1
102
RTVSPropertyOp8
 70
     1
102
RTVSPropertyOp9
 70
     1
102
RTVSPropertyOp10
 70
     1
102
RTVSPropertyOp11
 70
     1
102
RTVSPropertyOp12
 70
     1
102
RTVSPropertyOp13
 70
     1
102
RTVSPropertyOp14
 70
     1
102
RTVSPropertyOp15
 70
     1
102
RTVSPropertyOp16
 70
     1
102
RTVSPropertyOp17
 70
     1
102
RTVSPropertyOp18
 70
     1
102
RTVSPropertyOp19
 70
     1
102
RTVSPropertyOp20
 70
     1
102
RTVSPropertyOp21
 70
     1
102
RTVSPropertyOp22
 70
     1
102
RTVSPropertyOp23
 70
     1
102
RTVSPropertyOp24
 70
     1
102
RTVSPropertyOp25
 70
     1
102
RTVSPropertyOp26
 70
     1
102
RTVSPropertyOp27
 70
     1
102
RTVSPropertyOp28
 70
     1
102
RTVSPropertyOp29
 70
     1
102
RTVSPropertyOp30
 70
     1
102
RTVSPropertyOp31
 70
     1
102
RTVSPropertyOp32
 70
     1
102
RTVSPropertyOp33
 70
     1
102
RTVSPropertyOp34
 70
     1
102
RTVSPropertyOp35
 70
     1
102
RTVSPropertyOp36
 70
     1
102
RTVSPropertyOp37
 70
     1
102
RTVSPropertyOp38
 70
     1
102
RTVSPropertyOp39
 70
     1
102
RTVSPropertyOp40
 70
     1
102
RTVSPropertyOp41
 70
     1
102
RTVSPropertyOp42
 70
     1
102
RTVSPropertyOp43
 70
     1
102
RTVSPropertyOp44
 70
     1
102
RTVSPropertyOp45
 70
     1
102
RTVSPropertyOp46
 70
     1
102
RTVSPropertyOp47
 70
     1
102
RTVSPropertyOp48
 70
     1
102
RTVSPropertyOp49
 70
     1
102
RTVSPropertyOp50
 70
     1
102
RTVSPropertyOp51
 70
     0
102
RTVSPropertyOp52
 70
     0
102
RTVSPropertyOp53
 70
     1
102
RTVSPropertyOp54
 70
     1
102
RTVSPropertyOp55
 70
     1
102
RTVSPropertyOp56
 70
     1
102
RTVSPropertyOp57
 70
     1
102
RTVSPost2010Prop28
280
     0
102
RTVSPost2010PropOp28
 70
     1
102
RTVSPost2010Prop29
280
     1
102
RTVSPost2010PropOp29
 70
     1
102
RTVSPost2010Prop30
280
     1
102
RTVSPost2010PropOp30
 70
     1
102
RTVSPost2010Prop31
280
     0
102
RTVSPost2010PropOp31
 70
     1
102
RTVSPost2010Prop32
280
     0
102
RTVSPost2010PropOp32
 70
     1
102
RTVSPost2010Prop33
280
     0
102
RTVSPost2010PropOp33
 70
     1
102
RTVSPost2010Prop34
280
     0
102
RTVSPost2010PropOp34
 70
     1
102
RTVSPost2010Prop35
280
     0
102
RTVSPost2010PropOp35
 70
     1
102
RTVSPost2010Prop36
280
     0
102
RTVSPost2010PropOp36
 70
     1
102
RTVSPost2010Prop37
 90
       50
102
RTVSPost2010PropOp37
 70
     1
102
RTVSPost2010Prop38
140
0.0
102
RTVSPost2010PropOp38
 70
     1
102
RTVSPost2010Prop39
140
1.0
102
RTVSPost2010PropOp39
 70
     1
102
RTVSPost2010Prop40
 90
        0
102
RTVSPost2010PropOp40
 70
     1
102
RTVSPost2010Prop41ColorIndex
 90
       18
102
RTVSPost2010Prop41ColorRGB
 90
        0
102
RTVSPost2010PropOp41
 70
     1
102
RTVSPost2010Prop42
 90
       50
102
RTVSPost2010PropOp42
 70
     1
102
RTVSPost2010Prop43
 90
        3
102
RTVSPost2010PropOp43
 70
     1
102
RTVSPost2010Prop44ColorIndex
 90
        5
102
RTVSPost2010Prop44ColorRGB
 90
      255
102
RTVSPost2010PropOp44
 70
     1
102
RTVSPost2010Prop45
280
     0
102
RTVSPost2010PropOp45
 70
     1
102
RTVSPost2010Prop46
 90
       50
102
RTVSPost2010PropOp46
 70
     1
102
RTVSPost2010Prop47
 90
       50
102
RTVSPost2010PropOp47
 70
     1
102
RTVSPost2010Prop48
 90
       50
102
RTVSPost2010PropOp48
 70
     1
102
RTVSPost2010Prop49
280
     0
102
RTVSPost2010PropOp49
 70
     1
102
RTVSPost2010Prop50
 90
       50
102
RTVSPost2010PropOp50
 70
     1
102
RTVSPost2010Prop51ColorIndex
 90
      256
102
RTVSPost2010Prop51ColorRGB
 90
-16777216
102
RTVSPost2010PropOp51
 70
     0
102
RTVSPost2010Prop52
140
1.0
102
RTVSPost2010PropOp52
 70
     0
102
RTVSPost2010Prop53
 90
        2
102
RTVSPost2010PropOp53
 70
     1
102
RTVSPost2010Prop54
  1
strokes_ogs.tif
102
RTVSPost2010PropOp54
 70
     1
102
RTVSPost2010Prop55
280
     0
102
RTVSPost2010PropOp55
 70
     1
102
RTVSPost2010Prop56
140
1.0
102
RTVSPost2010PropOp56
 70
     1
102
RTVSPost2010Prop57
140
1.0
102
RTVSPost2010PropOp57
 70
     1
  0
XRECORD
  5
D6
102
{ACAD_REACTORS
330
D5
102
}
330
D5
100
AcDbXrecord
280
     1
102
RTVSPropertyOp0
 70
     1
102
RTVSPropertyOp1
 70
     1
102
RTVSPropertyOp2
 70
     1
102
RTVSPropertyOp3
 70
     1
102
RTVSPropertyOp4
 70
     1
102
RTVSPropertyOp5
 70
     1
102
RTVSPropertyOp6
 70
     1
102
RTVSPropertyOp7
 70
     1
102
RTVSPropertyOp8
 70
     1
102
RTVSPropertyOp9
 70
     1
102
RTVSPropertyOp10
 70
     1
102
RTVSPropertyOp11
 70
     1
102
RTVSPropertyOp12
 70
     1
102
RTVSPropertyOp13
 70
     1
102
RTVSPropertyOp14
 70
     1
102
RTVSPropertyOp15
 70
     1
102
RTVSPropertyOp16
 70
     1
102
RTVSPropertyOp17
 70
     1
102
RTVSPropertyOp18
 70
     1
102
RTVSPropertyOp19
 70
     1
102
RTVSPropertyOp20
 70
     1
102
RTVSPropertyOp21
 70
     1
102
RTVSPropertyOp22
 70
     1
102
RTVSPropertyOp23
 70
     1
102
RTVSPropertyOp24
 70
     1
102
RTVSPropertyOp25
 70
     1
102
RTVSPropertyOp26
 70
     1
102
RTVSPropertyOp27
 70
     1
102
RTVSPropertyOp28
 70
     1
102
RTVSPropertyOp29
 70
     1
102
RTVSPropertyOp30
 70
     1
102
RTVSPropertyOp31
 70
     1
102
RTVSPropertyOp32
 70
     1
102
RTVSPropertyOp33
 70
     1
102
RTVSPropertyOp34
 70
     1
102
RTVSPropertyOp35
 70
     1
102
RTVSPropertyOp36
 70
     1
102
RTVSPropertyOp37
 70
     1
102
RTVSPropertyOp38
 70
     1
102
RTVSPropertyOp39
 70
     1
102
RTVSPropertyOp40
 70
     1
102
RTVSPropertyOp41
 70
     1
102
RTVSPropertyOp42
 70
     1
102
RTVSPropertyOp43
 70
     1
102
RTVSPropertyOp44
 70
     1
102
RTVSPropertyOp45
 70
     1
102
RTVSPropertyOp46
 70
     1
102
RTVSPropertyOp47
 70
     1
102
RTVSPropertyOp48
 70
     1
102
RTVSPropertyOp49
 70
     1
102
RTVSPropertyOp50
 70
     1
102
RTVSPropertyOp51
 70
     0
102
RTVSPropertyOp52
 70
     0
102
RTVSPropertyOp53
 70
     1
102
RTVSPropertyOp54
 70
     1
102
RTVSPropertyOp55
 70
     1
102
RTVSPropertyOp56
 70
     1
102
RTVSPropertyOp57
 70
     1
102
RTVSPost2010Prop28
280
     0
102
RTVSPost2010PropOp28
 70
     1
102
RTVSPost2010Prop29
280
     1
102
RTVSPost2010PropOp29
 70
     1
102
RTVSPost2010Prop30
280
     1
102
RTVSPost2010PropOp30
 70
     1
102
RTVSPost2010Prop31
280
     0
102
RTVSPost2010PropOp31
 70
     1
102
RTVSPost2010Prop32
280
     0
102
RTVSPost2010PropOp32
 70
     1
102
RTVSPost2010Prop33
280
     0
102
RTVSPost2010PropOp33
 70
     1
102
RTVSPost2010Prop34
280
     0
102
RTVSPost2010PropOp34
 70
     1
102
RTVSPost2010Prop35
280
     0
102
RTVSPost2010PropOp35
 70
     1
102
RTVSPost2010Prop36
280
     0
102
RTVSPost2010PropOp36
 70
     1
102
RTVSPost2010Prop37
 90
       50
102
RTVSPost2010PropOp37
 70
     1
102
RTVSPost2010Prop38
140
0.0
102
RTVSPost2010PropOp38
 70
     1
102
RTVSPost2010Prop39
140
1.0
102
RTVSPost2010PropOp39
 70
     1
102
RTVSPost2010Prop40
 90
        0
102
RTVSPost2010PropOp40
 70
     1
102
RTVSPost2010Prop41ColorIndex
 90
       18
102
RTVSPost2010Prop41ColorRGB
 90
        0
102
RTVSPost2010PropOp41
 70
     1
102
RTVSPost2010Prop42
 90
       50
102
RTVSPost2010PropOp42
 70
     1
102
RTVSPost2010Prop43
 90
        3
102
RTVSPost2010PropOp43
 70
     1
102
RTVSPost2010Prop44ColorIndex
 90
        5
102
RTVSPost2010Prop44ColorRGB
 90
      255
102
RTVSPost2010PropOp44
 70
     1
102
RTVSPost2010Prop45
280
     0
102
RTVSPost2010PropOp45
 70
     1
102
RTVSPost2010Prop46
 90
       50
102
RTVSPost2010PropOp46
 70
     1
102
RTVSPost2010Prop47
 90
       50
102
RTVSPost2010PropOp47
 70
     1
102
RTVSPost2010Prop48
 90
       50
102
RTVSPost2010PropOp48
 70
     1
102
RTVSPost2010Prop49
280
     0
102
RTVSPost2010PropOp49
 70
     1
102
RTVSPost2010Prop50
 90
       50
102
RTVSPost2010PropOp50
 70
     1
102
RTVSPost2010Prop51ColorIndex
 90
      256
102
RTVSPost2010Prop51ColorRGB
 90
-16777216
102
RTVSPost2010PropOp51
 70
     0
102
RTVSPost2010Prop52
140
1.0
102
RTVSPost2010PropOp52
 70
     0
102
RTVSPost2010Prop53
 90
        2
102
RTVSPost2010PropOp53
 70
     1
102
RTVSPost2010Prop54
  1
strokes_ogs.tif
102
RTVSPost2010PropOp54
 70
     1
102
RTVSPost2010Prop55
280
     0
102
RTVSPost2010PropOp55
 70
     1
102
RTVSPost2010Prop56
140
1.0
102
RTVSPost2010PropOp56
 70
     1
102
RTVSPost2010Prop57
140
1.0
102
RTVSPost2010PropOp57
 70
     1
  0
ENDSEC
  0
EOF
