0
SECTION
2
HEADER
9
$EXTMIN
10
0.000000
20
0.000000
9
$EXTMAX
10
48.000000
20
48.000000
0
ENDSEC
0
SECTION
2
TABLES
0
TABLE
2
LTYPE
70
1
0
LTYPE
2
0
70
0
3
Solid Line
72
65
73
0
40
0.0
0
ENDTAB
0
TABLE
2
LAYER
70
1
0
LAYER
2
1
70
0
62
7
6
0
0
ENDTAB
0
ENDSEC
0
SECTION
2
BLOCKS
0
ENDSEC
0
SECTION
2
ENTITIES
0
POLYLINE
8
1
66
1
70
1
0
VERTEX
8
1
10
20.834358
20
28.309134
0
VERTEX
8
1
10
21.076258
20
28.974352
0
VERTEX
8
1
10
25.995613
20
33.895454
0
VERTEX
8
1
10
22.418993
20
37.472076
0
VERTEX
8
1
10
22.414070
20
37.478752
42
0.179840
0
VERTEX
8
1
10
23.832792
20
38.441978
42
0.068320
0
VERTEX
8
1
10
24.322908
20
39.349640
42
0.113784
0
VERTEX
8
1
10
24.625206
20
41.412361
42
0.075093
0
VERTEX
8
1
10
24.435331
20
42.191437
42
0.150896
0
VERTEX
8
1
10
23.704060
20
43.067947
0
VERTEX
8
1
10
23.653112
20
43.099251
0
VERTEX
8
1
10
23.601170
20
43.128883
42
0.112237
0
VERTEX
8
1
10
22.645870
20
43.382889
42
0.051690
0
VERTEX
8
1
10
21.560230
20
43.306976
0
VERTEX
8
1
10
21.037565
20
43.200417
0
VERTEX
8
1
10
20.950880
20
42.745651
42
0.213966
0
VERTEX
8
1
10
19.807451
20
43.405380
42
0.217882
0
VERTEX
8
1
10
18.158377
20
42.886230
42
0.048756
0
VERTEX
8
1
10
17.837769
20
42.545166
42
0.177972
0
VERTEX
8
1
10
16.991901
20
43.243340
42
0.055311
0
VERTEX
8
1
10
16.534187
20
43.356873
0
VERTEX
8
1
10
13.998641
20
45.892418
0
VERTEX
8
1
10
13.994325
20
45.893723
0
VERTEX
8
1
10
11.465623
20
43.365784
0
VERTEX
8
1
10
10.732036
20
43.365784
0
VERTEX
8
1
10
10.681508
20
43.107780
42
0.138044
0
VERTEX
8
1
10
9.816461
20
43.413895
42
0.195400
0
VERTEX
8
1
10
8.325507
20
42.951660
0
VERTEX
8
1
10
8.404614
20
43.364975
0
VERTEX
8
1
10
4.405490
20
43.365784
0
VERTEX
8
1
10
4.399613
20
43.363152
0
VERTEX
8
1
10
3.261212
20
37.415253
0
VERTEX
8
1
10
3.262119
20
37.410271
0
VERTEX
8
1
10
5.509846
20
37.410271
0
VERTEX
8
1
10
1.996463
20
33.895874
0
VERTEX
8
1
10
7.871329
20
28.019735
0
VERTEX
8
1
10
7.940331
20
27.578318
0
VERTEX
8
1
10
6.225482
20
24.410967
0
VERTEX
8
1
10
8.642373
20
24.410975
0
VERTEX
8
1
10
8.649148
20
24.425661
0
VERTEX
8
1
10
8.651689
20
24.411898
0
VERTEX
8
1
10
10.896888
20
24.410967
0
VERTEX
8
1
10
10.763553
20
25.127466
0
VERTEX
8
1
10
11.401759
20
24.489309
0
VERTEX
8
1
10
11.386935
20
24.411856
0
VERTEX
8
1
10
11.479182
20
24.410967
0
VERTEX
8
1
10
13.992778
20
21.898279
0
VERTEX
8
1
10
13.997138
20
21.896544
0
VERTEX
8
1
10
16.512072
20
24.410971
0
VERTEX
8
1
10
17.057657
20
24.410967
0
VERTEX
8
1
10
17.187143
20
25.086485
0
VERTEX
8
1
10
17.266462
20
25.165869
42
0.195211
0
VERTEX
8
1
10
18.464911
20
24.412779
42
0.136562
0
VERTEX
8
1
10
20.125139
20
24.590864
42
0.002031
0
VERTEX
8
1
10
20.459398
20
24.716715
0
VERTEX
8
1
10
21.137423
20
28.308432
0
SEQEND
0
POLYLINE
8
1
66
1
70
1
0
VERTEX
8
1
10
22.365564
20
32.661308
42
-0.118413
0
VERTEX
8
1
10
22.430250
20
32.270973
0
VERTEX
8
1
10
22.407825
20
32.314293
42
0.104665
0
VERTEX
8
1
10
21.946463
20
32.945137
42
0.164973
0
VERTEX
8
1
10
21.195150
20
33.255249
42
0.117950
0
VERTEX
8
1
10
20.540083
20
33.044159
42
0.166879
0
VERTEX
8
1
10
20.113926
20
32.497986
42
0.092443
0
VERTEX
8
1
10
20.020933
20
31.892973
42
0.081410
0
VERTEX
8
1
10
20.242722
20
31.336435
42
0.121575
0
VERTEX
8
1
10
20.586569
20
30.996222
42
0.123008
0
VERTEX
8
1
10
20.981289
20
30.884344
42
0.113993
0
VERTEX
8
1
10
21.904293
20
31.025034
42
0.078902
0
VERTEX
8
1
10
22.174818
20
31.193136
42
0.041385
0
VERTEX
8
1
10
22.247112
20
31.273115
0
VERTEX
8
1
10
22.260889
20
31.281492
0
VERTEX
8
1
10
22.262161
20
31.267687
42
-0.131377
0
VERTEX
8
1
10
22.211012
20
31.156050
42
-0.097450
0
VERTEX
8
1
10
21.873787
20
30.854383
0
VERTEX
8
1
10
21.857096
20
30.846800
42
-0.082432
0
VERTEX
8
1
10
21.187794
20
30.738634
0
VERTEX
8
1
10
21.131634
20
30.740816
0
VERTEX
8
1
10
21.075579
20
30.744856
42
-0.209225
0
VERTEX
8
1
10
20.154318
20
31.226931
0
VERTEX
8
1
10
20.080130
20
31.324537
42
-0.062455
0
VERTEX
8
1
10
19.871059
20
31.970411
42
0.318339
0
VERTEX
8
1
10
19.846025
20
31.988569
42
0.196058
0
VERTEX
8
1
10
19.826807
20
31.950621
0
VERTEX
8
1
10
19.820089
20
31.903688
42
0.122724
0
VERTEX
8
1
10
19.855938
20
31.575491
42
0.027558
0
VERTEX
8
1
10
19.958668
20
31.289598
0
VERTEX
8
1
10
19.947605
20
31.299314
42
-0.155840
0
VERTEX
8
1
10
19.718470
20
31.765886
42
-0.079873
0
VERTEX
8
1
10
19.739651
20
32.083199
42
-0.109908
0
VERTEX
8
1
10
20.086828
20
32.907158
42
-0.071728
0
VERTEX
8
1
10
20.332495
20
33.157196
42
-0.113376
0
VERTEX
8
1
10
20.930717
20
33.361298
42
-0.097125
0
VERTEX
8
1
10
21.690254
20
33.315163
42
-0.204032
0
SEQEND
0
POLYLINE
8
1
66
1
70
1
0
VERTEX
8
1
10
21.587275
20
32.204391
42
-0.234695
0
VERTEX
8
1
10
21.508986
20
32.082497
0
VERTEX
8
1
10
21.500259
20
32.079659
0
VERTEX
8
1
10
21.491682
20
32.078674
0
VERTEX
8
1
10
21.496878
20
32.104233
42
0.193787
0
VERTEX
8
1
10
21.468508
20
32.290222
0
VERTEX
8
1
10
21.457405
20
32.304039
42
0.221880
0
VERTEX
8
1
10
21.190798
20
32.384369
42
0.121270
0
VERTEX
8
1
10
20.967079
20
32.311470
42
0.280229
0
VERTEX
8
1
10
20.905392
20
32.135262
42
0.090836
0
VERTEX
8
1
10
20.949593
20
31.998713
42
0.141789
0
VERTEX
8
1
10
21.136692
20
31.872965
42
0.182266
0
VERTEX
8
1
10
21.307457
20
31.897375
0
VERTEX
8
1
10
21.448601
20
31.974474
0
VERTEX
8
1
10
21.467361
20
31.973539
0
VERTEX
8
1
10
21.463421
20
31.942945
42
-0.263487
0
VERTEX
8
1
10
21.342710
20
31.781256
42
0.033707
0
VERTEX
8
1
10
21.283663
20
31.741156
0
VERTEX
8
1
10
21.301218
20
31.736197
0
VERTEX
8
1
10
21.332819
20
31.738581
42
0.150358
0
VERTEX
8
1
10
21.545580
20
31.868124
42
0.010171
0
VERTEX
8
1
10
21.656315
20
31.984602
0
VERTEX
8
1
10
21.654930
20
31.964415
0
VERTEX
8
1
10
21.651991
20
31.944395
0
VERTEX
8
1
10
21.647514
20
31.924662
42
-0.462548
0
VERTEX
8
1
10
20.949282
20
31.640478
42
-0.147650
0
VERTEX
8
1
10
20.787565
20
31.812742
0
VERTEX
8
1
10
20.767445
20
31.851690
0
VERTEX
8
1
10
20.749334
20
31.891607
0
VERTEX
8
1
10
20.733278
20
31.932398
0
VERTEX
8
1
10
20.719320
20
31.973951
0
VERTEX
8
1
10
20.706520
20
32.029106
42
-0.316524
0
VERTEX
8
1
10
20.915920
20
32.484795
42
-0.178569
0
VERTEX
8
1
10
21.280066
20
32.560730
0
VERTEX
8
1
10
21.343803
20
32.542999
42
-0.314070
0
VERTEX
8
1
10
21.656258
20
32.114044
42
-0.040984
0
VERTEX
8
1
10
21.587233
20
32.216934
0
SEQEND
0
POLYLINE
8
1
66
1
70
1
0
VERTEX
8
1
10
21.791012
20
32.676331
42
0.250449
0
VERTEX
8
1
10
21.154741
20
32.862328
0
VERTEX
8
1
10
21.108875
20
32.853172
0
VERTEX
8
1
10
21.063442
20
32.842072
42
0.286851
0
VERTEX
8
1
10
20.421856
20
32.188721
42
0.112422
0
VERTEX
8
1
10
20.410204
20
31.977365
42
0.156770
0
VERTEX
8
1
10
20.649551
20
31.429670
42
0.171246
0
VERTEX
8
1
10
21.092417
20
31.202917
42
0.147377
0
VERTEX
8
1
10
21.537945
20
31.317327
42
0.152034
0
VERTEX
8
1
10
22.028339
20
31.830721
42
0.061498
0
VERTEX
8
1
10
22.072939
20
31.988356
42
-0.194914
0
VERTEX
8
1
10
22.096407
20
31.939123
0
VERTEX
8
1
10
22.101839
20
31.913279
0
VERTEX
8
1
10
22.105078
20
31.887072
42
-0.179915
0
VERTEX
8
1
10
21.987463
20
31.558973
0
VERTEX
8
1
10
21.982784
20
31.548338
42
0.164835
0
VERTEX
8
1
10
22.008936
20
31.545912
42
0.065218
0
VERTEX
8
1
10
22.104158
20
31.583937
42
-0.267783
0
VERTEX
8
1
10
21.189186
20
31.009771
0
VERTEX
8
1
10
21.133955
20
31.007833
42
-0.229770
0
VERTEX
8
1
10
20.446301
20
31.314405
0
VERTEX
8
1
10
20.415972
20
31.350424
42
-0.183878
0
VERTEX
8
1
10
20.171747
20
32.161552
42
-0.108213
0
VERTEX
8
1
10
20.189814
20
32.212944
42
-0.163350
0
VERTEX
8
1
10
20.199593
20
32.191223
42
0.019085
0
VERTEX
8
1
10
20.228521
20
32.032974
42
0.579718
0
VERTEX
8
1
10
20.247654
20
32.018768
0
VERTEX
8
1
10
20.250336
20
32.022263
42
0.064825
0
VERTEX
8
1
10
20.306017
20
32.202690
42
-0.034682
0
VERTEX
8
1
10
20.390295
20
32.468353
42
-0.107030
0
VERTEX
8
1
10
20.565981
20
32.704300
0
VERTEX
8
1
10
20.586206
20
32.725563
42
0.166441
0
VERTEX
8
1
10
20.581465
20
32.797325
42
0.382471
0
VERTEX
8
1
10
20.535021
20
32.807259
42
0.108986
0
VERTEX
8
1
10
20.474131
20
32.769272
0
VERTEX
8
1
10
20.482035
20
32.783844
42
-0.105642
0
VERTEX
8
1
10
20.654999
20
32.919991
42
-0.144077
0
VERTEX
8
1
10
21.273539
20
33.061409
0
VERTEX
8
1
10
21.329121
20
33.054703
42
-0.143198
0
VERTEX
8
1
10
21.914440
20
32.746025
42
-0.181286
0
VERTEX
8
1
10
22.204666
20
32.079094
42
-0.219584
0
VERTEX
8
1
10
22.177883
20
32.115242
42
0.038791
0
VERTEX
8
1
10
22.129946
20
32.232330
42
0.582479
0
VERTEX
8
1
10
22.094944
20
32.237305
42
0.097039
0
VERTEX
8
1
10
22.059210
20
32.169060
42
0.141466
0
SEQEND
0
POLYLINE
8
1
66
1
70
1
0
VERTEX
8
1
10
20.584490
20
33.741646
42
0.157653
0
VERTEX
8
1
10
20.005301
20
33.615250
42
0.075248
0
VERTEX
8
1
10
19.612919
20
33.319923
0
VERTEX
8
1
10
19.578627
20
33.379944
42
-0.206451
0
VERTEX
8
1
10
20.788675
20
33.812447
0
VERTEX
8
1
10
20.820486
20
33.808380
42
-0.202049
0
VERTEX
8
1
10
20.906340
20
33.675705
0
VERTEX
8
1
10
20.771654
20
33.686722
0
VERTEX
8
1
10
20.723886
20
33.687325
42
0.181657
0
VERTEX
8
1
10
19.721891
20
33.259148
0
VERTEX
8
1
10
19.700201
20
33.252914
0
VERTEX
8
1
10
19.634190
20
33.262329
42
-0.065852
0
VERTEX
8
1
10
20.246861
20
33.648895
42
-0.065466
0
SEQEND
0
POLYLINE
8
1
66
1
70
1
0
VERTEX
8
1
10
20.849018
20
34.111404
0
VERTEX
8
1
10
20.745779
20
34.042595
0
VERTEX
8
1
10
20.814615
20
33.870537
42
0.123344
0
VERTEX
8
1
10
20.157236
20
33.796600
42
0.087415
0
VERTEX
8
1
10
19.687176
20
33.524628
0
VERTEX
8
1
10
19.567623
20
33.415543
0
VERTEX
8
1
10
19.538071
20
33.427628
42
-0.024319
0
VERTEX
8
1
10
19.541224
20
34.099258
42
0.118632
0
VERTEX
8
1
10
19.957069
20
33.959251
42
0.092269
0
VERTEX
8
1
10
20.146765
20
33.986465
0
VERTEX
8
1
10
20.457607
20
34.122261
42
0.126456
0
VERTEX
8
1
10
20.619072
20
34.167633
42
-0.047483
0
VERTEX
8
1
10
20.768187
20
34.214569
0
SEQEND
0
POLYLINE
8
1
66
1
70
1
0
VERTEX
8
1
10
19.763651
20
32.982933
42
-0.099855
0
VERTEX
8
1
10
20.170031
20
33.400932
0
VERTEX
8
1
10
20.254574
20
33.450333
42
-0.156662
0
VERTEX
8
1
10
21.437605
20
33.621513
42
-0.032227
0
VERTEX
8
1
10
21.973642
20
33.504929
42
0.052560
0
VERTEX
8
1
10
21.984735
20
33.594772
42
-0.099552
0
VERTEX
8
1
10
22.267569
20
33.394402
42
-0.204931
0
VERTEX
8
1
10
22.331739
20
33.227371
0
VERTEX
8
1
10
22.329618
20
33.208771
0
VERTEX
8
1
10
22.326122
20
33.207291
42
0.235337
0
VERTEX
8
1
10
20.606119
20
33.457489
0
VERTEX
8
1
10
20.478676
20
33.412384
0
VERTEX
8
1
10
20.363209
20
33.362877
0
VERTEX
8
1
10
20.304255
20
33.321739
42
0.120475
0
VERTEX
8
1
10
19.771040
20
32.752983
42
0.059224
0
VERTEX
8
1
10
19.424259
20
31.903185
42
-0.121642
0
VERTEX
8
1
10
19.351694
20
31.789873
0
VERTEX
8
1
10
19.345787
20
31.788691
42
-0.464606
0
VERTEX
8
1
10
19.333593
20
31.817442
42
-0.080380
0
VERTEX
8
1
10
19.663319
20
32.815254
0
VERTEX
8
1
10
19.711451
20
32.899994
0
SEQEND
0
POLYLINE
8
1
66
1
70
1
0
VERTEX
8
1
10
21.855135
20
33.775772
42
0.204300
0
VERTEX
8
1
10
21.801184
20
33.847557
42
0.203984
0
VERTEX
8
1
10
21.549109
20
33.790527
42
0.066065
0
VERTEX
8
1
10
21.422693
20
33.687050
42
-0.121787
0
VERTEX
8
1
10
21.291048
20
33.723740
0
VERTEX
8
1
10
21.285959
20
33.730469
42
-0.289221
0
VERTEX
8
1
10
21.834248
20
34.099968
0
VERTEX
8
1
10
21.849453
20
34.089096
0
VERTEX
8
1
10
21.873066
20
34.061218
42
-0.123691
0
VERTEX
8
1
10
21.925739
20
33.846626
42
-0.045156
0
VERTEX
8
1
10
21.915804
20
33.606651
0
VERTEX
8
1
10
21.847755
20
33.606651
42
0.117384
0
SEQEND
0
POLYLINE
8
1
66
1
70
1
0
VERTEX
8
1
10
23.108952
20
31.599131
0
VERTEX
8
1
10
22.982771
20
31.610594
0
VERTEX
8
1
10
22.684500
20
31.908865
42
0.095680
0
VERTEX
8
1
10
22.687160
20
32.091995
42
0.040697
0
VERTEX
8
1
10
22.650942
20
32.272980
42
-0.001301
0
SEQEND
0
POLYLINE
8
1
66
1
70
1
0
VERTEX
8
1
10
23.094795
20
42.625763
42
-0.169190
0
VERTEX
8
1
10
23.704803
20
42.147179
42
-0.094187
0
VERTEX
8
1
10
23.914232
20
41.641891
42
-0.058400
0
VERTEX
8
1
10
23.973812
20
41.094147
42
-0.128002
0
VERTEX
8
1
10
23.496019
20
39.148811
42
-0.071250
0
VERTEX
8
1
10
23.083580
20
38.588913
42
-0.170218
0
VERTEX
8
1
10
22.006962
20
38.081284
0
VERTEX
8
1
10
22.151255
20
38.824654
0
VERTEX
8
1
10
22.154617
20
38.828491
42
0.101669
0
VERTEX
8
1
10
22.449242
20
39.027222
42
0.086239
0
VERTEX
8
1
10
22.704683
20
39.378830
42
0.073368
0
VERTEX
8
1
10
23.017517
20
40.293495
42
0.056547
0
VERTEX
8
1
10
23.094902
20
41.230759
0
VERTEX
8
1
10
23.090179
20
41.299004
42
0.116975
0
VERTEX
8
1
10
22.946272
20
41.793633
42
0.124796
0
VERTEX
8
1
10
22.761890
20
41.970482
0
VERTEX
8
1
10
22.899260
20
42.678177
0
VERTEX
8
1
10
22.908443
20
42.678291
42
-0.032466
0
SEQEND
0
POLYLINE
8
1
66
1
70
1
0
VERTEX
8
1
10
20.759039
20
38.148209
0
VERTEX
8
1
10
21.608896
20
42.637390
42
-0.049178
0
VERTEX
8
1
10
22.470024
20
42.718376
0
VERTEX
8
1
10
22.333729
20
42.016212
42
-0.284223
0
VERTEX
8
1
10
22.329954
20
42.013626
0
VERTEX
8
1
10
21.704990
20
38.803848
0
VERTEX
8
1
10
21.709105
20
38.803314
0
VERTEX
8
1
10
21.565138
20
38.056656
42
-0.059923
0
VERTEX
8
1
10
20.773539
20
38.141266
0
SEQEND
0
POLYLINE
8
1
66
1
70
1
0
VERTEX
8
1
10
20.619761
20
41.858177
42
-0.065907
0
VERTEX
8
1
10
20.673092
20
41.140045
42
-0.088507
0
VERTEX
8
1
10
20.291008
20
39.326096
42
-0.074567
0
VERTEX
8
1
10
19.842657
20
38.567810
42
-0.108633
0
VERTEX
8
1
10
19.292423
20
38.140518
42
-0.081142
0
VERTEX
8
1
10
18.897449
20
38.033981
0
VERTEX
8
1
10
19.055283
20
38.845367
0
VERTEX
8
1
10
19.083288
20
38.866676
0
VERTEX
8
1
10
19.109957
20
38.889641
42
0.091737
0
VERTEX
8
1
10
19.362316
20
39.258904
42
0.048696
0
VERTEX
8
1
10
19.589706
20
39.927353
42
0.048577
0
VERTEX
8
1
10
19.790648
20
41.281799
0
VERTEX
8
1
10
19.791632
20
41.352211
42
0.082836
0
VERTEX
8
1
10
19.738333
20
41.771515
42
0.102046
0
VERTEX
8
1
10
19.651028
20
41.916206
0
VERTEX
8
1
10
19.809105
20
42.730583
42
-0.247040
0
VERTEX
8
1
10
20.496016
20
42.210884
42
-0.065248
0
SEQEND
0
POLYLINE
8
1
66
1
70
1
0
VERTEX
8
1
10
18.270571
20
42.009247
42
-0.100290
0
VERTEX
8
1
10
18.798172
20
42.537979
42
-0.112092
0
VERTEX
8
1
10
19.374475
20
42.742989
0
VERTEX
8
1
10
19.216782
20
41.930595
42
0.092770
0
VERTEX
8
1
10
19.040770
20
41.753227
42
0.063850
0
VERTEX
8
1
10
18.835392
20
41.374191
0
VERTEX
8
1
10
18.804909
20
41.299484
0
VERTEX
8
1
10
18.776289
20
41.224037
42
0.077590
0
VERTEX
8
1
10
18.461235
20
39.437874
42
0.090072
0
VERTEX
8
1
10
18.525517
20
39.006287
42
0.085372
0
VERTEX
8
1
10
18.620594
20
38.859200
0
VERTEX
8
1
10
18.463326
20
38.049004
0
VERTEX
8
1
10
18.441494
20
38.051735
42
-0.228679
0
VERTEX
8
1
10
17.780611
20
38.573959
42
-0.074476
0
VERTEX
8
1
10
17.628477
20
39.013321
42
-0.068151
0
VERTEX
8
1
10
17.581463
20
39.714996
42
-0.090590
0
VERTEX
8
1
10
17.984941
20
41.492928
42
-0.045067
0
SEQEND
0
POLYLINE
8
1
66
1
70
1
0
VERTEX
8
1
10
16.808922
20
42.600388
42
-0.186061
0
VERTEX
8
1
10
17.293980
20
42.150108
42
-0.132289
0
VERTEX
8
1
10
17.410978
20
41.591118
42
-0.224829
0
VERTEX
8
1
10
16.841856
20
40.441711
42
-0.080496
0
VERTEX
8
1
10
16.472424
20
40.243988
0
VERTEX
8
1
10
16.472422
20
40.231026
42
-0.191926
0
VERTEX
8
1
10
16.743523
20
39.945770
42
-0.078475
0
VERTEX
8
1
10
16.828457
20
39.613937
42
-0.030636
0
VERTEX
8
1
10
16.851597
20
39.257530
42
0.017017
0
VERTEX
8
1
10
16.899815
20
38.222099
42
0.027116
0
VERTEX
8
1
10
16.924391
20
38.076935
0
VERTEX
8
1
10
16.061605
20
38.076935
42
-0.027273
0
VERTEX
8
1
10
16.047018
20
38.231377
42
-0.013021
0
VERTEX
8
1
10
16.026127
20
39.280373
42
0.063637
0
VERTEX
8
1
10
15.973023
20
39.672043
42
0.074037
0
VERTEX
8
1
10
15.904605
20
39.808380
0
VERTEX
8
1
10
16.068077
20
40.650513
42
0.174871
0
VERTEX
8
1
10
16.431385
20
41.052650
42
0.138286
0
VERTEX
8
1
10
16.524345
20
41.671822
42
0.139110
0
VERTEX
8
1
10
16.407753
20
41.930283
42
0.194614
0
VERTEX
8
1
10
16.150257
20
42.046127
42
0.068928
0
VERTEX
8
1
10
15.882546
20
42.026436
0
VERTEX
8
1
10
15.615214
20
40.593758
0
VERTEX
8
1
10
15.619147
20
40.593758
0
VERTEX
8
1
10
15.490895
20
39.928551
0
VERTEX
8
1
10
15.478921
20
39.928551
42
-0.002531
0
VERTEX
8
1
10
15.131474
20
38.076950
0
VERTEX
8
1
10
14.298654
20
38.077805
0
VERTEX
8
1
10
15.167964
20
42.629646
0
VERTEX
8
1
10
15.186774
20
42.640251
42
-0.046455
0
VERTEX
8
1
10
16.166479
20
42.717751
0
VERTEX
8
1
10
16.250116
20
42.714348
42
-0.086232
0
SEQEND
0
POLYLINE
8
1
66
1
70
1
0
VERTEX
8
1
10
11.281072
20
42.699120
0
VERTEX
8
1
10
13.743033
20
42.699120
0
VERTEX
8
1
10
13.585298
20
41.889893
0
VERTEX
8
1
10
12.782929
20
41.889893
0
VERTEX
8
1
10
12.056001
20
38.076935
0
VERTEX
8
1
10
11.198770
20
38.076935
0
VERTEX
8
1
10
11.925704
20
41.889893
0
VERTEX
8
1
10
11.123336
20
41.889893
0
SEQEND
0
POLYLINE
8
1
66
1
70
1
0
VERTEX
8
1
10
10.710687
20
41.855766
42
-0.065692
0
VERTEX
8
1
10
10.763488
20
41.138893
42
-0.086969
0
VERTEX
8
1
10
10.390651
20
39.347168
42
-0.069833
0
VERTEX
8
1
10
9.963807
20
38.604752
42
-0.097496
0
VERTEX
8
1
10
9.460111
20
38.178162
42
-0.089042
0
VERTEX
8
1
10
9.008199
20
38.034653
0
VERTEX
8
1
10
9.168759
20
38.861839
42
0.089722
0
VERTEX
8
1
10
9.388576
20
39.136726
0
VERTEX
8
1
10
9.418427
20
39.190292
42
0.054797
0
VERTEX
8
1
10
9.665595
20
39.867821
42
0.052695
0
VERTEX
8
1
10
9.881845
20
41.325607
42
0.077959
0
VERTEX
8
1
10
9.832759
20
41.761101
42
0.082586
0
VERTEX
8
1
10
9.758067
20
41.897781
0
VERTEX
8
1
10
9.918868
20
42.726196
42
-0.243264
0
VERTEX
8
1
10
10.588140
20
42.207344
42
-0.064742
0
SEQEND
0
POLYLINE
8
1
66
1
70
1
0
VERTEX
8
1
10
8.362128
20
42.010887
42
-0.101204
0
VERTEX
8
1
10
8.894120
20
42.541428
42
-0.114542
0
VERTEX
8
1
10
9.485595
20
42.745575
0
VERTEX
8
1
10
9.330297
20
41.945526
42
0.109855
0
VERTEX
8
1
10
9.116963
20
41.733597
42
0.055998
0
VERTEX
8
1
10
8.938113
20
41.402748
0
VERTEX
8
1
10
8.906001
20
41.326546
0
VERTEX
8
1
10
8.875867
20
41.249535
0
VERTEX
8
1
10
8.847730
20
41.171776
42
0.069008
0
VERTEX
8
1
10
8.552218
20
39.528275
0
VERTEX
8
1
10
8.551583
20
39.442329
42
0.092126
0
VERTEX
8
1
10
8.615026
20
39.008919
42
0.120464
0
VERTEX
8
1
10
8.728747
20
38.846527
0
VERTEX
8
1
10
8.573026
20
38.044289
42
-0.230245
0
VERTEX
8
1
10
7.894719
20
38.531158
42
-0.084322
0
VERTEX
8
1
10
7.717634
20
39.019524
42
-0.067751
0
VERTEX
8
1
10
7.672114
20
39.721489
42
-0.090525
0
VERTEX
8
1
10
8.077397
20
41.497498
42
-0.044938
0
SEQEND
0
POLYLINE
8
1
66
1
70
1
0
VERTEX
8
1
10
5.294173
20
40.038269
0
VERTEX
8
1
10
4.923853
20
38.076935
0
VERTEX
8
1
10
4.066621
20
38.076935
0
VERTEX
8
1
10
4.951284
20
42.699120
0
VERTEX
8
1
10
5.808510
20
42.699120
0
VERTEX
8
1
10
5.445045
20
40.820068
0
VERTEX
8
1
10
6.384573
20
40.820068
0
VERTEX
8
1
10
6.741181
20
42.699120
0
VERTEX
8
1
10
7.598407
20
42.699120
0
VERTEX
8
1
10
6.713742
20
38.076935
0
VERTEX
8
1
10
5.863374
20
38.076935
0
VERTEX
8
1
10
6.219981
20
40.038269
0
SEQEND
0
POLYLINE
8
1
66
1
70
1
0
VERTEX
8
1
10
5.156076
20
31.747087
0
VERTEX
8
1
10
3.007539
20
33.895241
0
VERTEX
8
1
10
6.522574
20
37.410271
0
VERTEX
8
1
10
7.264923
20
37.410301
0
VERTEX
8
1
10
7.391991
20
38.074219
0
VERTEX
8
1
10
7.398289
20
38.068962
42
0.204177
0
VERTEX
8
1
10
8.457910
20
37.387154
42
0.232127
0
VERTEX
8
1
10
10.182488
20
37.875504
42
0.055026
0
VERTEX
8
1
10
10.560075
20
38.286621
0
VERTEX
8
1
10
10.393489
20
37.412849
0
VERTEX
8
1
10
10.394261
20
37.410271
0
VERTEX
8
1
10
12.601838
20
37.410271
0
VERTEX
8
1
10
12.608125
20
37.413109
0
VERTEX
8
1
10
13.335263
20
41.223221
0
VERTEX
8
1
10
14.132997
20
41.223221
0
VERTEX
8
1
10
14.135045
20
41.225708
0
VERTEX
8
1
10
14.551507
20
43.362221
0
VERTEX
8
1
10
14.549289
20
43.365784
0
VERTEX
8
1
10
12.480990
20
43.365784
0
VERTEX
8
1
10
12.480618
20
43.368317
0
VERTEX
8
1
10
13.994067
20
44.881767
0
VERTEX
8
1
10
13.998813
20
44.880539
0
VERTEX
8
1
10
15.521251
20
43.358101
0
VERTEX
8
1
10
15.510058
20
43.355400
42
0.014038
0
VERTEX
8
1
10
14.771146
20
43.247498
0
VERTEX
8
1
10
14.601998
20
43.218681
0
VERTEX
8
1
10
13.492921
20
37.412712
0
VERTEX
8
1
10
13.506783
20
37.410271
0
VERTEX
8
1
10
17.803738
20
37.411118
0
VERTEX
8
1
10
17.740107
20
37.638428
42
0.148951
0
VERTEX
8
1
10
18.717413
20
37.354904
42
0.174995
0
VERTEX
8
1
10
20.016668
20
37.810875
0
VERTEX
8
1
10
19.990959
20
37.675117
0
VERTEX
8
1
10
20.465973
20
37.536247
42
0.054963
0
VERTEX
8
1
10
21.091389
20
37.414085
42
0.021391
0
VERTEX
8
1
10
21.488705
20
37.390648
0
VERTEX
8
1
10
24.984026
20
33.895149
0
VERTEX
8
1
10
22.994555
20
31.905680
0
VERTEX
8
1
10
22.983740
20
31.898855
0
VERTEX
8
1
10
22.633667
20
32.430916
42
0.147923
0
VERTEX
8
1
10
22.158545
20
33.184151
42
-0.080182
0
VERTEX
8
1
10
22.496895
20
32.975708
0
VERTEX
8
1
10
22.506786
20
32.965202
0
VERTEX
8
1
10
22.514759
20
32.963402
42
0.195391
0
VERTEX
8
1
10
22.505028
20
33.182297
42
0.132568
0
VERTEX
8
1
10
22.305155
20
33.454567
42
0.050794
0
VERTEX
8
1
10
22.013409
20
33.664513
42
0.066756
0
VERTEX
8
1
10
21.962954
20
34.054939
42
0.184513
0
VERTEX
8
1
10
21.889687
20
34.164124
0
VERTEX
8
1
10
21.842123
20
34.179970
0
VERTEX
8
1
10
21.617914
20
34.730217
42
0.172385
0
VERTEX
8
1
10
21.602659
20
34.877480
42
0.223829
0
VERTEX
8
1
10
21.554289
20
34.902786
0
VERTEX
8
1
10
21.447052
20
34.902954
42
0.124412
0
VERTEX
8
1
10
21.313719
20
34.931122
42
0.080740
0
VERTEX
8
1
10
21.266628
20
34.916641
42
0.015464
0
VERTEX
8
1
10
20.998245
20
34.748154
0
VERTEX
8
1
10
20.946560
20
34.885704
0
VERTEX
8
1
10
20.745821
20
34.799728
0
VERTEX
8
1
10
20.808395
20
34.663132
0
VERTEX
8
1
10
20.774700
20
34.576645
0
VERTEX
8
1
10
20.413116
20
34.438362
42
0.126572
0
VERTEX
8
1
10
20.378698
20
34.335197
42
-0.131375
0
VERTEX
8
1
10
20.059484
20
34.299416
42
-0.126363
0
VERTEX
8
1
10
19.921509
20
34.372772
42
0.090839
0
VERTEX
8
1
10
19.316521
20
34.643997
42
0.090783
0
VERTEX
8
1
10
19.019711
20
34.664185
42
0.095589
0
VERTEX
8
1
10
18.863394
20
34.609215
0
VERTEX
8
1
10
18.761757
20
34.490646
0
VERTEX
8
1
10
18.692646
20
34.592781
0
VERTEX
8
1
10
18.452381
20
34.602539
0
VERTEX
8
1
10
18.451462
20
34.988991
0
VERTEX
8
1
10
18.476194
20
34.988991
42
0.047320
0
VERTEX
8
1
10
18.485735
20
35.014374
0
VERTEX
8
1
10
18.219788
20
35.014801
0
VERTEX
8
1
10
18.219152
20
35.143593
0
VERTEX
8
1
10
18.854700
20
35.143860
42
0.047105
0
VERTEX
8
1
10
19.254622
20
35.522995
42
0.075129
0
VERTEX
8
1
10
19.331263
20
35.651825
42
0.301962
0
VERTEX
8
1
10
19.316257
20
35.724556
0
VERTEX
8
1
10
19.289589
20
35.738129
0
VERTEX
8
1
10
19.250292
20
35.745224
0
VERTEX
8
1
10
19.197193
20
35.746048
42
0.009662
0
VERTEX
8
1
10
17.078888
20
35.674133
0
VERTEX
8
1
10
17.036743
20
35.670319
0
VERTEX
8
1
10
17.021223
20
35.661850
42
0.084244
0
VERTEX
8
1
10
16.982849
20
35.358231
42
0.251247
0
VERTEX
8
1
10
17.023926
20
35.278610
0
VERTEX
8
1
10
17.032984
20
35.275108
0
VERTEX
8
1
10
17.042511
20
35.273232
42
-0.022749
0
VERTEX
8
1
10
17.539145
20
35.221329
0
VERTEX
8
1
10
17.539452
20
35.126717
0
VERTEX
8
1
10
17.238480
20
35.126656
0
VERTEX
8
1
10
17.238333
20
34.989037
0
VERTEX
8
1
10
17.127428
20
34.971939
0
VERTEX
8
1
10
17.126474
20
34.654076
0
VERTEX
8
1
10
16.920013
20
34.662056
0
VERTEX
8
1
10
16.914263
20
35.052078
0
VERTEX
8
1
10
16.507023
20
35.057823
42
0.168459
0
VERTEX
8
1
10
16.504698
20
35.185013
42
0.328924
0
VERTEX
8
1
10
16.429588
20
35.212692
0
VERTEX
8
1
10
16.427565
20
35.244034
42
0.367223
0
VERTEX
8
1
10
16.354954
20
35.315407
0
VERTEX
8
1
10
15.612239
20
35.315948
0
VERTEX
8
1
10
15.615172
20
35.330856
42
0.262359
0
VERTEX
8
1
10
15.580455
20
35.458336
42
0.050954
0
VERTEX
8
1
10
15.541411
20
35.483826
0
VERTEX
8
1
10
15.511443
20
35.553337
42
-0.004902
0
VERTEX
8
1
10
15.131646
20
36.517227
0
VERTEX
8
1
10
15.128535
20
36.537163
42
0.181428
0
VERTEX
8
1
10
14.974067
20
36.752190
42
0.099782
0
VERTEX
8
1
10
14.591382
20
36.915291
0
VERTEX
8
1
10
14.501489
20
36.936691
42
0.038355
0
VERTEX
8
1
10
11.470399
20
37.291771
42
0.027171
0
VERTEX
8
1
10
10.433963
20
37.268875
0
VERTEX
8
1
10
10.221747
20
37.246239
0
VERTEX
8
1
10
10.065928
20
37.222359
42
0.162420
0
VERTEX
8
1
10
9.529601
20
36.876625
42
0.063796
0
VERTEX
8
1
10
9.323125
20
36.569069
42
0.010098
0
VERTEX
8
1
10
9.075870
20
35.866577
0
VERTEX
8
1
10
8.772840
20
35.866577
0
VERTEX
8
1
10
8.772248
20
35.703369
0
VERTEX
8
1
10
9.018544
20
35.703102
42
0.153033
0
VERTEX
8
1
10
8.863599
20
35.624474
42
0.115935
0
VERTEX
8
1
10
8.833661
20
35.563797
0
VERTEX
8
1
10
8.819940
20
35.556839
0
VERTEX
8
1
10
8.290797
20
35.556839
42
0.051674
0
VERTEX
8
1
10
7.704388
20
35.458153
42
0.063139
0
VERTEX
8
1
10
6.381556
20
34.923874
0
VERTEX
8
1
10
6.280615
20
34.867294
42
0.079693
0
VERTEX
8
1
10
5.654213
20
34.377480
42
0.040069
0
VERTEX
8
1
10
5.104872
20
33.704491
42
0.007333
0
VERTEX
8
1
10
4.843048
20
33.323120
42
0.039035
0
VERTEX
8
1
10
4.565324
20
33.020805
0
VERTEX
8
1
10
4.540747
20
32.984848
42
0.160320
0
VERTEX
8
1
10
4.492311
20
32.864120
42
0.358568
0
VERTEX
8
1
10
4.547726
20
32.803513
42
0.080976
0
VERTEX
8
1
10
4.598847
20
32.795052
42
0.058110
0
VERTEX
8
1
10
4.586539
20
32.671700
42
0.395254
0
VERTEX
8
1
10
4.613592
20
32.643204
42
0.056870
0
VERTEX
8
1
10
4.659712
20
32.632729
42
0.014769
0
VERTEX
8
1
10
5.110697
20
32.582581
0
VERTEX
8
1
10
5.110012
20
32.569504
42
0.119295
0
SEQEND
0
POLYLINE
8
1
66
1
70
1
0
VERTEX
8
1
10
18.763243
20
35.526749
42
0.129724
0
VERTEX
8
1
10
18.692352
20
35.448875
0
VERTEX
8
1
10
17.178097
20
35.509102
42
-0.511257
0
VERTEX
8
1
10
17.180464
20
35.542496
42
-0.128649
0
VERTEX
8
1
10
17.289814
20
35.581726
42
-0.015515
0
VERTEX
8
1
10
17.542564
20
35.599030
42
-0.004933
0
VERTEX
8
1
10
18.985579
20
35.642128
42
0.057413
0
SEQEND
0
POLYLINE
8
1
66
1
70
1
0
VERTEX
8
1
10
18.824373
20
35.456230
42
-0.031788
0
VERTEX
8
1
10
19.152245
20
35.649750
0
VERTEX
8
1
10
19.187393
20
35.656647
0
VERTEX
8
1
10
19.209379
20
35.655327
0
VERTEX
8
1
10
19.219549
20
35.646713
0
VERTEX
8
1
10
19.219261
20
35.631744
0
VERTEX
8
1
10
19.209866
20
35.611336
42
-0.054622
0
VERTEX
8
1
10
19.108267
20
35.493881
0
VERTEX
8
1
10
18.879158
20
35.279907
42
-0.286503
0
VERTEX
8
1
10
18.859751
20
35.264198
42
-0.115230
0
VERTEX
8
1
10
18.673996
20
35.261055
0
VERTEX
8
1
10
18.665575
20
35.266327
0
VERTEX
8
1
10
18.658403
20
35.273201
0
VERTEX
8
1
10
18.662807
20
35.295830
0
VERTEX
8
1
10
18.675339
20
35.320259
42
-0.085326
0
SEQEND
0
POLYLINE
8
1
66
1
70
1
0
VERTEX
8
1
10
16.014584
20
34.537216
42
-0.241424
0
VERTEX
8
1
10
15.830085
20
34.668236
0
VERTEX
8
1
10
15.814982
20
34.695641
42
-0.082160
0
VERTEX
8
1
10
15.715564
20
35.091331
0
VERTEX
8
1
10
16.403765
20
35.109436
0
VERTEX
8
1
10
16.420010
20
34.541435
42
-0.081512
0
SEQEND
0
POLYLINE
8
1
66
1
70
1
0
VERTEX
8
1
10
16.403534
20
34.333908
42
-0.000314
0
VERTEX
8
1
10
16.420963
20
33.509155
42
-0.137643
0
VERTEX
8
1
10
16.197289
20
33.509155
0
VERTEX
8
1
10
16.182196
20
33.521637
0
VERTEX
8
1
10
16.165771
20
33.546547
42
-0.044526
0
VERTEX
8
1
10
16.092123
20
33.738594
42
-0.017950
0
VERTEX
8
1
10
15.939179
20
34.335114
42
0.085895
0
VERTEX
8
1
10
16.290243
20
34.275131
42
0.192638
0
VERTEX
8
1
10
16.394518
20
34.316078
0
VERTEX
8
1
10
16.399750
20
34.324623
0
SEQEND
0
POLYLINE
8
1
66
1
70
1
0
VERTEX
8
1
10
7.608100
20
34.994347
42
-0.007735
0
VERTEX
8
1
10
10.329534
20
34.988991
0
VERTEX
8
1
10
10.329534
20
34.817635
42
0.049779
0
VERTEX
8
1
10
8.079278
20
34.900330
0
VERTEX
8
1
10
7.962348
20
34.890831
42
0.050056
0
VERTEX
8
1
10
6.798162
20
34.682755
42
0.057940
0
VERTEX
8
1
10
6.098364
20
34.390129
0
VERTEX
8
1
10
5.964233
20
34.306297
0
VERTEX
8
1
10
5.838390
20
34.214661
42
-0.089106
0
VERTEX
8
1
10
6.171629
20
34.604729
42
-0.076275
0
VERTEX
8
1
10
6.785160
20
34.983078
0
VERTEX
8
1
10
6.862525
20
35.016273
0
VERTEX
8
1
10
6.940735
20
35.047424
42
-0.063488
0
VERTEX
8
1
10
8.058160
20
35.298729
42
-0.012425
0
VERTEX
8
1
10
10.329534
20
35.212692
0
VERTEX
8
1
10
10.312322
20
35.092239
42
0.025584
0
VERTEX
8
1
10
8.531518
20
35.155807
42
0.043702
0
VERTEX
8
1
10
7.709348
20
35.074989
42
0.054891
0
VERTEX
8
1
10
7.455893
20
34.988991
0
SEQEND
0
POLYLINE
8
1
66
1
70
1
0
VERTEX
8
1
10
7.411181
20
34.345551
42
0.091931
0
VERTEX
8
1
10
6.320188
20
34.386734
0
VERTEX
8
1
10
6.331898
20
34.395966
42
-0.080494
0
VERTEX
8
1
10
6.575345
20
34.473412
42
-0.153437
0
VERTEX
8
1
10
7.768239
20
34.338066
42
-0.050203
0
VERTEX
8
1
10
8.068685
20
34.160034
0
VERTEX
8
1
10
8.154311
20
34.101578
0
VERTEX
8
1
10
8.245656
20
34.035797
0
VERTEX
8
1
10
8.331368
20
33.961830
0
VERTEX
8
1
10
8.411618
20
33.880417
42
-0.084497
0
VERTEX
8
1
10
8.808206
20
33.231491
0
VERTEX
8
1
10
8.840926
20
33.151718
0
VERTEX
8
1
10
8.871764
20
33.071205
42
-0.066726
0
VERTEX
8
1
10
9.161313
20
31.657957
42
-0.105965
0
VERTEX
8
1
10
8.921470
20
31.616194
42
-0.272751
0
VERTEX
8
1
10
8.848523
20
31.671900
0
VERTEX
8
1
10
8.838758
20
31.691839
42
-0.031683
0
VERTEX
8
1
10
8.749290
20
31.993166
42
0.000627
0
VERTEX
8
1
10
8.516061
20
32.974251
42
0.123889
0
VERTEX
8
1
10
8.142438
20
33.530418
42
0.076764
0
VERTEX
8
1
10
7.625819
20
33.882271
42
0.072628
0
VERTEX
8
1
10
6.871346
20
34.130226
0
VERTEX
8
1
10
6.785977
20
34.139847
0
VERTEX
8
1
10
6.681634
20
34.141586
42
0.112117
0
VERTEX
8
1
10
5.948180
20
33.938126
0
VERTEX
8
1
10
5.883412
20
33.904083
0
VERTEX
8
1
10
5.819613
20
33.868256
42
0.078650
0
VERTEX
8
1
10
4.908633
20
33.094002
0
VERTEX
8
1
10
4.851056
20
33.025887
42
-0.437106
0
VERTEX
8
1
10
4.826485
20
33.060013
42
-0.124673
0
VERTEX
8
1
10
4.839837
20
33.110794
42
-0.068737
0
VERTEX
8
1
10
5.018180
20
33.362984
42
-0.042868
0
VERTEX
8
1
10
5.501156
20
33.834648
42
-0.146429
0
VERTEX
8
1
10
6.742911
20
34.257339
42
-0.098758
0
VERTEX
8
1
10
7.492323
20
34.127541
0
VERTEX
8
1
10
7.540019
20
34.106705
0
VERTEX
8
1
10
7.586905
20
34.084099
42
-0.281917
0
VERTEX
8
1
10
7.760389
20
34.233299
0
VERTEX
8
1
10
7.755164
20
34.239365
42
0.037429
0
SEQEND
0
POLYLINE
8
1
66
1
70
1
0
VERTEX
8
1
10
10.107903
20
35.547531
42
-0.161934
0
VERTEX
8
1
10
9.778647
20
35.452171
42
-0.057901
0
VERTEX
8
1
10
9.059365
20
35.518600
42
-0.151297
0
VERTEX
8
1
10
9.013860
20
35.539742
0
VERTEX
8
1
10
9.014562
20
35.544197
42
-0.118333
0
VERTEX
8
1
10
9.049766
20
35.554588
0
VERTEX
8
1
10
9.313506
20
35.574005
42
-0.067397
0
VERTEX
8
1
10
9.148805
20
35.637726
42
-0.814581
0
VERTEX
8
1
10
9.154096
20
35.664932
0
VERTEX
8
1
10
9.160789
20
35.667511
42
-0.089083
0
VERTEX
8
1
10
9.351769
20
35.672165
42
0.031116
0
VERTEX
8
1
10
9.710959
20
35.639915
42
0.130562
0
VERTEX
8
1
10
10.041224
20
35.722038
42
0.138480
0
VERTEX
8
1
10
10.260152
20
35.953201
0
VERTEX
8
1
10
10.290212
20
36.005028
42
-0.013850
0
VERTEX
8
1
10
10.579677
20
36.526894
42
-0.103965
0
VERTEX
8
1
10
10.842357
20
36.800812
42
-0.117446
0
VERTEX
8
1
10
11.138284
20
36.899017
42
0.047279
0
VERTEX
8
1
10
11.360097
20
36.937225
42
0.108204
0
VERTEX
8
1
10
11.390058
20
36.956520
42
0.358657
0
VERTEX
8
1
10
11.385653
20
36.968987
42
0.103029
0
VERTEX
8
1
10
11.336402
20
36.987442
42
0.121062
0
VERTEX
8
1
10
10.815751
20
36.956261
42
0.108288
0
VERTEX
8
1
10
10.277589
20
36.667801
42
0.120689
0
VERTEX
8
1
10
10.049424
20
36.330177
42
-0.050627
0
VERTEX
8
1
10
9.889283
20
36.026466
0
VERTEX
8
1
10
9.863027
20
35.992134
42
-0.232393
0
VERTEX
8
1
10
9.504249
20
35.808571
42
-0.054351
0
VERTEX
8
1
10
9.348718
20
35.814949
0
VERTEX
8
1
10
9.392426
20
36.070305
42
-0.064518
0
VERTEX
8
1
10
9.564366
20
36.639168
42
-0.125369
0
VERTEX
8
1
10
9.869353
20
37.010406
42
-0.125558
0
VERTEX
8
1
10
10.246638
20
37.148079
42
-0.033895
0
VERTEX
8
1
10
11.099954
20
37.182732
42
-0.034340
0
VERTEX
8
1
10
13.349715
20
37.006363
42
-0.040145
0
VERTEX
8
1
10
14.324290
20
36.786629
0
VERTEX
8
1
10
14.450181
20
36.740929
0
VERTEX
8
1
10
14.562514
20
36.692558
42
-0.093733
0
VERTEX
8
1
10
14.721982
20
36.500229
42
-0.044122
0
VERTEX
8
1
10
14.946942
20
36.048988
42
-0.020215
0
VERTEX
8
1
10
15.139022
20
35.539635
0
VERTEX
8
1
10
15.061900
20
35.513924
42
0.134727
0
VERTEX
8
1
10
14.697080
20
36.223747
42
0.166273
0
VERTEX
8
1
10
14.063617
20
36.554871
42
0.018108
0
VERTEX
8
1
10
11.951230
20
36.811584
42
0.018528
0
VERTEX
8
1
10
11.405015
20
36.834396
42
0.246292
0
VERTEX
8
1
10
10.672463
20
36.426659
0
VERTEX
8
1
10
10.651544
20
36.391068
42
0.012177
0
VERTEX
8
1
10
10.530719
20
36.114563
42
-0.066616
0
VERTEX
8
1
10
10.269198
20
35.691261
42
-0.059076
0
SEQEND
0
POLYLINE
8
1
66
1
70
1
0
VERTEX
8
1
10
15.448663
20
35.467979
42
-0.530982
0
VERTEX
8
1
10
15.341786
20
35.448479
42
-0.036126
0
VERTEX
8
1
10
15.212220
20
35.698120
42
-0.008175
0
VERTEX
8
1
10
14.855319
20
36.519928
42
-0.131804
0
VERTEX
8
1
10
14.967780
20
36.625153
42
-0.394241
0
VERTEX
8
1
10
15.023210
20
36.597588
0
VERTEX
8
1
10
15.031838
20
36.578194
42
-0.002375
0
VERTEX
8
1
10
15.457339
20
35.487976
0
SEQEND
0
POLYLINE
8
1
66
1
70
1
0
VERTEX
8
1
10
15.406775
20
35.109436
0
VERTEX
8
1
10
15.595023
20
35.109436
42
-0.037741
0
VERTEX
8
1
10
15.665729
20
34.840736
42
-0.416190
0
VERTEX
8
1
10
15.649131
20
34.806740
0
VERTEX
8
1
10
15.631940
20
34.803177
42
-0.059349
0
VERTEX
8
1
10
15.457355
20
34.816925
0
VERTEX
8
1
10
15.406016
20
35.107826
0
SEQEND
0
POLYLINE
8
1
66
1
70
1
0
VERTEX
8
1
10
15.111699
20
35.452766
42
-0.862326
0
VERTEX
8
1
10
15.135827
20
35.200493
42
-0.565890
0
VERTEX
8
1
10
14.961726
20
35.350662
42
-0.382518
0
SEQEND
0
POLYLINE
8
1
66
1
70
1
0
VERTEX
8
1
10
14.375958
20
35.619247
42
0.092516
0
VERTEX
8
1
10
14.288634
20
35.591988
0
VERTEX
8
1
10
13.960294
20
35.281525
0
VERTEX
8
1
10
13.753812
20
35.315895
0
VERTEX
8
1
10
13.734872
20
35.145340
42
-0.015184
0
VERTEX
8
1
10
11.900279
20
35.229279
42
-0.034793
0
VERTEX
8
1
10
11.585750
20
35.273666
0
VERTEX
8
1
10
11.667745
20
35.863167
42
-0.144748
0
VERTEX
8
1
10
11.810794
20
36.211006
42
-0.200493
0
VERTEX
8
1
10
12.058043
20
36.330360
0
VERTEX
8
1
10
12.184934
20
36.329834
42
-0.017293
0
VERTEX
8
1
10
13.996667
20
36.212852
42
-0.019080
0
VERTEX
8
1
10
14.249024
20
36.173515
0
VERTEX
8
1
10
14.288077
20
36.159447
42
-0.178041
0
VERTEX
8
1
10
14.622914
20
35.777847
42
-0.069150
0
VERTEX
8
1
10
14.648467
20
35.656570
0
VERTEX
8
1
10
14.648612
20
35.126816
0
VERTEX
8
1
10
14.070374
20
35.136864
0
VERTEX
8
1
10
14.076621
20
35.151588
42
0.014570
0
VERTEX
8
1
10
14.423863
20
35.504044
42
0.187325
0
VERTEX
8
1
10
14.425574
20
35.597870
42
0.278011
0
SEQEND
0
POLYLINE
8
1
66
1
70
1
0
VERTEX
8
1
10
10.432778
20
34.971794
0
VERTEX
8
1
10
15.182031
20
34.742340
0
VERTEX
8
1
10
15.204980
20
34.581749
0
VERTEX
8
1
10
10.421304
20
34.811172
0
SEQEND
0
POLYLINE
8
1
66
1
70
1
0
VERTEX
8
1
10
15.251979
20
34.833855
0
VERTEX
8
1
10
15.182031
20
35.006203
0
VERTEX
8
1
10
15.335656
20
35.023277
0
VERTEX
8
1
10
15.337039
20
35.022171
42
0.038150
0
VERTEX
8
1
10
15.371947
20
34.825424
0
VERTEX
8
1
10
15.364327
20
34.820580
42
-0.085964
0
SEQEND
0
POLYLINE
8
1
66
1
70
1
0
VERTEX
8
1
10
15.744151
20
34.707939
0
VERTEX
8
1
10
15.778575
20
34.558800
0
VERTEX
8
1
10
15.296763
20
34.581749
0
VERTEX
8
1
10
15.262353
20
34.719414
0
SEQEND
0
POLYLINE
8
1
66
1
70
1
0
VERTEX
8
1
10
5.567003
20
31.310392
42
-0.186369
0
VERTEX
8
1
10
5.563067
20
31.375425
42
0.122148
0
VERTEX
8
1
10
5.869406
20
31.117460
0
VERTEX
8
1
10
5.918675
20
31.091898
0
VERTEX
8
1
10
5.968894
20
31.068254
42
0.127243
0
VERTEX
8
1
10
7.176219
20
30.903505
42
0.166170
0
VERTEX
8
1
10
7.752952
20
31.177580
42
0.100163
0
VERTEX
8
1
10
8.071727
20
31.638582
42
0.052137
0
VERTEX
8
1
10
8.223346
20
32.085938
0
VERTEX
8
1
10
8.228288
20
32.189972
0
VERTEX
8
1
10
8.219796
20
32.322311
42
0.088402
0
VERTEX
8
1
10
8.063241
20
32.937614
42
0.208641
0
VERTEX
8
1
10
7.295100
20
33.613853
42
0.056583
0
VERTEX
8
1
10
6.856620
20
33.711517
0
VERTEX
8
1
10
6.783470
20
33.712448
42
0.169519
0
VERTEX
8
1
10
5.869916
20
33.287483
0
VERTEX
8
1
10
5.826457
20
33.245392
42
0.086317
0
VERTEX
8
1
10
5.369684
20
32.562637
0
VERTEX
8
1
10
5.362484
20
32.548981
0
VERTEX
8
1
10
5.358141
20
32.543259
0
VERTEX
8
1
10
5.356305
20
32.549614
42
-0.159373
0
VERTEX
8
1
10
5.542804
20
33.214233
42
-0.159457
0
VERTEX
8
1
10
6.230692
20
33.782677
0
VERTEX
8
1
10
6.262178
20
33.792793
42
-0.121172
0
VERTEX
8
1
10
7.391624
20
33.793961
42
-0.085002
0
VERTEX
8
1
10
7.861096
20
33.592964
42
-0.109294
0
VERTEX
8
1
10
8.296369
20
33.063332
42
-0.095760
0
VERTEX
8
1
10
8.583892
20
32.162148
0
VERTEX
8
1
10
8.588016
20
32.103493
42
-0.120296
0
VERTEX
8
1
10
8.537332
20
31.752542
42
-0.120909
0
VERTEX
8
1
10
8.299546
20
31.375845
0
VERTEX
8
1
10
8.320380
20
31.427217
42
0.055835
0
VERTEX
8
1
10
8.468568
20
31.918982
42
0.053402
0
VERTEX
8
1
10
8.457419
20
32.158508
42
0.150608
0
VERTEX
8
1
10
8.437819
20
32.205368
0
VERTEX
8
1
10
8.432456
20
32.207848
42
0.311236
0
VERTEX
8
1
10
8.403592
20
32.186562
42
-0.044877
0
VERTEX
8
1
10
8.274432
20
31.713644
42
-0.018077
0
VERTEX
8
1
10
8.173026
20
31.454390
0
VERTEX
8
1
10
8.124736
20
31.375929
0
VERTEX
8
1
10
8.042829
20
31.273260
0
VERTEX
8
1
10
7.957904
20
31.181242
42
-0.172795
0
VERTEX
8
1
10
7.031697
20
30.733713
0
VERTEX
8
1
10
6.974320
20
30.727423
42
-0.091340
0
VERTEX
8
1
10
6.141976
20
30.818457
0
VERTEX
8
1
10
6.075722
20
30.838308
42
-0.109899
0
VERTEX
8
1
10
5.935711
20
30.911623
42
-0.079843
0
VERTEX
8
1
10
5.615567
20
31.223658
42
-0.047190
0
SEQEND
0
POLYLINE
8
1
66
1
70
1
0
VERTEX
8
1
10
6.136586
20
33.044968
42
0.143185
0
VERTEX
8
1
10
6.062083
20
32.998657
42
-0.140884
0
VERTEX
8
1
10
6.176764
20
33.111572
0
VERTEX
8
1
10
6.217536
20
33.137756
42
-0.178972
0
VERTEX
8
1
10
6.963751
20
33.288673
0
VERTEX
8
1
10
7.011638
20
33.276047
42
-0.149393
0
VERTEX
8
1
10
7.589662
20
32.915398
42
-0.160765
0
VERTEX
8
1
10
7.826196
20
32.299179
42
-0.186856
0
VERTEX
8
1
10
7.799340
20
32.338760
42
0.062824
0
VERTEX
8
1
10
7.747047
20
32.461739
42
0.466510
0
VERTEX
8
1
10
7.715130
20
32.459328
42
0.091100
0
VERTEX
8
1
10
7.679570
20
32.390732
42
0.140247
0
VERTEX
8
1
10
7.409069
20
32.904945
42
0.248264
0
VERTEX
8
1
10
6.768699
20
33.099274
0
VERTEX
8
1
10
6.721658
20
33.090515
0
VERTEX
8
1
10
6.675048
20
33.079689
42
0.295733
0
VERTEX
8
1
10
6.005939
20
32.391373
0
VERTEX
8
1
10
5.998003
20
32.350044
0
VERTEX
8
1
10
5.992705
20
32.301025
42
0.180342
0
VERTEX
8
1
10
6.237084
20
31.642633
42
0.185828
0
VERTEX
8
1
10
6.721822
20
31.403482
42
0.148305
0
VERTEX
8
1
10
7.208755
20
31.558432
42
0.133500
0
VERTEX
8
1
10
7.640087
20
32.028946
42
0.090511
0
VERTEX
8
1
10
7.691044
20
32.207108
42
-0.191056
0
VERTEX
8
1
10
7.710471
20
32.180244
42
-0.180286
0
VERTEX
8
1
10
7.698281
20
31.930349
42
-0.085624
0
VERTEX
8
1
10
7.606333
20
31.768568
0
VERTEX
8
1
10
7.601616
20
31.757830
42
0.164590
0
VERTEX
8
1
10
7.627968
20
31.755301
42
0.059771
0
VERTEX
8
1
10
7.725175
20
31.793497
42
-0.266688
0
VERTEX
8
1
10
6.795953
20
31.208994
0
VERTEX
8
1
10
6.739501
20
31.206877
42
-0.238524
0
VERTEX
8
1
10
6.014630
20
31.543390
0
VERTEX
8
1
10
5.984931
20
31.580919
42
-0.173001
0
VERTEX
8
1
10
5.753722
20
32.374130
42
-0.089588
0
VERTEX
8
1
10
5.771050
20
32.434174
0
VERTEX
8
1
10
5.774818
20
32.435089
42
-0.116667
0
VERTEX
8
1
10
5.784489
20
32.409271
42
0.024854
0
VERTEX
8
1
10
5.814048
20
32.249550
42
0.381377
0
VERTEX
8
1
10
5.829970
20
32.236099
0
VERTEX
8
1
10
5.836520
20
32.242508
42
0.059212
0
VERTEX
8
1
10
5.892890
20
32.427849
42
-0.035061
0
VERTEX
8
1
10
5.978254
20
32.696175
42
-0.106014
0
VERTEX
8
1
10
6.155268
20
32.934669
0
VERTEX
8
1
10
6.177588
20
32.956940
42
0.156212
0
VERTEX
8
1
10
6.173929
20
33.029839
42
0.319003
0
SEQEND
0
POLYLINE
8
1
66
1
70
1
0
VERTEX
8
1
10
7.291034
20
32.400787
42
-0.269231
0
VERTEX
8
1
10
7.206272
20
32.276932
0
VERTEX
8
1
10
7.197778
20
32.275940
0
VERTEX
8
1
10
7.202944
20
32.301460
42
0.201961
0
VERTEX
8
1
10
7.172418
20
32.486076
0
VERTEX
8
1
10
7.160906
20
32.499420
42
0.204387
0
VERTEX
8
1
10
6.920852
20
32.575455
42
0.115263
0
VERTEX
8
1
10
6.697623
20
32.511414
42
0.295937
0
VERTEX
8
1
10
6.624904
20
32.340012
42
0.097783
0
VERTEX
8
1
10
6.668063
20
32.199272
42
0.138566
0
VERTEX
8
1
10
6.845481
20
32.076614
42
0.187635
0
VERTEX
8
1
10
7.015632
20
32.097961
0
VERTEX
8
1
10
7.155433
20
32.174126
0
VERTEX
8
1
10
7.174010
20
32.173203
0
VERTEX
8
1
10
7.170085
20
32.142944
42
-0.264946
0
VERTEX
8
1
10
7.049906
20
31.984358
42
0.040184
0
VERTEX
8
1
10
6.992154
20
31.944109
42
0.182580
0
VERTEX
8
1
10
7.134048
20
31.979193
42
0.074163
0
VERTEX
8
1
10
7.247772
20
32.066811
0
VERTEX
8
1
10
7.355874
20
32.182457
0
VERTEX
8
1
10
7.357968
20
32.172325
0
VERTEX
8
1
10
7.355254
20
32.151512
0
VERTEX
8
1
10
7.351031
20
32.130951
42
-0.478002
0
VERTEX
8
1
10
6.654880
20
31.856825
42
-0.152457
0
VERTEX
8
1
10
6.492059
20
32.052467
0
VERTEX
8
1
10
6.473997
20
32.091995
42
-0.188378
0
VERTEX
8
1
10
6.446362
20
32.438736
42
-0.243853
0
VERTEX
8
1
10
6.755864
20
32.727592
0
VERTEX
8
1
10
6.787209
20
32.736382
42
-0.430186
0
VERTEX
8
1
10
7.344644
20
32.406090
42
-0.049483
0
VERTEX
8
1
10
7.358382
20
32.310463
42
-0.033266
0
VERTEX
8
1
10
7.290290
20
32.410019
0
SEQEND
0
POLYLINE
8
1
66
1
70
1
0
VERTEX
8
1
10
10.094602
20
25.077639
0
VERTEX
8
1
10
9.230569
20
25.077635
0
VERTEX
8
1
10
9.103223
20
25.975103
42
-0.023386
0
VERTEX
8
1
10
9.017913
20
26.805811
0
VERTEX
8
1
10
8.998471
20
26.805811
0
VERTEX
8
1
10
8.852258
20
26.467791
42
-0.003659
0
VERTEX
8
1
10
8.214732
20
25.077635
0
VERTEX
8
1
10
7.346622
20
25.077635
0
VERTEX
8
1
10
7.345396
20
25.078985
0
VERTEX
8
1
10
8.633847
20
27.457872
0
VERTEX
8
1
10
8.284238
20
29.699831
0
VERTEX
8
1
10
9.141416
20
29.699831
42
-0.009405
0
VERTEX
8
1
10
9.301970
20
28.256010
0
VERTEX
8
1
10
9.319762
20
28.040220
0
VERTEX
8
1
10
9.332719
20
28.040220
42
-0.022236
0
VERTEX
8
1
10
9.694955
20
28.894743
42
-0.002968
0
VERTEX
8
1
10
10.068105
20
29.699831
0
VERTEX
8
1
10
10.943044
20
29.699831
0
VERTEX
8
1
10
10.944303
20
29.698523
0
VERTEX
8
1
10
9.662717
20
27.388144
0
SEQEND
0
POLYLINE
8
1
66
1
70
1
0
VERTEX
8
1
10
11.564288
20
25.338491
0
VERTEX
8
1
10
10.921351
20
25.981428
0
VERTEX
8
1
10
11.687343
20
25.981428
0
SEQEND
0
POLYLINE
8
1
66
1
70
1
0
VERTEX
8
1
10
11.877751
20
26.648096
0
VERTEX
8
1
10
10.513040
20
26.648096
0
VERTEX
8
1
10
10.636479
20
27.292715
0
VERTEX
8
1
10
12.001191
20
27.292715
0
SEQEND
0
POLYLINE
8
1
66
1
70
1
0
VERTEX
8
1
10
12.491813
20
24.410967
0
VERTEX
8
1
10
15.159028
20
24.410967
0
VERTEX
8
1
10
15.194373
20
24.597075
0
VERTEX
8
1
10
15.234412
20
24.410967
0
VERTEX
8
1
10
15.499841
20
24.410967
0
VERTEX
8
1
10
13.995826
20
22.906950
0
SEQEND
0
POLYLINE
8
1
66
1
70
1
0
VERTEX
8
1
10
12.193126
20
25.077635
0
VERTEX
8
1
10
13.077796
20
29.699831
0
VERTEX
8
1
10
13.935021
20
29.699831
0
VERTEX
8
1
10
13.050359
20
25.077635
0
SEQEND
0
POLYLINE
8
1
66
1
70
1
0
VERTEX
8
1
10
17.390842
20
29.699831
0
VERTEX
8
1
10
16.506683
20
25.077635
0
VERTEX
8
1
10
15.773749
20
25.077635
0
VERTEX
8
1
10
15.423512
20
26.701616
0
VERTEX
8
1
10
15.389174
20
26.855547
0
VERTEX
8
1
10
15.356492
20
27.009832
42
-0.035263
0
VERTEX
8
1
10
15.169398
20
28.335104
0
VERTEX
8
1
10
15.156184
20
28.335108
42
-0.016490
0
VERTEX
8
1
10
14.746011
20
25.809385
0
VERTEX
8
1
10
14.676776
20
25.443792
0
VERTEX
8
1
10
14.607186
20
25.078264
0
VERTEX
8
1
10
13.873286
20
25.077700
0
VERTEX
8
1
10
14.758655
20
29.699827
0
VERTEX
8
1
10
15.539727
20
29.699831
0
VERTEX
8
1
10
15.748923
20
28.621714
42
-0.007376
0
VERTEX
8
1
10
16.047777
20
27.018888
42
-0.014131
0
VERTEX
8
1
10
16.122681
20
26.428640
0
VERTEX
8
1
10
16.135715
20
26.428640
0
VERTEX
8
1
10
16.188023
20
26.865652
0
VERTEX
8
1
10
16.216234
20
27.107595
42
-0.019470
0
VERTEX
8
1
10
16.520008
20
29.006472
0
VERTEX
8
1
10
16.585207
20
29.353182
0
VERTEX
8
1
10
16.650742
20
29.699831
0
SEQEND
0
POLYLINE
8
1
66
1
70
1
0
VERTEX
8
1
10
18.197464
20
30.366503
0
VERTEX
8
1
10
16.097992
20
30.366499
0
VERTEX
8
1
10
16.094069
20
30.345640
42
-0.049026
0
VERTEX
8
1
10
16.089655
20
30.365564
0
VERTEX
8
1
10
12.526603
20
30.366388
0
VERTEX
8
1
10
12.065925
20
27.959429
0
VERTEX
8
1
10
10.742024
20
27.959379
0
VERTEX
8
1
10
12.076398
20
30.364721
0
VERTEX
8
1
10
12.071406
20
30.366499
0
VERTEX
8
1
10
7.505595
20
30.365782
0
VERTEX
8
1
10
7.684322
20
29.218454
0
VERTEX
8
1
10
6.339262
20
30.563990
42
0.302168
0
VERTEX
8
1
10
8.287171
20
31.130526
42
0.156054
0
VERTEX
8
1
10
9.296824
20
31.599363
42
0.015303
0
VERTEX
8
1
10
15.151553
20
31.392691
42
0.000886
0
VERTEX
8
1
10
19.731375
20
31.427702
0
VERTEX
8
1
10
19.731375
20
31.430464
42
0.400082
0
VERTEX
8
1
10
21.710007
20
30.621138
0
VERTEX
8
1
10
21.189104
20
30.100237
42
0.013779
0
VERTEX
8
1
10
20.684727
20
30.295061
42
0.081884
0
VERTEX
8
1
10
19.787216
20
30.407106
42
0.171804
0
VERTEX
8
1
10
18.079956
20
29.751261
0
SEQEND
0
POLYLINE
8
1
66
1
70
1
0
VERTEX
8
1
10
20.600002
20
29.615404
0
VERTEX
8
1
10
20.326452
20
28.863169
42
0.144062
0
VERTEX
8
1
10
19.563225
20
28.932539
42
0.149095
0
VERTEX
8
1
10
19.041325
20
28.632853
42
0.074383
0
VERTEX
8
1
10
18.752439
20
28.225359
42
0.070038
0
VERTEX
8
1
10
18.490864
20
27.506647
42
0.075524
0
VERTEX
8
1
10
18.410467
20
26.449705
42
0.086022
0
VERTEX
8
1
10
18.508465
20
26.069487
0
VERTEX
8
1
10
18.527035
20
26.034197
42
0.292368
0
VERTEX
8
1
10
18.950581
20
25.777296
42
0.070371
0
VERTEX
8
1
10
19.201782
20
25.804747
0
VERTEX
8
1
10
19.414015
20
26.949835
0
VERTEX
8
1
10
18.996277
20
26.949831
0
VERTEX
8
1
10
19.140041
20
27.642420
0
VERTEX
8
1
10
20.333273
20
27.642302
0
VERTEX
8
1
10
19.874754
20
25.212831
0
VERTEX
8
1
10
19.862942
20
25.203844
42
-0.128590
0
VERTEX
8
1
10
18.621437
20
25.063108
42
-0.267915
0
VERTEX
8
1
10
17.655628
20
25.827902
42
-0.102320
0
VERTEX
8
1
10
17.494833
20
26.700109
42
-0.115048
0
VERTEX
8
1
10
17.890717
20
28.419199
42
-0.079784
0
VERTEX
8
1
10
18.427273
20
29.166162
42
-0.193057
0
VERTEX
8
1
10
19.849255
20
29.740370
42
-0.080915
0
VERTEX
8
1
10
20.485144
20
29.658857
0
VERTEX
8
1
10
20.541370
20
29.639990
0
VERTEX
8
1
10
20.596874
20
29.619085
0
SEQEND
0
LINE
8
1
10
5.106409
20
36.534431
11
5.865985
21
37.294006
0
LINE
8
1
10
3.569781
20
34.997795
11
4.662296
21
36.090324
0
POLYLINE
8
1
66
1
0
VERTEX
8
1
10
2.901616
20
33.460846
0
VERTEX
8
1
10
2.467229
20
33.895241
0
VERTEX
8
1
10
3.162310
20
34.590332
0
SEQEND
0
LINE
8
1
10
4.216550
20
32.145905
11
3.383264
21
32.979187
0
LINE
8
1
10
6.031214
20
30.331236
11
4.734942
21
31.627504
0
LINE
8
1
10
7.614560
20
28.747892
11
6.568289
21
29.794157
0
LINE
8
1
10
11.392352
20
24.970095
11
10.808999
21
25.553450
0
LINE
8
1
10
12.568290
20
23.794157
11
12.068290
21
24.294157
0
POLYLINE
8
1
66
1
0
VERTEX
8
1
10
14.376069
20
22.746878
0
VERTEX
8
1
10
13.995826
20
22.366636
0
VERTEX
8
1
10
13.068465
20
23.293997
0
SEQEND
0
LINE
8
1
10
15.913218
20
24.284025
11
14.968612
21
23.339407
0
LINE
8
1
10
22.885712
20
31.256521
11
21.607351
21
29.978148
0
LINE
8
1
10
23.950151
20
32.320961
11
23.455223
21
31.826025
0
POLYLINE
8
1
66
1
0
VERTEX
8
1
10
25.170935
20
34.248734
0
VERTEX
8
1
10
25.524424
20
33.895241
0
VERTEX
8
1
10
24.542681
20
32.913506
0
SEQEND
0
LINE
8
1
10
23.300602
20
36.119072
11
24.671288
21
34.748390
0
LINE
8
1
10
22.106157
20
37.313507
11
22.763655
21
36.656013
0
LINE
8
1
10
15.437266
20
43.996582
11
15.837426
21
43.600372
0
POLYLINE
8
1
66
1
0
VERTEX
8
1
10
13.795272
20
45.217232
0
VERTEX
8
1
10
13.995826
20
45.423836
0
VERTEX
8
1
10
14.879203
20
44.549171
0
SEQEND
0
LINE
8
1
10
12.207788
20
43.581848
11
13.339082
21
44.747276
0
LINE
8
1
10
11.652232
20
43.359627
11
12.207788
21
43.359627
0
ARC
8
1
10
16.031872
20
39.664005
40
3.729913
50
84.729898
51
95.270112
0
LINE
8
1
10
5.707788
20
37.433708
11
6.355941
21
37.433708
0
LINE
8
1
10
7.707788
20
29.007776
11
7.837420
21
28.285551
0
POLYLINE
8
1
66
1
0
VERTEX
8
1
10
21.652245
20
37.396667
42
0.049924
0
VERTEX
8
1
10
22.082909
20
37.416161
0
VERTEX
8
1
10
22.119164
20
37.424133
0
VERTEX
8
1
10
22.152245
20
37.433708
0
SEQEND
0
POLYLINE
8
1
66
1
0
VERTEX
8
1
10
10.744830
20
25.952219
0
VERTEX
8
1
10
10.603908
20
25.952219
0
VERTEX
8
1
10
10.689275
20
25.470739
0
SEQEND
0
LINE
8
1
10
11.541121
20
25.174440
11
11.430011
21
24.655920
0
LINE
8
1
10
11.689275
20
24.415186
11
12.281865
21
24.433699
0
LINE
8
1
10
15.689275
20
24.415186
11
16.281870
21
24.433699
0
POLYLINE
8
1
66
1
0
VERTEX
8
1
10
21.300385
20
30.063330
0
VERTEX
8
1
10
21.448034
20
29.996687
0
VERTEX
8
1
10
21.170759
20
29.229998
0
SEQEND
0
POLYLINE
8
1
66
1
0
VERTEX
8
1
10
15.302487
20
34.455559
42
-0.025971
0
VERTEX
8
1
10
15.684175
20
32.940636
42
-0.040559
0
VERTEX
8
1
10
15.759149
20
32.290810
42
-0.058925
0
VERTEX
8
1
10
15.731971
20
32.052231
0
VERTEX
8
1
10
15.715070
20
32.007408
42
-0.102881
0
VERTEX
8
1
10
15.493583
20
31.743448
42
-0.114517
0
VERTEX
8
1
10
15.130895
20
31.604784
42
-0.040732
0
VERTEX
8
1
10
14.739051
20
31.565790
42
-0.009327
0
VERTEX
8
1
10
13.871205
20
31.568377
42
-0.002641
0
VERTEX
8
1
10
10.363881
20
31.650789
42
-0.316729
0
VERTEX
8
1
10
10.328933
20
31.803774
0
VERTEX
8
1
10
10.363944
20
34.679260
0
SEQEND
0
POLYLINE
8
1
66
1
0
VERTEX
8
1
10
9.245467
20
31.994890
42
0.152458
0
VERTEX
8
1
10
9.433530
20
31.811037
42
0.092337
0
VERTEX
8
1
10
9.793263
20
31.692980
42
0.042056
0
VERTEX
8
1
10
10.123044
20
31.667959
0
SEQEND
0
LINE
8
1
10
15.457355
20
31.513098
11
19.518320
21
31.564714
0
POLYLINE
8
1
66
1
0
VERTEX
8
1
10
15.508990
20
35.367554
42
0.156091
0
VERTEX
8
1
10
15.356191
20
35.285561
0
VERTEX
8
1
10
15.344789
20
35.269302
0
VERTEX
8
1
10
15.336898
20
35.247108
0
SEQEND
0
POLYLINE
8
1
66
1
0
VERTEX
8
1
10
16.231686
20
33.268250
0
VERTEX
8
1
10
16.524221
20
32.390671
0
VERTEX
8
1
10
16.539253
20
32.375854
42
0.119360
0
VERTEX
8
1
10
16.857134
20
32.231842
42
0.073366
0
VERTEX
8
1
10
17.346748
20
32.203453
42
-0.012294
0
VERTEX
8
1
10
18.280771
20
32.221779
42
-0.004614
0
VERTEX
8
1
10
19.225800
20
32.218597
0
SEQEND
0
POLYLINE
8
1
66
1
0
VERTEX
8
1
10
18.864431
20
34.226135
42
-0.141674
0
VERTEX
8
1
10
19.016182
20
34.448654
42
-0.284083
0
VERTEX
8
1
10
19.265947
20
34.467026
42
-0.010242
0
VERTEX
8
1
10
19.896873
20
34.168770
0
SEQEND
0
POLYLINE
8
1
66
1
0
VERTEX
8
1
10
21.468515
20
34.776764
42
0.318706
0
VERTEX
8
1
10
21.412369
20
34.535881
42
0.046417
0
VERTEX
8
1
10
21.548328
20
34.261284
0
VERTEX
8
1
10
21.353525
20
34.157677
42
-0.089010
0
VERTEX
8
1
10
21.190115
20
34.521271
42
-0.165425
0
VERTEX
8
1
10
21.207272
20
34.750992
0
VERTEX
8
1
10
21.239065
20
34.799713
0
SEQEND
0
POLYLINE
8
1
66
1
0
VERTEX
8
1
10
20.837576
20
34.524399
42
-0.213855
0
VERTEX
8
1
10
20.917439
20
34.393997
42
-0.242289
0
VERTEX
8
1
10
20.849051
20
34.272010
0
SEQEND
0
LINE
8
1
10
20.975216
20
34.180237
11
21.193180
21
33.721375
0
ARC
8
1
10
7.580564
20
32.043640
40
1.152374
50
-39.392662
51
-17.825624
0
ARC
8
1
10
6.877317
20
32.220089
40
1.804758
50
93.449471
51
158.453789
0
LINE
8
1
10
16.593054
20
33.870506
11
19.621565
21
33.044556
0
LINE
8
1
10
18.210554
20
33.233826
11
18.227766
21
32.373451
0
LINE
8
1
10
19.518320
20
32.838066
11
18.795610
21
32.906898
0
POLYLINE
8
1
66
1
0
VERTEX
8
1
10
18.520287
20
32.889687
42
-0.206705
0
VERTEX
8
1
10
18.665392
20
32.877640
42
-0.248823
0
VERTEX
8
1
10
18.712168
20
32.781128
42
-0.064154
0
VERTEX
8
1
10
18.709564
20
32.717606
0
SEQEND
0
LINE
8
1
10
18.038488
20
33.182205
11
17.057669
21
32.390671
0
POLYLINE
8
1
66
1
0
VERTEX
8
1
10
16.575842
20
33.629616
0
VERTEX
8
1
10
16.541418
20
32.683197
42
0.100926
0
VERTEX
8
1
10
16.723549
20
32.605141
42
0.471389
0
VERTEX
8
1
10
16.832458
20
32.685875
0
VERTEX
8
1
10
16.833967
20
32.700394
0
VERTEX
8
1
10
16.836542
20
32.734589
42
0.006690
0
VERTEX
8
1
10
16.868364
20
33.560776
0
SEQEND
0
POLYLINE
8
1
66
1
0
VERTEX
8
1
10
16.575842
20
34.068558
0
VERTEX
8
1
10
16.610266
20
34.565208
42
-0.103761
0
VERTEX
8
1
10
16.801506
20
34.566872
42
-0.299633
0
VERTEX
8
1
10
16.851152
20
34.518646
0
VERTEX
8
1
10
16.857161
20
34.465027
42
-0.012553
0
VERTEX
8
1
10
16.868364
20
33.990967
0
SEQEND
0
POLYLINE
8
1
66
1
0
VERTEX
8
1
10
16.988806
20
34.266289
42
0.056473
0
VERTEX
8
1
10
17.503113
20
34.100487
42
0.063612
0
VERTEX
8
1
10
17.797739
20
34.103218
0
VERTEX
8
1
10
18.118092
20
34.144852
42
-0.078300
0
VERTEX
8
1
10
18.264050
20
34.139778
42
0.014882
0
VERTEX
8
1
10
18.709564
20
34.128616
0
SEQEND
0
LINE
8
1
10
17.006033
20
33.956551
11
18.675167
21
33.922127
0
POLYLINE
8
1
66
1
0
VERTEX
8
1
10
17.814789
20
33.681236
42
-0.380824
0
VERTEX
8
1
10
17.908575
20
33.753296
42
-0.108477
0
VERTEX
8
1
10
18.004065
20
33.732857
42
0.082502
0
VERTEX
8
1
10
18.561268
20
33.613861
0
VERTEX
8
1
10
18.595306
20
33.615334
0
VERTEX
8
1
10
18.629211
20
33.618698
42
0.191561
0
VERTEX
8
1
10
18.801531
20
33.704445
42
0.146124
0
VERTEX
8
1
10
18.942099
20
33.950249
42
0.206814
0
VERTEX
8
1
10
18.920380
20
34.059723
0
VERTEX
8
1
10
18.910315
20
34.069229
0
VERTEX
8
1
10
18.898855
20
34.076996
0
SEQEND
0
POLYLINE
8
1
66
1
0
VERTEX
8
1
10
19.019297
20
34.214661
42
-0.335187
0
VERTEX
8
1
10
19.112097
20
33.905212
42
-0.094434
0
VERTEX
8
1
10
18.948736
20
33.624771
42
-0.197650
0
VERTEX
8
1
10
18.639923
20
33.491310
0
VERTEX
8
1
10
18.605913
20
33.490555
0
VERTEX
8
1
10
18.571922
20
33.491943
0
SEQEND
0
POLYLINE
8
1
66
1
0
VERTEX
8
1
10
19.036509
20
33.509155
42
0.149286
0
VERTEX
8
1
10
19.271492
20
33.546707
42
0.154664
0
VERTEX
8
1
10
19.346227
20
33.629616
0
SEQEND
0
POLYLINE
8
1
66
1
0
VERTEX
8
1
10
19.208588
20
33.784485
42
0.195307
0
VERTEX
8
1
10
19.335127
20
33.893013
42
0.251156
0
VERTEX
8
1
10
19.317520
20
33.981339
0
VERTEX
8
1
10
19.294634
20
34.008179
0
SEQEND
0
POLYLINE
8
1
66
1
0
VERTEX
8
1
10
18.021276
20
34.507179
42
-0.134002
0
VERTEX
8
1
10
18.055880
20
34.334671
42
-0.081004
0
VERTEX
8
1
10
18.038488
20
34.283493
0
SEQEND
0
LINE
8
1
10
17.007538
20
33.129135
11
17.730207
21
33.129135
0
POLYLINE
8
1
66
1
0
VERTEX
8
1
10
17.576696
20
32.549622
42
-0.112316
0
VERTEX
8
1
10
17.720167
20
32.417725
42
-0.094880
0
VERTEX
8
1
10
17.730208
20
32.380631
0
SEQEND
0
ARC
8
1
10
17.188231
20
32.909786
40
0.193623
50
-143.128970
51
-90.004513
0
ARC
8
1
10
17.972242
20
33.774067
40
1.198710
50
-67.711577
51
-59.428685
0
ARC
8
1
10
18.503374
20
31.863997
40
0.845994
50
127.852230
51
142.361110
0
POLYLINE
8
1
66
1
0
VERTEX
8
1
10
5.232867
20
31.435240
42
0.044278
0
VERTEX
8
1
10
5.607972
20
30.952707
42
0.098640
0
VERTEX
8
1
10
5.836911
20
30.779421
0
VERTEX
8
1
10
5.871817
20
30.768511
0
SEQEND
0
POLYLINE
8
1
66
1
0
VERTEX
8
1
10
21.956770
20
30.712942
42
0.052011
0
VERTEX
8
1
10
22.428701
20
31.211275
42
0.083519
0
VERTEX
8
1
10
22.561153
20
31.458574
42
0.026128
0
VERTEX
8
1
10
23.166744
20
31.425585
0
VERTEX
8
1
10
23.237938
20
31.428251
42
0.124595
0
VERTEX
8
1
10
23.342968
20
31.452154
0
VERTEX
8
1
10
23.345406
20
31.456186
0
VERTEX
8
1
10
23.346510
20
31.460768
0
VERTEX
8
1
10
23.095768
20
31.824175
0
SEQEND
0
LINE
8
1
10
17.410818
20
34.651207
11
18.216373
21
34.651207
0
LINE
8
1
10
17.438595
20
34.984543
11
18.021929
21
34.984543
0
LINE
8
1
10
17.660818
20
35.262321
11
17.994150
21
35.234543
0
POLYLINE
8
1
66
1
70
1
0
VERTEX
8
1
10
32.175255
20
7.485473
0
VERTEX
8
1
10
32.417156
20
8.150691
0
VERTEX
8
1
10
37.336514
20
13.071795
0
VERTEX
8
1
10
33.759888
20
16.648418
0
VERTEX
8
1
10
33.754967
20
16.655090
42
0.179841
0
VERTEX
8
1
10
35.173687
20
17.618317
42
0.068322
0
VERTEX
8
1
10
35.663807
20
18.525974
42
0.113780
0
VERTEX
8
1
10
35.966106
20
20.588699
42
0.075086
0
VERTEX
8
1
10
35.776230
20
21.367775
42
0.150900
0
VERTEX
8
1
10
35.044956
20
22.244286
0
VERTEX
8
1
10
34.994007
20
22.275589
0
VERTEX
8
1
10
34.942062
20
22.305218
42
0.112244
0
VERTEX
8
1
10
33.986767
20
22.559227
42
0.051697
0
VERTEX
8
1
10
32.901127
20
22.483315
0
VERTEX
8
1
10
32.378464
20
22.376751
0
VERTEX
8
1
10
32.291775
20
21.921989
42
0.213966
0
VERTEX
8
1
10
31.148346
20
22.581718
42
0.217876
0
VERTEX
8
1
10
29.499271
20
22.062576
42
0.048733
0
VERTEX
8
1
10
29.178669
20
21.721504
42
0.177973
0
VERTEX
8
1
10
28.332798
20
22.419678
42
0.055310
0
VERTEX
8
1
10
27.875088
20
22.533211
0
VERTEX
8
1
10
25.339539
20
25.068756
0
VERTEX
8
1
10
25.335220
20
25.070068
0
VERTEX
8
1
10
22.806522
20
22.542122
0
VERTEX
8
1
10
22.072933
20
22.542126
0
VERTEX
8
1
10
22.022404
20
22.284115
42
0.138052
0
VERTEX
8
1
10
21.157356
20
22.590237
42
0.195395
0
VERTEX
8
1
10
19.666397
20
22.127998
0
VERTEX
8
1
10
19.745510
20
22.541313
0
VERTEX
8
1
10
15.746384
20
22.542126
0
VERTEX
8
1
10
15.740509
20
22.539494
0
VERTEX
8
1
10
14.602108
20
16.591591
0
VERTEX
8
1
10
14.603012
20
16.586613
0
VERTEX
8
1
10
16.850742
20
16.586609
0
VERTEX
8
1
10
13.337360
20
13.072215
0
VERTEX
8
1
10
19.212223
20
7.196074
0
VERTEX
8
1
10
19.281231
20
6.754657
0
VERTEX
8
1
10
17.566376
20
3.587302
0
VERTEX
8
1
10
19.983269
20
3.587314
0
VERTEX
8
1
10
19.990044
20
3.601996
0
VERTEX
8
1
10
19.992584
20
3.588233
0
VERTEX
8
1
10
22.237785
20
3.587302
0
VERTEX
8
1
10
22.104450
20
4.303805
0
VERTEX
8
1
10
22.742653
20
3.665648
0
VERTEX
8
1
10
22.727833
20
3.588191
0
VERTEX
8
1
10
22.820076
20
3.587302
0
VERTEX
8
1
10
25.333675
20
1.074615
0
VERTEX
8
1
10
25.338036
20
1.072879
0
VERTEX
8
1
10
27.852970
20
3.587302
0
VERTEX
8
1
10
28.398552
20
3.587302
0
VERTEX
8
1
10
28.528038
20
4.262820
0
VERTEX
8
1
10
28.607361
20
4.342208
42
0.195208
0
VERTEX
8
1
10
29.805805
20
3.589114
42
0.136562
0
VERTEX
8
1
10
31.466038
20
3.767200
42
0.002049
0
VERTEX
8
1
10
31.800293
20
3.893058
0
VERTEX
8
1
10
32.478321
20
7.484771
0
SEQEND
0
POLYLINE
8
1
66
1
70
1
0
VERTEX
8
1
10
32.793610
20
9.205199
42
-0.407298
0
VERTEX
8
1
10
32.819565
20
9.166820
0
VERTEX
8
1
10
32.542877
20
8.400760
42
-1.000160
0
VERTEX
8
1
10
32.480976
20
8.412292
0
VERTEX
8
1
10
32.748901
20
9.156802
0
VERTEX
8
1
10
32.631516
20
9.209788
42
-0.973789
0
VERTEX
8
1
10
32.649582
20
9.269801
0
SEQEND
0
POLYLINE
8
1
66
1
70
1
0
VERTEX
8
1
10
34.200134
20
10.450576
42
-0.991719
0
VERTEX
8
1
10
34.252560
20
10.415442
0
VERTEX
8
1
10
32.970024
20
9.132071
42
-0.907274
0
VERTEX
8
1
10
32.922535
20
9.172252
0
SEQEND
0
POLYLINE
8
1
66
1
70
1
0
VERTEX
8
1
10
31.173885
20
10.834205
42
0.035860
0
VERTEX
8
1
10
31.299213
20
10.466762
0
VERTEX
8
1
10
31.293167
20
10.471171
42
-0.152041
0
VERTEX
8
1
10
31.060410
20
10.926787
42
-0.082980
0
VERTEX
8
1
10
31.087208
20
11.295218
42
-0.103230
0
VERTEX
8
1
10
31.421696
20
12.075881
42
-0.084661
0
VERTEX
8
1
10
31.707413
20
12.355784
42
-0.098910
0
VERTEX
8
1
10
32.244118
20
12.533736
42
-0.098456
0
VERTEX
8
1
10
33.020329
20
12.494735
42
-0.233891
0
VERTEX
8
1
10
33.743362
20
11.730659
42
-0.084581
0
VERTEX
8
1
10
33.772148
20
11.446887
0
VERTEX
8
1
10
33.740749
20
11.507304
42
0.098112
0
VERTEX
8
1
10
33.310940
20
12.100844
42
0.162660
0
VERTEX
8
1
10
32.568199
20
12.430236
0
VERTEX
8
1
10
32.505264
20
12.428103
42
0.116775
0
VERTEX
8
1
10
31.865559
20
12.210395
42
0.162234
0
VERTEX
8
1
10
31.454918
20
11.674438
42
0.082405
0
VERTEX
8
1
10
31.357792
20
11.097224
42
0.106836
0
VERTEX
8
1
10
31.630299
20
10.445605
42
0.189057
0
VERTEX
8
1
10
32.168983
20
10.080096
0
VERTEX
8
1
10
32.210129
20
10.072951
42
0.124670
0
VERTEX
8
1
10
33.223103
20
10.192122
42
0.096175
0
VERTEX
8
1
10
33.526775
20
10.380267
42
0.029928
0
VERTEX
8
1
10
33.600410
20
10.462653
0
VERTEX
8
1
10
33.602955
20
10.449531
42
-0.137587
0
VERTEX
8
1
10
33.557690
20
10.340598
42
-0.097095
0
VERTEX
8
1
10
33.220200
20
10.033114
0
VERTEX
8
1
10
33.198696
20
10.023517
42
-0.104231
0
VERTEX
8
1
10
32.375401
20
9.924163
42
-0.189903
0
VERTEX
8
1
10
31.524593
20
10.368663
0
VERTEX
8
1
10
31.449139
20
10.462043
0
VERTEX
8
1
10
31.404812
20
10.533931
42
-0.056659
0
VERTEX
8
1
10
31.210251
20
11.149886
0
VERTEX
8
1
10
31.205338
20
11.156619
42
0.692832
0
VERTEX
8
1
10
31.177464
20
11.155414
0
VERTEX
8
1
10
31.173908
20
11.148971
42
0.113958
0
SEQEND
0
POLYLINE
8
1
66
1
70
1
0
VERTEX
8
1
10
18.721455
20
13.993255
42
0.057235
0
VERTEX
8
1
10
17.729374
20
13.711913
42
0.064572
0
VERTEX
8
1
10
17.179287
20
13.391002
42
-0.089099
0
VERTEX
8
1
10
17.512524
20
13.781066
42
-0.076276
0
VERTEX
8
1
10
18.126053
20
14.159411
0
VERTEX
8
1
10
18.203415
20
14.192607
0
VERTEX
8
1
10
18.281624
20
14.223758
42
-0.063485
0
VERTEX
8
1
10
19.399048
20
14.475066
42
-0.012425
0
VERTEX
8
1
10
21.670429
20
14.389030
0
VERTEX
8
1
10
21.653217
20
14.268580
42
0.025578
0
VERTEX
8
1
10
19.872421
20
14.332145
42
0.043711
0
VERTEX
8
1
10
19.050251
20
14.251327
42
0.054893
0
VERTEX
8
1
10
18.796791
20
14.165328
0
VERTEX
8
1
10
18.948997
20
14.170691
42
-0.007736
0
VERTEX
8
1
10
21.670429
20
14.165328
0
VERTEX
8
1
10
21.670429
20
13.993968
42
0.049787
0
VERTEX
8
1
10
19.420147
20
14.076659
42
0.022669
0
SEQEND
0
POLYLINE
8
1
66
1
70
1
0
VERTEX
8
1
10
21.465134
20
10.875525
42
-0.962436
0
VERTEX
8
1
10
21.465137
20
10.813071
42
-0.082799
0
VERTEX
8
1
10
20.897144
20
10.896499
42
-0.116567
0
VERTEX
8
1
10
20.620010
20
11.067630
42
-0.131306
0
VERTEX
8
1
10
20.555054
20
11.172046
42
-0.855322
0
VERTEX
8
1
10
20.616718
20
11.179748
0
VERTEX
8
1
10
20.630928
20
11.155974
42
0.128753
0
VERTEX
8
1
10
20.826637
20
10.995654
0
VERTEX
8
1
10
20.859417
20
10.980201
0
VERTEX
8
1
10
20.933357
20
10.950961
42
0.080142
0
SEQEND
0
POLYLINE
8
1
66
1
70
1
0
VERTEX
8
1
10
19.766392
20
11.384524
42
0.166224
0
VERTEX
8
1
10
19.744171
20
11.362338
0
VERTEX
8
1
10
19.738514
20
11.331439
42
-0.053145
0
VERTEX
8
1
10
19.507320
20
10.615153
42
-0.138495
0
VERTEX
8
1
10
18.864391
20
10.048877
42
-0.136610
0
VERTEX
8
1
10
17.937332
20
9.907435
42
-0.053678
0
VERTEX
8
1
10
17.384834
20
10.024280
0
VERTEX
8
1
10
17.361790
20
10.034175
42
-0.107532
0
VERTEX
8
1
10
16.935722
20
10.430614
42
-0.179148
0
VERTEX
8
1
10
16.900993
20
10.542441
0
VERTEX
8
1
10
16.913757
20
10.537803
42
0.104722
0
VERTEX
8
1
10
17.162971
20
10.320876
42
0.072997
0
VERTEX
8
1
10
17.569237
20
10.154151
42
0.099463
0
VERTEX
8
1
10
18.547974
20
10.083358
0
VERTEX
8
1
10
18.607136
20
10.093383
42
0.166633
0
VERTEX
8
1
10
19.179184
20
10.443271
42
0.078340
0
VERTEX
8
1
10
19.420067
20
10.831336
42
0.051454
0
VERTEX
8
1
10
19.568851
20
11.281856
42
0.085441
0
VERTEX
8
1
10
19.458832
20
11.981399
0
VERTEX
8
1
10
19.421928
20
12.074584
42
0.210047
0
VERTEX
8
1
10
18.676109
20
12.776103
42
0.062843
0
VERTEX
8
1
10
18.180725
20
12.889770
0
VERTEX
8
1
10
18.089157
20
12.884864
42
0.154453
0
VERTEX
8
1
10
17.255150
20
12.504333
0
VERTEX
8
1
10
17.209496
20
12.462947
42
0.094279
0
VERTEX
8
1
10
16.717293
20
11.752761
42
-0.069479
0
VERTEX
8
1
10
16.698261
20
11.719523
42
-0.156083
0
VERTEX
8
1
10
16.863972
20
12.358031
42
-0.170320
0
VERTEX
8
1
10
17.585938
20
12.963599
0
VERTEX
8
1
10
17.615864
20
12.972655
42
-0.128520
0
VERTEX
8
1
10
18.817673
20
12.947394
42
-0.057701
0
VERTEX
8
1
10
19.170692
20
12.791541
0
VERTEX
8
1
10
19.230049
20
12.748031
42
-0.103479
0
VERTEX
8
1
10
19.648006
20
12.220241
42
-0.097025
0
VERTEX
8
1
10
19.927525
20
11.305896
42
-0.138417
0
VERTEX
8
1
10
19.856220
20
10.872855
42
-0.108376
0
VERTEX
8
1
10
19.640144
20
10.551929
0
VERTEX
8
1
10
19.661911
20
10.605201
42
0.057925
0
VERTEX
8
1
10
19.810310
20
11.102382
42
0.053700
0
VERTEX
8
1
10
19.797451
20
11.338904
42
0.172750
0
VERTEX
8
1
10
19.777336
20
11.382648
0
VERTEX
8
1
10
19.772034
20
11.384562
0
SEQEND
0
POLYLINE
8
1
66
1
70
1
0
VERTEX
8
1
10
16.550308
20
10.590247
42
-0.977516
0
VERTEX
8
1
10
16.596210
20
10.633327
42
0.039609
0
VERTEX
8
1
10
16.958630
20
10.163218
42
0.066373
0
VERTEX
8
1
10
17.152283
20
10.002177
0
VERTEX
8
1
10
17.211437
20
9.977340
42
-1.262552
0
VERTEX
8
1
10
17.197037
20
9.916514
0
VERTEX
8
1
10
17.132435
20
9.942622
0
VERTEX
8
1
10
17.064842
20
9.985385
42
-0.059818
0
VERTEX
8
1
10
16.803627
20
10.245334
42
-0.028963
0
SEQEND
0
POLYLINE
8
1
66
1
70
1
0
VERTEX
8
1
10
16.568592
20
12.047645
42
-0.982403
0
VERTEX
8
1
10
16.510147
20
12.069762
42
-0.293050
0
VERTEX
8
1
10
18.117054
20
13.228267
42
-0.830899
0
VERTEX
8
1
10
18.113632
20
13.166923
42
0.291252
0
SEQEND
0
POLYLINE
8
1
66
1
70
1
0
VERTEX
8
1
10
17.477482
20
12.221309
42
0.143097
0
VERTEX
8
1
10
17.402981
20
12.174998
42
-0.140875
0
VERTEX
8
1
10
17.517662
20
12.287910
0
VERTEX
8
1
10
17.558434
20
12.314097
42
-0.178963
0
VERTEX
8
1
10
18.304649
20
12.465014
0
VERTEX
8
1
10
18.352535
20
12.452384
42
-0.149388
0
VERTEX
8
1
10
18.930557
20
12.091731
42
-0.160763
0
VERTEX
8
1
10
19.167091
20
11.475520
42
-0.186575
0
VERTEX
8
1
10
19.140236
20
11.515098
42
0.062885
0
VERTEX
8
1
10
19.087944
20
11.638076
42
0.466553
0
VERTEX
8
1
10
19.056026
20
11.635665
42
0.091084
0
VERTEX
8
1
10
19.020466
20
11.567065
42
0.140251
0
VERTEX
8
1
10
18.749966
20
12.081286
42
0.248245
0
VERTEX
8
1
10
18.109596
20
12.275619
0
VERTEX
8
1
10
18.062553
20
12.266852
0
VERTEX
8
1
10
18.015942
20
12.256030
42
0.295735
0
VERTEX
8
1
10
17.346836
20
11.567710
0
VERTEX
8
1
10
17.338898
20
11.526378
0
VERTEX
8
1
10
17.333603
20
11.477366
42
0.180352
0
VERTEX
8
1
10
17.577984
20
10.818969
42
0.185817
0
VERTEX
8
1
10
18.062717
20
10.579822
42
0.148319
0
VERTEX
8
1
10
18.549648
20
10.734771
42
0.133498
0
VERTEX
8
1
10
18.980984
20
11.205287
42
0.090532
0
VERTEX
8
1
10
19.031940
20
11.383449
42
-0.191035
0
VERTEX
8
1
10
19.051369
20
11.356589
42
-0.180263
0
VERTEX
8
1
10
19.039181
20
11.106692
42
-0.085646
0
VERTEX
8
1
10
18.947231
20
10.944907
0
VERTEX
8
1
10
18.942513
20
10.934173
42
0.164766
0
VERTEX
8
1
10
18.968861
20
10.931640
42
0.059792
0
VERTEX
8
1
10
19.066074
20
10.969832
42
-0.266678
0
VERTEX
8
1
10
18.136848
20
10.385337
0
VERTEX
8
1
10
18.080399
20
10.383216
42
-0.238538
0
VERTEX
8
1
10
17.355530
20
10.719733
0
VERTEX
8
1
10
17.325829
20
10.757258
42
-0.172996
0
VERTEX
8
1
10
17.094616
20
11.550471
42
-0.089671
0
VERTEX
8
1
10
17.111942
20
11.610511
0
VERTEX
8
1
10
17.115715
20
11.611423
42
-0.116432
0
VERTEX
8
1
10
17.125389
20
11.585608
42
0.024896
0
VERTEX
8
1
10
17.154945
20
11.425887
42
0.381549
0
VERTEX
8
1
10
17.170868
20
11.412436
0
VERTEX
8
1
10
17.177414
20
11.418845
42
0.059290
0
VERTEX
8
1
10
17.233784
20
11.604190
42
-0.035030
0
VERTEX
8
1
10
17.319149
20
11.872516
42
-0.106002
0
VERTEX
8
1
10
17.496162
20
12.111007
0
VERTEX
8
1
10
17.518478
20
12.133277
42
0.156178
0
VERTEX
8
1
10
17.514824
20
12.206176
42
0.319149
0
SEQEND
0
POLYLINE
8
1
66
1
70
1
0
VERTEX
8
1
10
18.631927
20
11.577125
42
-0.269282
0
VERTEX
8
1
10
18.547169
20
11.453273
0
VERTEX
8
1
10
18.538673
20
11.452281
0
VERTEX
8
1
10
18.543839
20
11.477801
42
0.201995
0
VERTEX
8
1
10
18.513313
20
11.662414
0
VERTEX
8
1
10
18.501801
20
11.675761
42
0.204310
0
VERTEX
8
1
10
18.261745
20
11.751800
42
0.115209
0
VERTEX
8
1
10
18.038517
20
11.687755
42
0.295892
0
VERTEX
8
1
10
17.965801
20
11.516345
42
0.097804
0
VERTEX
8
1
10
18.008961
20
11.375609
42
0.138572
0
VERTEX
8
1
10
18.186375
20
11.252952
42
0.187632
0
VERTEX
8
1
10
18.356529
20
11.274299
0
VERTEX
8
1
10
18.496326
20
11.350463
0
VERTEX
8
1
10
18.514904
20
11.349544
0
VERTEX
8
1
10
18.510979
20
11.319274
42
-0.264961
0
VERTEX
8
1
10
18.390804
20
11.160697
42
0.040199
0
VERTEX
8
1
10
18.333050
20
11.120448
42
0.182627
0
VERTEX
8
1
10
18.474945
20
11.155532
42
0.074199
0
VERTEX
8
1
10
18.588673
20
11.243152
0
VERTEX
8
1
10
18.696774
20
11.358794
0
VERTEX
8
1
10
18.698868
20
11.348662
0
VERTEX
8
1
10
18.696152
20
11.327849
0
VERTEX
8
1
10
18.691929
20
11.307292
42
-0.478003
0
VERTEX
8
1
10
17.995773
20
11.033164
42
-0.152462
0
VERTEX
8
1
10
17.832954
20
11.228812
0
VERTEX
8
1
10
17.814896
20
11.268336
42
-0.188358
0
VERTEX
8
1
10
17.787262
20
11.615073
42
-0.243866
0
VERTEX
8
1
10
18.096760
20
11.903930
0
VERTEX
8
1
10
18.128105
20
11.912723
42
-0.430175
0
VERTEX
8
1
10
18.685543
20
11.582431
42
-0.049416
0
VERTEX
8
1
10
18.699280
20
11.486804
42
-0.033272
0
VERTEX
8
1
10
18.631187
20
11.586356
0
SEQEND
0
POLYLINE
8
1
66
1
70
1
0
VERTEX
8
1
10
19.835041
20
10.467498
42
-0.885065
0
VERTEX
8
1
10
19.784595
20
10.503615
42
0.093327
0
VERTEX
8
1
10
19.992439
20
10.884440
42
-0.824468
0
VERTEX
8
1
10
20.049137
20
10.860976
42
-0.096395
0
SEQEND
0
POLYLINE
8
1
66
1
70
1
0
VERTEX
8
1
10
20.090183
20
11.169517
42
0.000623
0
VERTEX
8
1
10
19.856960
20
12.150584
42
0.123884
0
VERTEX
8
1
10
19.483341
20
12.706752
42
0.076763
0
VERTEX
8
1
10
18.966724
20
13.058604
42
0.072624
0
VERTEX
8
1
10
18.212254
20
13.306563
0
VERTEX
8
1
10
18.126888
20
13.316184
0
VERTEX
8
1
10
18.022545
20
13.317931
42
0.112095
0
VERTEX
8
1
10
17.289093
20
13.114478
0
VERTEX
8
1
10
17.224327
20
13.080432
0
VERTEX
8
1
10
17.160526
20
13.044604
42
0.078653
0
VERTEX
8
1
10
16.249535
20
12.270343
0
VERTEX
8
1
10
16.191956
20
12.202228
42
-0.437253
0
VERTEX
8
1
10
16.167381
20
12.236354
42
-0.124641
0
VERTEX
8
1
10
16.180729
20
12.287127
42
-0.068729
0
VERTEX
8
1
10
16.359066
20
12.539317
42
-0.042868
0
VERTEX
8
1
10
16.842045
20
13.010982
42
-0.146434
0
VERTEX
8
1
10
18.083797
20
13.433673
42
-0.098766
0
VERTEX
8
1
10
18.833221
20
13.303882
0
VERTEX
8
1
10
18.880917
20
13.283042
0
VERTEX
8
1
10
18.927803
20
13.260436
42
-0.281971
0
VERTEX
8
1
10
19.101284
20
13.409640
0
VERTEX
8
1
10
19.096066
20
13.415706
0
VERTEX
8
1
10
19.028603
20
13.441043
42
0.113322
0
VERTEX
8
1
10
17.738819
20
13.573436
0
VERTEX
8
1
10
17.661087
20
13.563075
0
VERTEX
8
1
10
17.672798
20
13.572310
42
-0.080512
0
VERTEX
8
1
10
17.916252
20
13.649753
42
-0.153430
0
VERTEX
8
1
10
19.109154
20
13.514400
42
-0.050203
0
VERTEX
8
1
10
19.409595
20
13.336360
0
VERTEX
8
1
10
19.495232
20
13.277904
0
VERTEX
8
1
10
19.586571
20
13.212127
0
VERTEX
8
1
10
19.672279
20
13.138148
0
VERTEX
8
1
10
19.752533
20
13.056735
42
-0.084508
0
VERTEX
8
1
10
20.149109
20
12.407805
0
VERTEX
8
1
10
20.181831
20
12.328032
0
VERTEX
8
1
10
20.212666
20
12.247512
42
-0.066728
0
VERTEX
8
1
10
20.502209
20
10.834292
42
-0.105983
0
VERTEX
8
1
10
20.262363
20
10.792533
42
-0.272807
0
VERTEX
8
1
10
20.189419
20
10.848243
0
VERTEX
8
1
10
20.179657
20
10.868186
42
-0.031700
0
SEQEND
0
POLYLINE
8
1
66
1
70
1
0
VERTEX
8
1
10
20.488045
20
14.837974
42
-0.101713
0
VERTEX
8
1
10
20.627007
20
14.853881
42
0.002602
0
VERTEX
8
1
10
20.981735
20
14.817134
42
0.090044
0
VERTEX
8
1
10
21.288795
20
14.854869
42
0.188977
0
VERTEX
8
1
10
21.601048
20
15.129539
0
VERTEX
8
1
10
21.631107
20
15.181357
42
-0.013855
0
VERTEX
8
1
10
21.920570
20
15.703231
42
-0.103952
0
VERTEX
8
1
10
22.183250
20
15.977149
42
-0.117450
0
VERTEX
8
1
10
22.479179
20
16.075356
42
0.047281
0
VERTEX
8
1
10
22.700996
20
16.113564
42
0.108397
0
VERTEX
8
1
10
22.730949
20
16.132858
42
0.358449
0
VERTEX
8
1
10
22.726547
20
16.145329
42
0.103169
0
VERTEX
8
1
10
22.677296
20
16.163776
42
0.121078
0
VERTEX
8
1
10
22.156643
20
16.132603
42
0.111924
0
VERTEX
8
1
10
21.610790
20
15.836131
42
0.121039
0
VERTEX
8
1
10
21.393322
20
15.514102
42
-0.069149
0
VERTEX
8
1
10
21.198189
20
15.160693
42
-0.226361
0
VERTEX
8
1
10
20.845135
20
14.984908
42
-0.054426
0
VERTEX
8
1
10
20.689602
20
14.991290
0
VERTEX
8
1
10
20.733326
20
15.246661
42
-0.064520
0
VERTEX
8
1
10
20.905270
20
15.815520
42
-0.125362
0
VERTEX
8
1
10
21.210262
20
16.186756
42
-0.125548
0
VERTEX
8
1
10
21.587559
20
16.324421
42
-0.033903
0
VERTEX
8
1
10
22.440895
20
16.359074
42
-0.034342
0
VERTEX
8
1
10
24.690666
20
16.182693
42
-0.040152
0
VERTEX
8
1
10
25.665226
20
15.962955
0
VERTEX
8
1
10
25.791111
20
15.917251
0
VERTEX
8
1
10
25.903442
20
15.868884
42
-0.093623
0
VERTEX
8
1
10
26.062885
20
15.676555
42
-0.044145
0
VERTEX
8
1
10
26.287842
20
15.225310
42
-0.020200
0
VERTEX
8
1
10
26.479919
20
14.715972
0
VERTEX
8
1
10
26.402794
20
14.690265
42
0.139038
0
VERTEX
8
1
10
26.021145
20
15.417895
42
0.159477
0
VERTEX
8
1
10
25.404484
20
15.731212
42
0.019926
0
VERTEX
8
1
10
23.174809
20
15.995860
42
0.026762
0
VERTEX
8
1
10
22.704315
20
16.008682
42
0.234341
0
VERTEX
8
1
10
22.013355
20
15.602988
0
VERTEX
8
1
10
21.992435
20
15.567393
42
0.012188
0
VERTEX
8
1
10
21.871613
20
15.290893
42
-0.066612
0
VERTEX
8
1
10
21.610085
20
14.867587
42
-0.116343
0
VERTEX
8
1
10
21.332279
20
14.662845
42
-0.096031
0
VERTEX
8
1
10
21.119587
20
14.628509
42
-0.057919
0
VERTEX
8
1
10
20.400276
20
14.694938
42
-0.151297
0
VERTEX
8
1
10
20.354755
20
14.716079
0
VERTEX
8
1
10
20.355453
20
14.720534
42
-0.118736
0
VERTEX
8
1
10
20.390640
20
14.730922
0
VERTEX
8
1
10
20.654404
20
14.750339
42
-0.067355
0
VERTEX
8
1
10
20.489708
20
14.814055
42
-0.693755
0
SEQEND
0
POLYLINE
8
1
66
1
70
1
0
VERTEX
8
1
10
30.104141
20
14.703090
42
0.129650
0
VERTEX
8
1
10
30.033249
20
14.625213
0
VERTEX
8
1
10
28.518993
20
14.685443
42
-0.511281
0
VERTEX
8
1
10
28.521358
20
14.718837
42
-0.128549
0
VERTEX
8
1
10
28.630711
20
14.758071
42
-0.015515
0
VERTEX
8
1
10
28.883465
20
14.775367
42
-0.004938
0
VERTEX
8
1
10
30.326477
20
14.818465
42
0.057388
0
SEQEND
0
POLYLINE
8
1
66
1
70
1
0
VERTEX
8
1
10
30.165268
20
14.632571
42
-0.031815
0
VERTEX
8
1
10
30.493141
20
14.826087
0
VERTEX
8
1
10
30.528290
20
14.832984
0
VERTEX
8
1
10
30.550274
20
14.831668
0
VERTEX
8
1
10
30.560444
20
14.823058
0
VERTEX
8
1
10
30.560154
20
14.808085
0
VERTEX
8
1
10
30.550758
20
14.787673
42
-0.054664
0
VERTEX
8
1
10
30.449162
20
14.670218
0
VERTEX
8
1
10
30.220055
20
14.456248
42
-0.286567
0
VERTEX
8
1
10
30.200645
20
14.440539
42
-0.115250
0
VERTEX
8
1
10
30.014896
20
14.437392
0
VERTEX
8
1
10
30.006474
20
14.442664
0
VERTEX
8
1
10
29.999302
20
14.449542
0
VERTEX
8
1
10
30.003704
20
14.472171
0
VERTEX
8
1
10
30.016239
20
14.496596
42
-0.085372
0
SEQEND
0
POLYLINE
8
1
66
1
70
1
0
VERTEX
8
1
10
28.999123
20
14.407519
42
-0.902940
0
VERTEX
8
1
10
28.997967
20
14.469695
0
VERTEX
8
1
10
29.337643
20
14.442019
42
-0.958587
0
VERTEX
8
1
10
29.335083
20
14.379626
0
SEQEND
0
POLYLINE
8
1
66
1
70
1
0
VERTEX
8
1
10
28.774044
20
14.191657
0
VERTEX
8
1
10
29.362827
20
14.192130
42
-0.882770
0
VERTEX
8
1
10
29.370522
20
14.130584
0
VERTEX
8
1
10
28.783104
20
14.129634
42
-0.967401
0
SEQEND
0
POLYLINE
8
1
66
1
70
1
0
VERTEX
8
1
10
28.751717
20
13.796290
42
-0.936626
0
VERTEX
8
1
10
28.747643
20
13.858531
0
VERTEX
8
1
10
29.553505
20
13.858794
42
-0.959692
0
VERTEX
8
1
10
29.563324
20
13.796882
0
SEQEND
0
POLYLINE
8
1
66
1
70
1
0
VERTEX
8
1
10
29.367317
20
13.537108
42
0.100726
0
VERTEX
8
1
10
29.331596
20
13.677085
42
-0.850620
0
VERTEX
8
1
10
29.389145
20
13.699298
42
-0.134153
0
VERTEX
8
1
10
29.427757
20
13.507789
0
VERTEX
8
1
10
29.415554
20
13.462165
0
VERTEX
8
1
10
29.404697
20
13.441497
42
-0.868419
0
VERTEX
8
1
10
29.349976
20
13.470412
42
0.139093
0
SEQEND
0
POLYLINE
8
1
66
1
70
1
0
VERTEX
8
1
10
28.334858
20
13.473456
42
0.040507
0
VERTEX
8
1
10
28.784832
20
13.319728
42
0.087368
0
VERTEX
8
1
10
29.130539
20
13.310061
0
VERTEX
8
1
10
29.429070
20
13.349509
42
-0.079887
0
VERTEX
8
1
10
29.593815
20
13.348483
42
0.013666
0
VERTEX
8
1
10
30.061573
20
13.334163
42
-0.756891
0
VERTEX
8
1
10
30.056252
20
13.274241
42
-0.025728
0
VERTEX
8
1
10
29.521133
20
13.292575
42
0.051967
0
VERTEX
8
1
10
29.331253
20
13.272681
42
-0.022610
0
VERTEX
8
1
10
28.976830
20
13.236552
42
-0.077627
0
VERTEX
8
1
10
28.682419
20
13.281909
42
-0.038278
0
VERTEX
8
1
10
28.309036
20
13.418460
42
-0.749448
0
SEQEND
0
POLYLINE
8
1
66
1
70
1
0
VERTEX
8
1
10
32.583748
20
13.622542
42
0.056414
0
VERTEX
8
1
10
32.705154
20
13.374530
0
VERTEX
8
1
10
32.845539
20
13.448859
42
-0.052985
0
VERTEX
8
1
10
32.714939
20
13.730811
42
-0.293202
0
VERTEX
8
1
10
32.796329
20
13.981826
42
-0.798316
0
VERTEX
8
1
10
32.833099
20
13.932708
42
0.340509
0
VERTEX
8
1
10
32.789669
20
13.703048
42
0.030834
0
VERTEX
8
1
10
32.920589
20
13.441714
42
-0.245520
0
VERTEX
8
1
10
32.911057
20
13.414077
42
-0.021399
0
VERTEX
8
1
10
32.698574
20
13.302600
42
-0.235403
0
VERTEX
8
1
10
32.671963
20
13.312182
42
-0.091266
0
VERTEX
8
1
10
32.501701
20
13.684302
0
VERTEX
8
1
10
32.489677
20
13.769897
0
VERTEX
8
1
10
32.493168
20
13.853972
0
VERTEX
8
1
10
32.516346
20
13.933276
0
VERTEX
8
1
10
32.556473
20
13.996657
42
-0.942288
0
VERTEX
8
1
10
32.605732
20
13.958373
0
VERTEX
8
1
10
32.589626
20
13.936915
0
VERTEX
8
1
10
32.563370
20
13.881232
0
VERTEX
8
1
10
32.552132
20
13.819869
42
0.102831
0
SEQEND
0
POLYLINE
8
1
66
1
70
1
0
VERTEX
8
1
10
33.196033
20
12.952106
42
0.204232
0
VERTEX
8
1
10
33.142082
20
13.023894
42
0.203957
0
VERTEX
8
1
10
32.890011
20
12.966865
42
0.066053
0
VERTEX
8
1
10
32.763592
20
12.863391
42
-0.085618
0
VERTEX
8
1
10
32.639786
20
12.894008
0
VERTEX
8
1
10
32.631947
20
12.900081
0
VERTEX
8
1
10
32.626858
20
12.906806
42
-0.289203
0
VERTEX
8
1
10
33.175144
20
13.276301
0
VERTEX
8
1
10
33.190350
20
13.265433
0
VERTEX
8
1
10
33.213963
20
13.237552
42
-0.123717
0
VERTEX
8
1
10
33.266636
20
13.022960
42
-0.045161
0
VERTEX
8
1
10
33.256699
20
12.782985
0
VERTEX
8
1
10
33.188652
20
12.782989
42
0.117417
0
SEQEND
0
POLYLINE
8
1
66
1
70
1
0
VERTEX
8
1
10
32.342873
20
13.372722
0
VERTEX
8
1
10
32.562305
20
12.911117
42
-0.922902
0
VERTEX
8
1
10
32.508350
20
12.879962
0
VERTEX
8
1
10
32.287251
20
13.344592
42
-0.928042
0
SEQEND
0
POLYLINE
8
1
66
1
70
1
0
VERTEX
8
1
10
32.284130
20
13.524928
42
-0.196390
0
VERTEX
8
1
10
32.195190
20
13.417541
42
-0.867813
0
VERTEX
8
1
10
32.176605
20
13.477389
0
VERTEX
8
1
10
32.185764
20
13.485690
42
0.451372
0
VERTEX
8
1
10
32.199978
20
13.634135
42
0.034588
0
VERTEX
8
1
10
32.150360
20
13.687076
42
-0.759633
0
VERTEX
8
1
10
32.195591
20
13.726882
42
-0.203266
0
VERTEX
8
1
10
32.289558
20
13.571494
0
VERTEX
8
1
10
32.288647
20
13.547015
0
SEQEND
0
POLYLINE
8
1
66
1
70
1
0
VERTEX
8
1
10
31.925388
20
12.917983
42
0.157673
0
VERTEX
8
1
10
31.346199
20
12.791583
42
0.075262
0
VERTEX
8
1
10
30.953819
20
12.496261
0
VERTEX
8
1
10
30.919525
20
12.556277
42
-0.206447
0
VERTEX
8
1
10
32.129574
20
12.988784
0
VERTEX
8
1
10
32.161385
20
12.984721
42
-0.201997
0
VERTEX
8
1
10
32.247238
20
12.852046
0
VERTEX
8
1
10
32.112553
20
12.863063
0
VERTEX
8
1
10
32.064785
20
12.863666
42
0.181659
0
VERTEX
8
1
10
31.062790
20
12.435489
0
VERTEX
8
1
10
31.041100
20
12.429263
0
VERTEX
8
1
10
30.975086
20
12.438670
42
-0.065840
0
VERTEX
8
1
10
31.587761
20
12.825236
42
-0.065483
0
SEQEND
0
POLYLINE
8
1
66
1
70
1
0
VERTEX
8
1
10
32.108917
20
13.390880
0
VERTEX
8
1
10
32.189934
20
13.287757
0
VERTEX
8
1
10
32.086693
20
13.218944
0
VERTEX
8
1
10
32.155479
20
13.046954
42
0.121164
0
VERTEX
8
1
10
31.510494
20
12.977347
42
0.087083
0
VERTEX
8
1
10
31.041412
20
12.711951
0
VERTEX
8
1
10
30.921741
20
12.604941
0
VERTEX
8
1
10
30.879379
20
12.598205
42
-0.025430
0
VERTEX
8
1
10
30.883530
20
13.275371
42
0.118534
0
VERTEX
8
1
10
31.291592
20
13.135909
42
0.091010
0
VERTEX
8
1
10
31.481258
20
13.160529
0
VERTEX
8
1
10
31.798317
20
13.298518
42
0.126999
0
VERTEX
8
1
10
31.958218
20
13.343280
42
-0.047445
0
SEQEND
0
POLYLINE
8
1
66
1
70
1
0
VERTEX
8
1
10
31.246929
20
13.375464
42
-1.007010
0
VERTEX
8
1
10
31.228100
20
13.315391
42
0.010087
0
VERTEX
8
1
10
30.571167
20
13.624541
42
0.327005
0
VERTEX
8
1
10
30.331234
20
13.560191
42
0.096695
0
VERTEX
8
1
10
30.232258
20
13.386596
42
-0.833640
0
VERTEX
8
1
10
30.174534
20
13.407798
42
-0.150370
0
VERTEX
8
1
10
30.343204
20
13.653457
42
-0.266733
0
VERTEX
8
1
10
30.609402
20
13.676223
42
-0.010555
0
SEQEND
0
POLYLINE
8
1
66
1
70
1
0
VERTEX
8
1
10
30.438831
20
13.185512
42
0.224347
0
VERTEX
8
1
10
30.334309
20
13.372710
42
-0.760929
0
VERTEX
8
1
10
30.373585
20
13.419242
42
-0.352860
0
VERTEX
8
1
10
30.475372
20
13.055137
42
-0.106111
0
VERTEX
8
1
10
30.301331
20
12.770160
0
VERTEX
8
1
10
30.277039
20
12.747188
42
-0.190984
0
VERTEX
8
1
10
29.918140
20
12.636744
42
-0.946251
0
VERTEX
8
1
10
29.904980
20
12.698577
42
0.155147
0
VERTEX
8
1
10
30.196301
20
12.765136
42
0.128895
0
VERTEX
8
1
10
30.355412
20
12.946883
42
0.043354
0
VERTEX
8
1
10
30.427322
20
13.103404
0
VERTEX
8
1
10
30.436867
20
13.146205
0
SEQEND
0
POLYLINE
8
1
66
1
70
1
0
VERTEX
8
1
10
30.380451
20
12.653644
42
-1.054117
0
VERTEX
8
1
10
30.378422
20
12.716731
42
0.137576
0
VERTEX
8
1
10
30.591282
20
12.747394
42
0.170600
0
VERTEX
8
1
10
30.660995
20
12.823108
42
-0.896583
0
VERTEX
8
1
10
30.716339
20
12.794852
42
-0.244605
0
VERTEX
8
1
10
30.538776
20
12.662383
42
-0.080398
0
SEQEND
0
POLYLINE
8
1
66
1
70
1
0
VERTEX
8
1
10
30.648228
20
13.105235
42
0.143078
0
VERTEX
8
1
10
30.608711
20
13.168479
42
-1.008710
0
VERTEX
8
1
10
30.664097
20
13.199775
42
-0.377701
0
VERTEX
8
1
10
30.688606
20
13.025672
42
-0.153029
0
VERTEX
8
1
10
30.550808
20
12.929404
42
-0.722917
0
VERTEX
8
1
10
30.530460
20
12.985621
42
0.123496
0
VERTEX
8
1
10
30.638660
20
13.063460
42
0.190748
0
SEQEND
0
POLYLINE
8
1
66
1
70
1
0
VERTEX
8
1
10
30.216492
20
13.032561
42
0.156231
0
VERTEX
8
1
10
30.252796
20
13.185153
42
0.222491
0
VERTEX
8
1
10
30.215824
20
13.232654
42
-0.936345
0
VERTEX
8
1
10
30.261036
20
13.276290
42
-0.267338
0
VERTEX
8
1
10
30.316769
20
13.168315
0
VERTEX
8
1
10
30.315689
20
13.139178
42
-0.223961
0
VERTEX
8
1
10
30.069031
20
12.788840
42
-0.125052
0
VERTEX
8
1
10
29.818241
20
12.762687
42
-0.068413
0
VERTEX
8
1
10
29.304119
20
12.891067
42
0.191583
0
VERTEX
8
1
10
29.214245
20
12.891204
42
0.218667
0
VERTEX
8
1
10
29.183010
20
12.841681
42
-0.924464
0
VERTEX
8
1
10
29.126869
20
12.869330
42
-0.389032
0
VERTEX
8
1
10
29.260284
20
12.960948
42
-0.088105
0
VERTEX
8
1
10
29.340336
20
12.944335
42
0.073213
0
VERTEX
8
1
10
29.857334
20
12.822471
42
0.096472
0
VERTEX
8
1
10
30.035530
20
12.842338
42
0.139448
0
VERTEX
8
1
10
30.200794
20
13.004024
0
SEQEND
0
POLYLINE
8
1
66
1
70
1
0
VERTEX
8
1
10
30.022274
20
13.067836
0
VERTEX
8
1
10
28.346287
20
13.101649
42
-0.903668
0
VERTEX
8
1
10
28.341263
20
13.163608
0
VERTEX
8
1
10
30.016708
20
13.129706
42
-0.895433
0
SEQEND
0
POLYLINE
8
1
66
1
70
1
0
VERTEX
8
1
10
27.934624
20
13.078101
0
VERTEX
8
1
10
30.970684
20
12.251037
42
-0.883055
0
VERTEX
8
1
10
30.961887
20
12.189635
0
VERTEX
8
1
10
27.925404
20
13.016788
42
-0.879580
0
SEQEND
0
POLYLINE
8
1
66
1
70
1
0
VERTEX
8
1
10
30.862183
20
12.045508
42
-0.889419
0
VERTEX
8
1
10
30.863537
20
11.983443
0
VERTEX
8
1
10
30.133545
20
12.052127
42
-0.928456
0
VERTEX
8
1
10
30.134850
20
12.114455
0
SEQEND
0
POLYLINE
8
1
66
1
70
1
0
VERTEX
8
1
10
30.021122
20
11.967818
42
0.427923
0
VERTEX
8
1
10
29.933010
20
12.043551
42
-0.000317
0
VERTEX
8
1
10
29.853241
20
12.035296
42
-0.715563
0
VERTEX
8
1
10
29.849728
20
12.095096
42
-0.142085
0
VERTEX
8
1
10
29.989071
20
12.096835
42
-0.303467
0
VERTEX
8
1
10
30.081863
20
11.977977
42
-0.107568
0
VERTEX
8
1
10
30.077976
20
11.879127
42
-0.754984
0
VERTEX
8
1
10
30.019264
20
11.892043
42
0.060864
0
SEQEND
0
POLYLINE
8
1
66
1
70
1
0
VERTEX
8
1
10
29.903828
20
11.943377
42
-0.927629
0
VERTEX
8
1
10
29.945065
20
11.896365
42
-0.050807
0
VERTEX
8
1
10
29.771332
20
11.810203
42
-0.792707
0
VERTEX
8
1
10
29.750782
20
11.867488
42
0.033395
0
SEQEND
0
POLYLINE
8
1
66
1
70
1
0
VERTEX
8
1
10
29.582211
20
12.415671
0
VERTEX
8
1
10
29.599911
20
11.550414
42
-0.898964
0
VERTEX
8
1
10
29.538246
20
11.542594
0
VERTEX
8
1
10
29.520271
20
12.406253
42
-0.971769
0
SEQEND
0
POLYLINE
8
1
66
1
70
1
0
VERTEX
8
1
10
29.403717
20
12.338920
0
VERTEX
8
1
10
28.418190
20
11.542689
42
-0.921004
0
VERTEX
8
1
10
28.375217
20
11.587787
0
VERTEX
8
1
10
29.355091
20
12.379088
42
-0.980433
0
SEQEND
0
POLYLINE
8
1
66
1
70
1
0
VERTEX
8
1
10
29.311142
20
11.736270
42
-0.814987
0
VERTEX
8
1
10
29.349041
20
11.688178
42
0.059900
0
VERTEX
8
1
10
29.192287
20
11.530982
42
-0.798384
0
VERTEX
8
1
10
29.147560
20
11.573066
42
-0.069889
0
SEQEND
0
POLYLINE
8
1
66
1
70
1
0
VERTEX
8
1
10
28.926765
20
11.755851
42
-0.095602
0
VERTEX
8
1
10
29.076534
20
11.627662
42
-0.244129
0
VERTEX
8
1
10
29.098221
20
11.541434
42
-0.806738
0
VERTEX
8
1
10
29.039867
20
11.560069
42
0.172951
0
VERTEX
8
1
10
29.003399
20
11.616874
42
0.062444
0
VERTEX
8
1
10
28.894352
20
11.705066
42
-0.760468
0
SEQEND
0
POLYLINE
8
1
66
1
70
1
0
VERTEX
8
1
10
28.351429
20
11.948176
42
-0.949930
0
VERTEX
8
1
10
28.394730
20
11.993545
42
0.243988
0
VERTEX
8
1
10
28.533833
20
11.923396
42
-0.858705
0
VERTEX
8
1
10
28.533836
20
11.861606
42
-0.238839
0
SEQEND
0
POLYLINE
8
1
66
1
70
1
0
VERTEX
8
1
10
28.348862
20
12.274226
42
-0.888021
0
VERTEX
8
1
10
28.340687
20
12.335753
0
VERTEX
8
1
10
29.064484
20
12.336719
42
-1.003267
0
VERTEX
8
1
10
29.076801
20
12.274741
0
SEQEND
0
POLYLINE
8
1
66
1
70
1
0
VERTEX
8
1
10
28.240509
20
13.173163
42
-0.971425
0
VERTEX
8
1
10
28.178802
20
13.160293
42
0.011218
0
VERTEX
8
1
10
28.165318
20
13.658275
0
VERTEX
8
1
10
28.161301
20
13.689399
42
0.315653
0
VERTEX
8
1
10
28.131413
20
13.714011
42
0.098648
0
VERTEX
8
1
10
27.980637
20
13.714831
0
VERTEX
8
1
10
27.947994
20
13.243937
42
-0.926245
0
VERTEX
8
1
10
27.885719
20
13.241096
0
VERTEX
8
1
10
27.919559
20
13.737472
42
-0.301703
0
VERTEX
8
1
10
27.936836
20
13.769320
42
-0.113932
0
VERTEX
8
1
10
28.146576
20
13.774501
42
-0.347509
0
VERTEX
8
1
10
28.224739
20
13.685889
42
-0.033607
0
VERTEX
8
1
10
28.235172
20
13.508224
42
-0.008727
0
SEQEND
0
POLYLINE
8
1
66
1
70
1
0
VERTEX
8
1
10
27.885509
20
12.807002
42
-0.887233
0
VERTEX
8
1
10
27.947342
20
12.812316
0
VERTEX
8
1
10
27.914612
20
11.887679
0
VERTEX
8
1
10
27.916145
20
11.874736
42
0.110753
0
VERTEX
8
1
10
28.077759
20
11.811572
42
0.458226
0
VERTEX
8
1
10
28.141308
20
11.861648
0
VERTEX
8
1
10
28.142899
20
11.871478
0
VERTEX
8
1
10
28.144844
20
11.893451
42
0.005594
0
VERTEX
8
1
10
28.179752
20
12.748397
42
-0.758654
0
VERTEX
8
1
10
28.240108
20
12.742160
42
-0.010595
0
VERTEX
8
1
10
28.204529
20
11.859683
42
-0.484665
0
VERTEX
8
1
10
28.046207
20
11.752803
42
-0.102800
0
VERTEX
8
1
10
27.858727
20
11.838897
0
VERTEX
8
1
10
27.854424
20
11.845557
0
VERTEX
8
1
10
27.851749
20
11.853023
0
SEQEND
0
POLYLINE
8
1
66
1
70
1
0
VERTEX
8
1
10
27.599976
20
12.459640
0
VERTEX
8
1
10
27.892574
20
11.583465
42
0.120862
0
VERTEX
8
1
10
28.177784
20
11.446116
42
0.083250
0
VERTEX
8
1
10
28.677502
20
11.410716
42
-0.011729
0
VERTEX
8
1
10
29.628456
20
11.429324
42
-0.006112
0
VERTEX
8
1
10
30.574959
20
11.425075
42
-0.841239
0
VERTEX
8
1
10
30.569080
20
11.363772
42
0.010305
0
VERTEX
8
1
10
28.763695
20
11.351722
0
VERTEX
8
1
10
28.658451
20
11.346519
42
-0.082345
0
VERTEX
8
1
10
28.125977
20
11.394198
42
-0.111171
0
VERTEX
8
1
10
27.859516
20
11.528609
0
VERTEX
8
1
10
27.838898
20
11.550002
0
VERTEX
8
1
10
27.545544
20
12.426871
42
-1.024618
0
SEQEND
0
POLYLINE
8
1
66
1
70
1
0
VERTEX
8
1
10
27.761860
20
12.685496
42
-0.137644
0
VERTEX
8
1
10
27.538185
20
12.685496
0
VERTEX
8
1
10
27.523087
20
12.697978
0
VERTEX
8
1
10
27.506672
20
12.722884
42
-0.044560
0
VERTEX
8
1
10
27.433022
20
12.914927
42
-0.017950
0
VERTEX
8
1
10
27.280075
20
13.511451
42
0.085917
0
VERTEX
8
1
10
27.631138
20
13.451468
42
0.192616
0
VERTEX
8
1
10
27.735416
20
13.492415
0
VERTEX
8
1
10
27.740650
20
13.500964
0
VERTEX
8
1
10
27.744434
20
13.510245
42
-0.000305
0
SEQEND
0
POLYLINE
8
1
66
1
70
1
0
VERTEX
8
1
10
27.355480
20
13.713550
42
-0.241393
0
VERTEX
8
1
10
27.170982
20
13.844569
0
VERTEX
8
1
10
27.155880
20
13.871978
42
-0.082160
0
VERTEX
8
1
10
27.056461
20
14.267669
0
VERTEX
8
1
10
27.744663
20
14.285777
0
VERTEX
8
1
10
27.760906
20
13.717776
42
-0.081491
0
SEQEND
0
POLYLINE
8
1
66
1
70
1
0
VERTEX
8
1
10
27.085049
20
13.884276
0
VERTEX
8
1
10
27.119473
20
13.735137
0
VERTEX
8
1
10
26.637661
20
13.758086
0
VERTEX
8
1
10
26.603249
20
13.895751
0
SEQEND
0
POLYLINE
8
1
66
1
70
1
0
VERTEX
8
1
10
25.716854
20
14.795585
42
0.092389
0
VERTEX
8
1
10
25.629528
20
14.768329
0
VERTEX
8
1
10
25.301189
20
14.457862
0
VERTEX
8
1
10
25.094707
20
14.492240
0
VERTEX
8
1
10
25.075771
20
14.321677
42
-0.015188
0
VERTEX
8
1
10
23.241177
20
14.405620
42
-0.034809
0
VERTEX
8
1
10
22.926651
20
14.450004
0
VERTEX
8
1
10
23.008640
20
15.039504
42
-0.144739
0
VERTEX
8
1
10
23.151688
20
15.387340
42
-0.200456
0
VERTEX
8
1
10
23.398937
20
15.506701
0
VERTEX
8
1
10
23.525829
20
15.506167
42
-0.017303
0
VERTEX
8
1
10
25.337566
20
15.389190
42
-0.019113
0
VERTEX
8
1
10
25.589920
20
15.349853
0
VERTEX
8
1
10
25.628975
20
15.335788
42
-0.178037
0
VERTEX
8
1
10
25.963814
20
14.954181
42
-0.069096
0
VERTEX
8
1
10
25.989365
20
14.832911
0
VERTEX
8
1
10
25.989510
20
14.303157
0
VERTEX
8
1
10
25.411270
20
14.313201
0
VERTEX
8
1
10
25.417519
20
14.327929
42
0.014584
0
VERTEX
8
1
10
25.764763
20
14.680381
42
0.187267
0
VERTEX
8
1
10
25.766468
20
14.774207
42
0.278026
0
SEQEND
0
POLYLINE
8
1
66
1
70
1
0
VERTEX
8
1
10
26.522926
20
13.918677
0
VERTEX
8
1
10
26.545876
20
13.758086
0
VERTEX
8
1
10
21.762199
20
13.987514
0
VERTEX
8
1
10
21.773674
20
14.148131
0
SEQEND
0
POLYLINE
8
1
66
1
70
1
0
VERTEX
8
1
10
26.421223
20
14.372653
42
-0.862465
0
VERTEX
8
1
10
26.397083
20
14.624934
42
-0.565896
0
VERTEX
8
1
10
26.571167
20
14.474750
42
-0.382540
0
SEQEND
0
POLYLINE
8
1
66
1
70
1
0
VERTEX
8
1
10
26.592876
20
14.010192
0
VERTEX
8
1
10
26.522926
20
14.182540
0
VERTEX
8
1
10
26.676556
20
14.199615
0
VERTEX
8
1
10
26.677937
20
14.198504
42
0.038133
0
VERTEX
8
1
10
26.712845
20
14.001765
0
VERTEX
8
1
10
26.705219
20
13.996917
42
-0.085894
0
SEQEND
0
POLYLINE
8
1
66
1
70
1
0
VERTEX
8
1
10
26.934879
20
14.285777
42
-0.047524
0
VERTEX
8
1
10
27.007011
20
14.006999
42
-0.490213
0
VERTEX
8
1
10
26.982052
20
13.981009
42
-0.070529
0
VERTEX
8
1
10
26.799297
20
13.993075
42
-0.003560
0
VERTEX
8
1
10
26.746628
20
14.285777
0
SEQEND
0
POLYLINE
8
1
66
1
70
1
0
VERTEX
8
1
10
26.845131
20
14.574782
42
-0.862902
0
VERTEX
8
1
10
26.863377
20
14.515700
42
0.093619
0
VERTEX
8
1
10
26.738579
20
14.460254
42
0.140907
0
VERTEX
8
1
10
26.703583
20
14.405448
42
-0.755617
0
VERTEX
8
1
10
26.646610
20
14.425532
0
VERTEX
8
1
10
26.652283
20
14.447425
0
VERTEX
8
1
10
26.673737
20
14.483817
42
-0.147619
0
SEQEND
0
POLYLINE
8
1
66
1
70
1
0
VERTEX
8
1
10
26.789558
20
14.644320
42
-0.531095
0
VERTEX
8
1
10
26.682678
20
14.624820
42
-0.036122
0
VERTEX
8
1
10
26.553116
20
14.874461
42
-0.008182
0
VERTEX
8
1
10
26.196217
20
15.696265
42
-0.131859
0
VERTEX
8
1
10
26.308674
20
15.801490
42
-0.394275
0
VERTEX
8
1
10
26.364105
20
15.773921
0
VERTEX
8
1
10
26.372730
20
15.754535
42
-0.002375
0
VERTEX
8
1
10
26.798241
20
14.664310
0
SEQEND
0
POLYLINE
8
1
66
1
70
1
0
VERTEX
8
1
10
21.689491
20
10.799857
42
-0.329088
0
VERTEX
8
1
10
21.639236
20
10.987029
0
VERTEX
8
1
10
21.673592
20
13.856086
42
-0.907823
0
VERTEX
8
1
10
21.735584
20
13.861239
0
VERTEX
8
1
10
21.701790
20
10.990970
42
-0.063836
0
VERTEX
8
1
10
21.691795
20
10.935664
42
0.193326
0
VERTEX
8
1
10
21.716354
20
10.859260
0
VERTEX
8
1
10
21.727539
20
10.857696
42
0.004259
0
VERTEX
8
1
10
25.714504
20
10.770671
0
VERTEX
8
1
10
25.857578
20
10.770419
42
0.047704
0
VERTEX
8
1
10
26.480679
20
10.812758
42
0.079604
0
VERTEX
8
1
10
26.775372
20
10.917159
42
0.101283
0
VERTEX
8
1
10
26.948223
20
11.077537
0
VERTEX
8
1
10
27.013142
20
11.171355
42
0.121781
0
VERTEX
8
1
10
27.062862
20
11.342216
42
0.057870
0
VERTEX
8
1
10
27.043755
20
11.795230
42
0.028237
0
VERTEX
8
1
10
26.903980
20
12.540549
42
0.016122
0
VERTEX
8
1
10
26.611607
20
13.631759
42
-0.756382
0
VERTEX
8
1
10
26.670376
20
13.647655
42
-0.030547
0
VERTEX
8
1
10
27.071678
20
12.033786
42
-0.034662
0
VERTEX
8
1
10
27.129333
20
11.482890
42
-0.068334
0
VERTEX
8
1
10
27.100231
20
11.213290
0
VERTEX
8
1
10
27.074432
20
11.151675
0
VERTEX
8
1
10
27.013538
20
11.060927
42
-0.165780
0
VERTEX
8
1
10
26.673687
20
10.801806
42
-0.061102
0
VERTEX
8
1
10
26.361782
20
10.732207
42
-0.035734
0
VERTEX
8
1
10
25.932678
20
10.708243
42
-0.007153
0
VERTEX
8
1
10
25.186981
20
10.713920
42
-0.002606
0
VERTEX
8
1
10
21.704510
20
10.795825
0
SEQEND
0
POLYLINE
8
1
66
1
70
1
0
VERTEX
8
1
10
26.800285
20
10.658210
42
-0.928086
0
VERTEX
8
1
10
26.791706
20
10.720000
0
VERTEX
8
1
10
30.852337
20
10.772216
42
-0.970859
0
VERTEX
8
1
10
30.867168
20
10.710826
0
SEQEND
0
POLYLINE
8
1
66
1
70
1
0
VERTEX
8
1
10
30.999191
20
11.712977
42
0.035860
0
VERTEX
8
1
10
30.762058
20
11.072131
42
-0.130932
0
VERTEX
8
1
10
30.690308
20
10.965167
42
-0.604572
0
VERTEX
8
1
10
30.673943
20
10.982177
0
VERTEX
8
1
10
30.673611
20
10.990378
42
-0.077473
0
VERTEX
8
1
10
30.987244
20
11.959540
42
-0.077912
0
VERTEX
8
1
10
31.316235
20
12.419211
42
-0.114389
0
VERTEX
8
1
10
31.759659
20
12.698543
42
-0.135499
0
VERTEX
8
1
10
32.813133
20
12.792674
42
-0.031174
0
VERTEX
8
1
10
33.306507
20
12.681842
0
VERTEX
8
1
10
33.315269
20
12.684325
42
0.050183
0
VERTEX
8
1
10
33.325630
20
12.770827
42
-0.094357
0
VERTEX
8
1
10
33.591770
20
12.589160
0
VERTEX
8
1
10
33.611542
20
12.565707
0
VERTEX
8
1
10
33.629848
20
12.541095
42
-0.224231
0
VERTEX
8
1
10
33.669098
20
12.382022
42
0.228334
0
VERTEX
8
1
10
32.000732
20
12.650229
0
VERTEX
8
1
10
31.874538
20
12.609241
0
VERTEX
8
1
10
31.745487
20
12.558471
0
VERTEX
8
1
10
31.687744
20
12.527667
0
VERTEX
8
1
10
31.627472
20
12.485801
42
0.116109
0
VERTEX
8
1
10
31.122841
20
11.946971
42
0.029762
0
SEQEND
0
POLYLINE
8
1
66
1
70
1
0
VERTEX
8
1
10
32.928173
20
11.380729
42
-0.234645
0
VERTEX
8
1
10
32.849884
20
11.258834
0
VERTEX
8
1
10
32.841160
20
11.256000
0
VERTEX
8
1
10
32.832581
20
11.255015
0
VERTEX
8
1
10
32.837776
20
11.280570
42
0.193780
0
VERTEX
8
1
10
32.809406
20
11.466563
0
VERTEX
8
1
10
32.798302
20
11.480380
42
0.221881
0
VERTEX
8
1
10
32.531696
20
11.560710
42
0.121288
0
VERTEX
8
1
10
32.307976
20
11.487807
42
0.280196
0
VERTEX
8
1
10
32.246288
20
11.311603
42
0.090847
0
VERTEX
8
1
10
32.290489
20
11.175052
42
0.141841
0
VERTEX
8
1
10
32.477589
20
11.049308
42
0.182240
0
VERTEX
8
1
10
32.648354
20
11.073714
0
VERTEX
8
1
10
32.789501
20
11.150813
0
VERTEX
8
1
10
32.808258
20
11.149879
0
VERTEX
8
1
10
32.804321
20
11.119288
42
-0.263504
0
VERTEX
8
1
10
32.683605
20
10.957591
42
0.033698
0
VERTEX
8
1
10
32.624561
20
10.917491
0
VERTEX
8
1
10
32.642117
20
10.912528
0
VERTEX
8
1
10
32.673717
20
10.914916
42
0.150309
0
VERTEX
8
1
10
32.886475
20
11.044463
42
0.010232
0
VERTEX
8
1
10
32.997211
20
11.160941
0
VERTEX
8
1
10
32.995827
20
11.140754
0
VERTEX
8
1
10
32.992886
20
11.120734
0
VERTEX
8
1
10
32.988411
20
11.101001
42
-0.462561
0
VERTEX
8
1
10
32.290180
20
10.816817
42
-0.147670
0
VERTEX
8
1
10
32.128464
20
10.989085
0
VERTEX
8
1
10
32.108345
20
11.028029
0
VERTEX
8
1
10
32.090233
20
11.067946
0
VERTEX
8
1
10
32.074177
20
11.108737
0
VERTEX
8
1
10
32.060219
20
11.150290
0
VERTEX
8
1
10
32.047421
20
11.205447
42
-0.316516
0
VERTEX
8
1
10
32.256817
20
11.661132
42
-0.178601
0
VERTEX
8
1
10
32.620964
20
11.737063
0
VERTEX
8
1
10
32.684704
20
11.719333
42
-0.314054
0
VERTEX
8
1
10
32.997158
20
11.290385
42
-0.041031
0
VERTEX
8
1
10
32.928131
20
11.393275
0
SEQEND
0
POLYLINE
8
1
66
1
70
1
0
VERTEX
8
1
10
33.131908
20
11.852668
42
0.250457
0
VERTEX
8
1
10
32.495640
20
12.038661
0
VERTEX
8
1
10
32.449772
20
12.029510
0
VERTEX
8
1
10
32.404339
20
12.018409
42
0.286860
0
VERTEX
8
1
10
31.762756
20
11.365058
42
0.112438
0
VERTEX
8
1
10
31.751102
20
11.153708
42
0.156759
0
VERTEX
8
1
10
31.990452
20
10.606006
42
0.171256
0
VERTEX
8
1
10
32.433315
20
10.379256
42
0.147387
0
VERTEX
8
1
10
32.878841
20
10.493663
42
0.152026
0
VERTEX
8
1
10
33.369236
20
11.007056
42
0.061473
0
VERTEX
8
1
10
33.413837
20
11.164691
42
-0.195077
0
VERTEX
8
1
10
33.437305
20
11.115462
0
VERTEX
8
1
10
33.442734
20
11.089618
0
VERTEX
8
1
10
33.445972
20
11.063411
42
-0.179926
0
VERTEX
8
1
10
33.328362
20
10.735312
0
VERTEX
8
1
10
33.323685
20
10.724677
42
0.164781
0
VERTEX
8
1
10
33.349838
20
10.722251
42
0.065103
0
VERTEX
8
1
10
33.445057
20
10.760272
42
-0.267779
0
VERTEX
8
1
10
32.530083
20
10.186107
0
VERTEX
8
1
10
32.474854
20
10.184173
42
-0.229786
0
VERTEX
8
1
10
31.787201
20
10.490745
0
VERTEX
8
1
10
31.756870
20
10.526763
42
-0.183891
0
VERTEX
8
1
10
31.512653
20
11.337890
42
-0.108410
0
VERTEX
8
1
10
31.530712
20
11.389285
42
-0.163439
0
VERTEX
8
1
10
31.540489
20
11.367564
42
0.019068
0
VERTEX
8
1
10
31.569420
20
11.209319
42
0.580251
0
VERTEX
8
1
10
31.588551
20
11.195109
0
VERTEX
8
1
10
31.591232
20
11.198604
42
0.064766
0
VERTEX
8
1
10
31.646912
20
11.379027
42
-0.034685
0
VERTEX
8
1
10
31.731194
20
11.644694
42
-0.107039
0
VERTEX
8
1
10
31.906879
20
11.880637
0
VERTEX
8
1
10
31.927101
20
11.901904
42
0.166475
0
VERTEX
8
1
10
31.922363
20
11.973666
42
0.382429
0
VERTEX
8
1
10
31.875916
20
11.983600
42
0.108901
0
VERTEX
8
1
10
31.815033
20
11.945613
42
-0.131691
0
VERTEX
8
1
10
31.963196
20
12.076827
42
-0.153177
0
VERTEX
8
1
10
32.614437
20
12.237750
0
VERTEX
8
1
10
32.670021
20
12.231044
42
-0.143228
0
VERTEX
8
1
10
33.255333
20
11.922359
42
-0.181294
0
VERTEX
8
1
10
33.545567
20
11.255427
42
-0.219496
0
VERTEX
8
1
10
33.518780
20
11.291579
42
0.038889
0
VERTEX
8
1
10
33.470840
20
11.408668
42
0.581935
0
VERTEX
8
1
10
33.435844
20
11.413650
42
0.097031
0
VERTEX
8
1
10
33.400108
20
11.345401
42
0.141484
0
SEQEND
0
POLYLINE
8
1
66
1
70
1
0
VERTEX
8
1
10
34.711536
20
10.658378
42
-0.469549
0
VERTEX
8
1
10
34.693256
20
10.597136
0
VERTEX
8
1
10
34.677547
20
10.590323
42
-0.064647
0
VERTEX
8
1
10
34.525047
20
10.570853
42
-0.025749
0
VERTEX
8
1
10
34.009071
20
10.593951
0
VERTEX
8
1
10
33.911697
20
10.569201
42
-0.076402
0
VERTEX
8
1
10
33.671875
20
10.216235
42
-0.037051
0
VERTEX
8
1
10
33.311909
20
9.861461
42
-0.804346
0
VERTEX
8
1
10
33.273075
20
9.908568
0
VERTEX
8
1
10
33.336262
20
9.965098
42
0.055784
0
VERTEX
8
1
10
33.766171
20
10.438148
42
0.076398
0
VERTEX
8
1
10
33.877041
20
10.653640
42
-0.212129
0
VERTEX
8
1
10
33.899193
20
10.666026
42
0.029258
0
VERTEX
8
1
10
34.560822
20
10.634227
0
VERTEX
8
1
10
34.601227
20
10.638232
0
VERTEX
8
1
10
34.641376
20
10.644282
0
VERTEX
8
1
10
34.642948
20
10.647651
0
VERTEX
8
1
10
34.413593
20
10.978934
42
-0.953842
0
VERTEX
8
1
10
34.457634
20
11.023696
0
SEQEND
0
POLYLINE
8
1
66
1
70
1
0
VERTEX
8
1
10
34.035023
20
11.176242
42
0.061074
0
VERTEX
8
1
10
33.991840
20
11.449317
42
-0.001299
0
VERTEX
8
1
10
34.449848
20
10.775470
0
VERTEX
8
1
10
34.323669
20
10.786929
0
VERTEX
8
1
10
34.025398
20
11.085204
42
0.057531
0
SEQEND
0
POLYLINE
8
1
66
1
70
1
0
VERTEX
8
1
10
35.267941
20
11.518390
42
-0.948539
0
VERTEX
8
1
10
35.316208
20
11.478751
0
VERTEX
8
1
10
34.817974
20
10.980025
42
-0.893783
0
VERTEX
8
1
10
34.769840
20
11.019286
0
SEQEND
0
POLYLINE
8
1
66
1
70
1
0
VERTEX
8
1
10
36.492771
20
13.399936
42
-0.940226
0
VERTEX
8
1
10
36.527763
20
13.451964
0
VERTEX
8
1
10
36.886593
20
13.094501
42
-0.371425
0
VERTEX
8
1
10
36.891079
20
13.053870
0
VERTEX
8
1
10
35.905411
20
12.067492
42
-0.917539
0
VERTEX
8
1
10
35.858231
20
12.108123
0
VERTEX
8
1
10
36.816132
20
13.066585
0
VERTEX
8
1
10
36.820354
20
13.072352
0
SEQEND
0
POLYLINE
8
1
66
1
70
1
0
VERTEX
8
1
10
34.619095
20
15.273620
42
-0.897017
0
VERTEX
8
1
10
34.658695
20
15.321509
0
VERTEX
8
1
10
36.033146
20
13.947951
42
-0.917313
0
VERTEX
8
1
10
35.995514
20
13.898288
0
SEQEND
0
POLYLINE
8
1
66
1
70
1
0
VERTEX
8
1
10
33.463642
20
16.516338
0
VERTEX
8
1
10
34.126648
20
15.854453
42
-0.880727
0
VERTEX
8
1
10
34.088703
20
15.805411
0
VERTEX
8
1
10
33.425220
20
16.467484
42
-0.898165
0
SEQEND
0
POLYLINE
8
1
66
1
70
1
0
VERTEX
8
1
10
33.451988
20
16.566452
0
VERTEX
8
1
10
33.371220
20
16.552521
42
-0.044639
0
VERTEX
8
1
10
32.981167
20
16.543774
42
-0.748619
0
VERTEX
8
1
10
32.988007
20
16.603817
42
0.038031
0
VERTEX
8
1
10
33.382889
20
16.617226
42
0.033552
0
VERTEX
8
1
10
33.492668
20
16.641289
42
-0.953660
0
VERTEX
8
1
10
33.496281
20
16.578522
42
-0.039679
0
SEQEND
0
POLYLINE
8
1
66
1
70
1
0
VERTEX
8
1
10
33.748459
20
18.163818
42
0.095277
0
VERTEX
8
1
10
34.047756
20
18.559242
42
0.073373
0
VERTEX
8
1
10
34.359936
20
19.477627
42
0.056567
0
VERTEX
8
1
10
34.435482
20
20.413425
0
VERTEX
8
1
10
34.430626
20
20.480736
42
0.117688
0
VERTEX
8
1
10
34.285217
20
20.972885
42
0.122165
0
VERTEX
8
1
10
34.102859
20
21.147186
0
VERTEX
8
1
10
34.240257
20
21.855042
42
-0.230697
0
VERTEX
8
1
10
35.102242
20
21.230785
0
VERTEX
8
1
10
35.126701
20
21.184780
0
VERTEX
8
1
10
35.149387
20
21.137878
42
-0.098086
0
VERTEX
8
1
10
35.312813
20
20.353977
42
-0.134080
0
VERTEX
8
1
10
34.831264
20
18.315006
42
-0.071678
0
VERTEX
8
1
10
34.418652
20
17.759605
42
-0.169381
0
VERTEX
8
1
10
33.347919
20
17.257927
0
VERTEX
8
1
10
33.492279
20
18.001621
0
VERTEX
8
1
10
33.498356
20
18.005966
42
0.084632
0
SEQEND
0
POLYLINE
8
1
66
1
70
1
0
VERTEX
8
1
10
32.099941
20
17.324551
0
VERTEX
8
1
10
32.949795
20
21.813732
42
-0.049162
0
VERTEX
8
1
10
33.810925
20
21.894711
0
VERTEX
8
1
10
33.674618
20
21.192551
42
-0.282420
0
VERTEX
8
1
10
33.670853
20
21.189968
0
VERTEX
8
1
10
33.045887
20
17.980190
0
VERTEX
8
1
10
33.050003
20
17.979652
0
VERTEX
8
1
10
32.906036
20
17.232998
42
-0.059931
0
VERTEX
8
1
10
32.114437
20
17.317608
0
SEQEND
0
POLYLINE
8
1
66
1
70
1
0
VERTEX
8
1
10
31.089371
20
20.915585
42
0.121683
0
VERTEX
8
1
10
30.991882
20
21.092335
0
VERTEX
8
1
10
31.149837
20
21.906078
42
-0.243187
0
VERTEX
8
1
10
31.829052
20
21.402466
42
-0.087124
0
VERTEX
8
1
10
31.983723
20
20.909081
42
-0.054404
0
VERTEX
8
1
10
32.012505
20
20.269787
42
-0.084525
0
VERTEX
8
1
10
31.643024
20
18.529179
42
-0.072045
0
VERTEX
8
1
10
31.209164
20
17.775234
42
-0.101649
0
VERTEX
8
1
10
30.688969
20
17.343204
42
-0.089502
0
VERTEX
8
1
10
30.238140
20
17.209274
0
VERTEX
8
1
10
30.395779
20
18.021385
0
VERTEX
8
1
10
30.420288
20
18.039810
42
0.097920
0
VERTEX
8
1
10
30.649235
20
18.331074
0
VERTEX
8
1
10
30.678593
20
18.385353
42
0.053068
0
VERTEX
8
1
10
30.921692
20
19.065685
42
0.048776
0
VERTEX
8
1
10
31.131168
20
20.445118
0
VERTEX
8
1
10
31.132477
20
20.519066
42
0.074275
0
SEQEND
0
POLYLINE
8
1
66
1
70
1
0
VERTEX
8
1
10
29.611465
20
21.185585
42
-0.100280
0
VERTEX
8
1
10
30.139069
20
21.714317
42
-0.112091
0
VERTEX
8
1
10
30.715370
20
21.919327
0
VERTEX
8
1
10
30.557678
20
21.106934
42
0.092770
0
VERTEX
8
1
10
30.381664
20
20.929558
42
0.063838
0
VERTEX
8
1
10
30.176289
20
20.550533
0
VERTEX
8
1
10
30.145805
20
20.475819
0
VERTEX
8
1
10
30.117184
20
20.400372
42
0.077591
0
VERTEX
8
1
10
29.802139
20
18.614216
42
0.090089
0
VERTEX
8
1
10
29.866409
20
18.182629
42
0.085379
0
VERTEX
8
1
10
29.961483
20
18.035542
0
VERTEX
8
1
10
29.804222
20
17.225346
0
VERTEX
8
1
10
29.782391
20
17.228077
42
-0.214582
0
VERTEX
8
1
10
29.155289
20
17.691250
42
-0.088914
0
VERTEX
8
1
10
28.969376
20
18.189659
42
-0.068148
0
VERTEX
8
1
10
28.922359
20
18.891338
42
-0.090590
0
VERTEX
8
1
10
29.325840
20
20.669270
42
-0.045058
0
SEQEND
0
POLYLINE
8
1
66
1
70
1
0
VERTEX
8
1
10
28.149822
20
21.776730
42
-0.186075
0
VERTEX
8
1
10
28.634876
20
21.326443
42
-0.132294
0
VERTEX
8
1
10
28.751873
20
20.767460
42
-0.224830
0
VERTEX
8
1
10
28.182755
20
19.618050
42
-0.080477
0
VERTEX
8
1
10
27.813320
20
19.420326
0
VERTEX
8
1
10
27.813320
20
19.407368
42
-0.191940
0
VERTEX
8
1
10
28.084423
20
19.122108
42
-0.078473
0
VERTEX
8
1
10
28.169353
20
18.790276
42
-0.030629
0
VERTEX
8
1
10
28.192497
20
18.433872
42
0.017016
0
VERTEX
8
1
10
28.240711
20
17.398438
42
0.027066
0
VERTEX
8
1
10
28.265285
20
17.253269
0
VERTEX
8
1
10
27.402504
20
17.253273
42
-0.027319
0
VERTEX
8
1
10
27.387917
20
17.407719
42
-0.013007
0
VERTEX
8
1
10
27.367020
20
18.456711
42
0.063654
0
VERTEX
8
1
10
27.313919
20
18.848377
42
0.074016
0
VERTEX
8
1
10
27.245502
20
18.984718
0
VERTEX
8
1
10
27.408974
20
19.826855
42
0.174871
0
VERTEX
8
1
10
27.772282
20
20.228992
42
0.138281
0
VERTEX
8
1
10
27.865242
20
20.848160
42
0.139099
0
VERTEX
8
1
10
27.748653
20
21.106621
42
0.194638
0
VERTEX
8
1
10
27.491158
20
21.222466
42
0.068913
0
VERTEX
8
1
10
27.223442
20
21.202778
0
VERTEX
8
1
10
26.956112
20
19.770100
0
VERTEX
8
1
10
26.960041
20
19.770100
0
VERTEX
8
1
10
26.831795
20
19.104893
0
VERTEX
8
1
10
26.819820
20
19.104889
42
-0.002533
0
VERTEX
8
1
10
26.472370
20
17.253292
0
VERTEX
8
1
10
25.639549
20
17.254143
0
VERTEX
8
1
10
26.508862
20
21.805981
0
VERTEX
8
1
10
26.527676
20
21.816601
42
-0.048896
0
VERTEX
8
1
10
27.571686
20
21.892612
42
-0.085952
0
SEQEND
0
POLYLINE
8
1
66
1
70
1
0
VERTEX
8
1
10
27.021236
20
22.584442
42
-0.048192
0
VERTEX
8
1
10
27.719242
20
22.585499
42
-0.999016
0
VERTEX
8
1
10
27.711544
20
22.523472
42
0.047728
0
VERTEX
8
1
10
27.033577
20
22.522480
42
-0.897441
0
SEQEND
0
POLYLINE
8
1
66
1
70
1
0
VERTEX
8
1
10
26.756424
20
23.150471
42
-0.936543
0
VERTEX
8
1
10
26.796791
20
23.198021
0
VERTEX
8
1
10
27.201347
20
22.797848
42
-0.889056
0
VERTEX
8
1
10
27.160851
20
22.750797
0
SEQEND
0
POLYLINE
8
1
66
1
70
1
0
VERTEX
8
1
10
25.159309
20
24.372547
42
-0.890731
0
VERTEX
8
1
10
25.108849
20
24.408760
42
-0.008241
0
VERTEX
8
1
10
25.320358
20
24.627220
42
-0.260894
0
VERTEX
8
1
10
25.352612
20
24.627037
0
VERTEX
8
1
10
26.241943
20
23.747864
42
-0.882701
0
VERTEX
8
1
10
26.204437
20
23.698460
42
-0.001572
0
VERTEX
8
1
10
25.337727
20
24.555206
0
SEQEND
0
POLYLINE
8
1
66
1
70
1
0
VERTEX
8
1
10
23.573544
20
22.738930
42
-0.950369
0
VERTEX
8
1
10
23.522301
20
22.774948
0
VERTEX
8
1
10
24.657883
20
23.945717
42
-0.915442
0
VERTEX
8
1
10
24.705612
20
23.905735
0
SEQEND
0
POLYLINE
8
1
66
1
70
1
0
VERTEX
8
1
10
22.999367
20
22.504715
42
-1.013596
0
VERTEX
8
1
10
22.988369
20
22.566860
0
VERTEX
8
1
10
23.542442
20
22.567223
42
-1.013656
0
VERTEX
8
1
10
23.553444
20
22.505077
0
SEQEND
0
POLYLINE
8
1
66
1
70
1
0
VERTEX
8
1
10
22.621967
20
21.875458
0
VERTEX
8
1
10
25.083931
20
21.875458
0
VERTEX
8
1
10
24.926193
20
21.066227
0
VERTEX
8
1
10
24.123825
20
21.066227
0
VERTEX
8
1
10
23.396896
20
17.253273
0
VERTEX
8
1
10
22.539665
20
17.253273
0
VERTEX
8
1
10
23.266602
20
21.066227
0
VERTEX
8
1
10
22.464233
20
21.066227
0
SEQEND
0
POLYLINE
8
1
66
1
70
1
0
VERTEX
8
1
10
21.190300
20
20.877151
42
0.115846
0
VERTEX
8
1
10
21.098965
20
21.074123
0
VERTEX
8
1
10
21.259762
20
21.902534
42
-0.228381
0
VERTEX
8
1
10
21.903599
20
21.432724
42
-0.087916
0
VERTEX
8
1
10
22.066063
20
20.955730
42
-0.058204
0
VERTEX
8
1
10
22.104385
20
20.315243
42
-0.086976
0
VERTEX
8
1
10
21.731544
20
18.523510
42
-0.069835
0
VERTEX
8
1
10
21.304703
20
17.781094
42
-0.097514
0
VERTEX
8
1
10
20.801006
20
17.354504
42
-0.089057
0
VERTEX
8
1
10
20.349094
20
17.210995
0
VERTEX
8
1
10
20.509659
20
18.038181
42
0.089723
0
VERTEX
8
1
10
20.729481
20
18.313076
0
VERTEX
8
1
10
20.759335
20
18.366642
42
0.054795
0
VERTEX
8
1
10
21.006496
20
19.044178
42
0.052694
0
VERTEX
8
1
10
21.222740
20
20.501953
42
0.061453
0
SEQEND
0
POLYLINE
8
1
66
1
70
1
0
VERTEX
8
1
10
19.703022
20
21.187229
42
-0.101203
0
VERTEX
8
1
10
20.235016
20
21.717762
42
-0.114521
0
VERTEX
8
1
10
20.826492
20
21.921921
0
VERTEX
8
1
10
20.671192
20
21.121864
42
0.109802
0
VERTEX
8
1
10
20.457859
20
20.909939
42
0.056016
0
VERTEX
8
1
10
20.279007
20
20.579086
0
VERTEX
8
1
10
20.246895
20
20.502880
0
VERTEX
8
1
10
20.216763
20
20.425877
0
VERTEX
8
1
10
20.188622
20
20.348118
42
0.069003
0
VERTEX
8
1
10
19.893112
20
18.704620
0
VERTEX
8
1
10
19.892475
20
18.618671
42
0.092115
0
VERTEX
8
1
10
19.955921
20
18.185257
42
0.120487
0
VERTEX
8
1
10
20.069645
20
18.022858
0
VERTEX
8
1
10
19.913921
20
17.220623
42
-0.230233
0
VERTEX
8
1
10
19.235615
20
17.707493
42
-0.084303
0
VERTEX
8
1
10
19.058533
20
18.195862
42
-0.067756
0
VERTEX
8
1
10
19.013012
20
18.897827
42
-0.090524
0
VERTEX
8
1
10
19.418293
20
20.673836
42
-0.044945
0
SEQEND
0
POLYLINE
8
1
66
1
70
1
0
VERTEX
8
1
10
16.635071
20
19.214611
0
VERTEX
8
1
10
16.264748
20
17.253273
0
VERTEX
8
1
10
15.407516
20
17.253273
0
VERTEX
8
1
10
16.292183
20
21.875458
0
VERTEX
8
1
10
17.149406
20
21.875458
0
VERTEX
8
1
10
16.785942
20
19.996410
0
VERTEX
8
1
10
17.725471
20
19.996410
0
VERTEX
8
1
10
18.082077
20
21.875458
0
VERTEX
8
1
10
18.939304
20
21.875458
0
VERTEX
8
1
10
18.054638
20
17.253273
0
VERTEX
8
1
10
17.204269
20
17.253273
0
VERTEX
8
1
10
17.560879
20
19.214611
0
SEQEND
0
POLYLINE
8
1
66
1
70
1
0
VERTEX
8
1
10
17.690376
20
16.641300
42
-0.996489
0
VERTEX
8
1
10
17.702778
20
16.579361
0
VERTEX
8
1
10
17.055149
20
16.578793
42
-0.996560
0
VERTEX
8
1
10
17.042744
20
16.640732
0
SEQEND
0
POLYLINE
8
1
66
1
70
1
0
VERTEX
8
1
10
16.473583
20
15.692855
42
-0.959516
0
VERTEX
8
1
10
16.420483
20
15.726825
0
VERTEX
8
1
10
17.184517
20
16.492172
42
-0.920696
0
VERTEX
8
1
10
17.232529
20
16.452473
0
SEQEND
0
POLYLINE
8
1
66
1
70
1
0
VERTEX
8
1
10
14.932438
20
14.151694
42
-0.893006
0
VERTEX
8
1
10
14.884449
20
14.191131
0
VERTEX
8
1
10
15.978611
20
15.286273
42
-0.935200
0
VERTEX
8
1
10
16.029911
20
15.250438
0
SEQEND
0
POLYLINE
8
1
66
1
70
1
0
VERTEX
8
1
10
14.259045
20
12.664855
42
-1.015941
0
VERTEX
8
1
10
14.225197
20
12.611163
0
VERTEX
8
1
10
13.786697
20
13.048808
42
-0.372348
0
VERTEX
8
1
10
13.782532
20
13.089522
0
VERTEX
8
1
10
14.478149
20
13.785811
42
-0.957863
0
VERTEX
8
1
10
14.529442
20
13.749675
0
VERTEX
8
1
10
13.852604
20
13.071296
0
SEQEND
0
POLYLINE
8
1
66
1
70
1
0
VERTEX
8
1
10
14.348442
20
13.071570
0
VERTEX
8
1
10
17.863464
20
16.586609
0
VERTEX
8
1
10
18.605812
20
16.586617
0
VERTEX
8
1
10
18.732826
20
17.250248
0
VERTEX
8
1
10
18.737274
20
17.248070
42
0.204185
0
VERTEX
8
1
10
19.795570
20
16.564079
42
0.232244
0
VERTEX
8
1
10
21.521580
20
17.050251
42
0.055370
0
VERTEX
8
1
10
21.900993
20
17.463070
0
VERTEX
8
1
10
21.734825
20
16.586609
0
VERTEX
8
1
10
23.941952
20
16.586609
0
VERTEX
8
1
10
23.948895
20
16.588787
0
VERTEX
8
1
10
24.676006
20
20.399563
0
VERTEX
8
1
10
25.473648
20
20.399563
0
VERTEX
8
1
10
25.475849
20
20.401585
0
VERTEX
8
1
10
25.892284
20
22.537941
0
VERTEX
8
1
10
25.890690
20
22.542126
0
VERTEX
8
1
10
23.822437
20
22.542126
0
VERTEX
8
1
10
23.821110
20
22.544258
0
VERTEX
8
1
10
25.334599
20
24.057743
0
VERTEX
8
1
10
25.339268
20
24.057323
0
VERTEX
8
1
10
26.861813
20
22.534779
0
VERTEX
8
1
10
26.851860
20
22.531834
42
0.015517
0
VERTEX
8
1
10
25.942974
20
22.395035
0
VERTEX
8
1
10
24.833984
20
16.589916
0
VERTEX
8
1
10
24.846077
20
16.586609
0
VERTEX
8
1
10
29.144661
20
16.587368
0
VERTEX
8
1
10
29.081013
20
16.814743
42
0.156898
0
VERTEX
8
1
10
30.116974
20
16.532391
42
0.168158
0
VERTEX
8
1
10
31.357578
20
16.987274
0
VERTEX
8
1
10
31.331684
20
16.850559
0
VERTEX
8
1
10
31.805504
20
16.712986
42
0.054916
0
VERTEX
8
1
10
32.431095
20
16.590542
42
0.021505
0
VERTEX
8
1
10
32.829494
20
16.567020
0
VERTEX
8
1
10
36.324989
20
13.071559
0
VERTEX
8
1
10
34.336372
20
11.082938
0
VERTEX
8
1
10
34.325184
20
11.074374
0
VERTEX
8
1
10
33.974583
20
11.607223
42
0.147797
0
VERTEX
8
1
10
33.499447
20
12.360648
42
-0.082459
0
VERTEX
8
1
10
33.847290
20
12.141982
0
VERTEX
8
1
10
33.855370
20
12.139117
42
0.187816
0
VERTEX
8
1
10
33.853638
20
12.336059
42
0.137086
0
VERTEX
8
1
10
33.671558
20
12.607287
42
0.058198
0
VERTEX
8
1
10
33.354748
20
12.840121
42
0.064728
0
VERTEX
8
1
10
33.304249
20
13.230098
42
0.183140
0
VERTEX
8
1
10
33.230873
20
13.340365
0
VERTEX
8
1
10
33.183041
20
13.356303
0
VERTEX
8
1
10
32.958866
20
13.906421
42
0.169921
0
VERTEX
8
1
10
32.943874
20
14.053416
42
0.223219
0
VERTEX
8
1
10
32.895763
20
14.079089
0
VERTEX
8
1
10
32.787987
20
14.079295
42
0.123487
0
VERTEX
8
1
10
32.655090
20
14.107505
42
0.080469
0
VERTEX
8
1
10
32.607975
20
14.093223
42
0.015555
0
VERTEX
8
1
10
32.339176
20
13.924514
0
VERTEX
8
1
10
32.287464
20
14.062030
0
VERTEX
8
1
10
32.086742
20
13.976077
0
VERTEX
8
1
10
32.149258
20
13.839557
0
VERTEX
8
1
10
32.115620
20
13.753028
0
VERTEX
8
1
10
31.754028
20
13.614703
42
0.126178
0
VERTEX
8
1
10
31.719597
20
13.511840
42
-0.131907
0
VERTEX
8
1
10
31.401390
20
13.475535
42
-0.127077
0
VERTEX
8
1
10
31.263641
20
13.548213
42
0.090726
0
VERTEX
8
1
10
30.659866
20
13.819774
42
0.090205
0
VERTEX
8
1
10
30.362869
20
13.840846
42
0.094680
0
VERTEX
8
1
10
30.204899
20
13.786254
0
VERTEX
8
1
10
30.102676
20
13.667010
0
VERTEX
8
1
10
30.033573
20
13.769073
0
VERTEX
8
1
10
29.792351
20
13.778975
0
VERTEX
8
1
10
29.792358
20
14.165328
0
VERTEX
8
1
10
29.817707
20
14.165328
0
VERTEX
8
1
10
29.826626
20
14.190692
0
VERTEX
8
1
10
29.560776
20
14.191138
0
VERTEX
8
1
10
29.560051
20
14.319892
0
VERTEX
8
1
10
30.195412
20
14.320201
42
0.047158
0
VERTEX
8
1
10
30.594204
20
14.697703
42
0.073884
0
VERTEX
8
1
10
30.671761
20
14.826831
42
0.297071
0
VERTEX
8
1
10
30.658035
20
14.900176
0
VERTEX
8
1
10
30.631886
20
14.914012
0
VERTEX
8
1
10
30.593155
20
14.921397
0
VERTEX
8
1
10
30.540684
20
14.922404
42
0.009643
0
VERTEX
8
1
10
28.421963
20
14.850638
0
VERTEX
8
1
10
28.379112
20
14.846816
0
VERTEX
8
1
10
28.362286
20
14.838752
42
0.070683
0
VERTEX
8
1
10
28.321312
20
14.553737
42
0.128302
0
VERTEX
8
1
10
28.348724
20
14.466846
42
0.175235
0
VERTEX
8
1
10
28.382744
20
14.449637
42
-0.022698
0
VERTEX
8
1
10
28.879967
20
14.397681
0
VERTEX
8
1
10
28.880348
20
14.303077
0
VERTEX
8
1
10
28.579426
20
14.302997
0
VERTEX
8
1
10
28.579231
20
14.165397
0
VERTEX
8
1
10
28.467411
20
14.148139
0
VERTEX
8
1
10
28.467373
20
13.830447
0
VERTEX
8
1
10
28.260925
20
13.838397
0
VERTEX
8
1
10
28.255161
20
14.228396
0
VERTEX
8
1
10
27.847927
20
14.234160
42
0.166531
0
VERTEX
8
1
10
27.845901
20
14.360896
42
0.330328
0
VERTEX
8
1
10
27.770714
20
14.389060
0
VERTEX
8
1
10
27.768517
20
14.420081
42
0.366030
0
VERTEX
8
1
10
27.696381
20
14.491691
0
VERTEX
8
1
10
26.953133
20
14.492278
42
0.234647
0
VERTEX
8
1
10
26.930130
20
14.626170
42
0.092034
0
VERTEX
8
1
10
26.882858
20
14.658946
0
VERTEX
8
1
10
26.853119
20
14.727813
42
-0.004948
0
VERTEX
8
1
10
26.472687
20
15.693198
42
0.163661
0
VERTEX
8
1
10
26.393234
20
15.856849
42
0.106818
0
VERTEX
8
1
10
26.195507
20
15.999713
42
0.064601
0
VERTEX
8
1
10
25.883053
20
16.103321
0
VERTEX
8
1
10
25.811142
20
16.118999
42
0.037828
0
VERTEX
8
1
10
22.822170
20
16.467785
42
0.027002
0
VERTEX
8
1
10
21.784622
20
16.446064
0
VERTEX
8
1
10
21.571941
20
16.423756
0
VERTEX
8
1
10
21.408913
20
16.399239
42
0.162527
0
VERTEX
8
1
10
20.871815
20
16.054516
42
0.063251
0
VERTEX
8
1
10
20.664570
20
15.746718
42
0.010309
0
VERTEX
8
1
10
20.416824
20
15.042911
0
VERTEX
8
1
10
20.113831
20
15.042911
0
VERTEX
8
1
10
20.113144
20
14.879756
0
VERTEX
8
1
10
20.359245
20
14.879439
42
0.152792
0
VERTEX
8
1
10
20.207954
20
14.804305
42
0.123580
0
VERTEX
8
1
10
20.174702
20
14.740855
0
VERTEX
8
1
10
20.161858
20
14.733180
0
VERTEX
8
1
10
19.631779
20
14.733180
42
0.051494
0
VERTEX
8
1
10
19.049732
20
14.635619
42
0.063082
0
VERTEX
8
1
10
17.729839
20
14.104262
42
0.033551
0
VERTEX
8
1
10
17.348125
20
13.869575
42
0.051779
0
VERTEX
8
1
10
16.867733
20
13.416854
42
0.029691
0
VERTEX
8
1
10
16.447701
20
12.883567
42
0.007600
0
VERTEX
8
1
10
16.184406
20
12.500037
42
0.038458
0
VERTEX
8
1
10
15.907005
20
12.198215
0
VERTEX
8
1
10
15.882328
20
12.162253
42
0.158163
0
VERTEX
8
1
10
15.833176
20
12.041255
42
0.361954
0
VERTEX
8
1
10
15.888454
20
11.979911
42
0.081609
0
VERTEX
8
1
10
15.939697
20
11.971393
42
0.057180
0
VERTEX
8
1
10
15.927406
20
11.848292
42
0.395899
0
VERTEX
8
1
10
15.954140
20
11.819625
42
0.057556
0
VERTEX
8
1
10
15.999691
20
11.809226
42
0.014863
0
VERTEX
8
1
10
16.450901
20
11.758979
0
VERTEX
8
1
10
16.451027
20
11.746497
42
0.119227
0
VERTEX
8
1
10
16.496674
20
10.924415
0
SEQEND
0
POLYLINE
8
1
66
1
70
1
0
VERTEX
8
1
10
15.578472
20
11.345412
42
-0.925283
0
VERTEX
8
1
10
15.540249
20
11.296138
0
VERTEX
8
1
10
14.702335
20
12.133159
42
-0.916581
0
VERTEX
8
1
10
14.741787
20
12.181338
0
SEQEND
0
POLYLINE
8
1
66
1
70
1
0
VERTEX
8
1
10
17.393085
20
9.530791
42
-0.920814
0
VERTEX
8
1
10
17.355228
20
9.481265
0
VERTEX
8
1
10
16.054024
20
10.781463
42
-0.888488
0
VERTEX
8
1
10
16.091820
20
10.830707
0
SEQEND
0
POLYLINE
8
1
66
1
70
1
0
VERTEX
8
1
10
18.977898
20
7.945983
42
-0.884825
0
VERTEX
8
1
10
18.938950
20
7.897689
0
VERTEX
8
1
10
17.889557
20
8.945930
42
-0.961432
0
VERTEX
8
1
10
17.926868
20
8.996268
0
SEQEND
0
POLYLINE
8
1
66
1
70
1
0
VERTEX
8
1
10
19.209072
20
7.467410
42
-0.935978
0
VERTEX
8
1
10
19.148552
20
7.452361
0
VERTEX
8
1
10
19.017925
20
8.178592
42
-0.928328
0
VERTEX
8
1
10
19.078293
20
8.194121
0
SEQEND
0
POLYLINE
8
1
66
1
70
1
0
VERTEX
8
1
10
21.435501
20
4.253970
0
VERTEX
8
1
10
20.571465
20
4.253970
0
VERTEX
8
1
10
20.450512
20
5.106380
42
-0.023687
0
VERTEX
8
1
10
20.358810
20
5.982146
0
VERTEX
8
1
10
20.339367
20
5.982146
0
VERTEX
8
1
10
20.193153
20
5.644122
42
-0.003653
0
VERTEX
8
1
10
19.555630
20
4.253974
0
VERTEX
8
1
10
18.687519
20
4.253970
0
VERTEX
8
1
10
18.686295
20
4.255324
0
VERTEX
8
1
10
19.974743
20
6.634208
0
VERTEX
8
1
10
19.625134
20
8.876174
0
VERTEX
8
1
10
20.482311
20
8.876170
42
-0.009409
0
VERTEX
8
1
10
20.642864
20
7.432349
0
VERTEX
8
1
10
20.660660
20
7.216556
0
VERTEX
8
1
10
20.673615
20
7.216556
42
-0.022241
0
VERTEX
8
1
10
21.035847
20
8.071086
42
-0.002975
0
VERTEX
8
1
10
21.409000
20
8.876166
0
VERTEX
8
1
10
22.283943
20
8.876170
0
VERTEX
8
1
10
22.285194
20
8.874866
0
VERTEX
8
1
10
21.003616
20
6.564479
0
SEQEND
0
POLYLINE
8
1
66
1
70
1
0
VERTEX
8
1
10
21.977375
20
6.469054
0
VERTEX
8
1
10
23.342087
20
6.469054
0
VERTEX
8
1
10
23.218647
20
5.824431
0
VERTEX
8
1
10
21.853935
20
5.824431
0
SEQEND
0
POLYLINE
8
1
66
1
70
1
0
VERTEX
8
1
10
23.028236
20
5.157767
0
VERTEX
8
1
10
22.905186
20
4.514831
0
VERTEX
8
1
10
22.262245
20
5.157767
0
SEQEND
0
POLYLINE
8
1
66
1
70
1
0
VERTEX
8
1
10
22.083302
20
5.159804
42
-0.939797
0
VERTEX
8
1
10
22.091888
20
5.097915
0
VERTEX
8
1
10
21.982235
20
5.097308
0
VERTEX
8
1
10
22.060486
20
4.655089
42
-0.960076
0
VERTEX
8
1
10
22.000671
20
4.636748
0
VERTEX
8
1
10
21.914066
20
5.122928
42
-0.421451
0
VERTEX
8
1
10
21.939930
20
5.159427
0
SEQEND
0
POLYLINE
8
1
66
1
70
1
0
VERTEX
8
1
10
22.754299
20
4.169581
42
-0.921381
0
VERTEX
8
1
10
22.716248
20
4.120204
0
VERTEX
8
1
10
22.131924
20
4.703563
42
-0.964887
0
VERTEX
8
1
10
22.166119
20
4.756503
0
SEQEND
0
POLYLINE
8
1
66
1
70
1
0
VERTEX
8
1
10
22.851624
20
4.358081
42
-0.906963
0
VERTEX
8
1
10
22.913246
20
4.349502
0
VERTEX
8
1
10
22.802601
20
3.831038
42
-0.970725
0
VERTEX
8
1
10
22.739651
20
3.832049
0
SEQEND
0
POLYLINE
8
1
66
1
70
1
0
VERTEX
8
1
10
23.627323
20
3.579112
0
VERTEX
8
1
10
23.031136
20
3.560283
42
-0.902000
0
VERTEX
8
1
10
23.022835
20
3.621902
0
VERTEX
8
1
10
23.618698
20
3.641177
42
-0.989364
0
SEQEND
0
POLYLINE
8
1
66
1
70
1
0
VERTEX
8
1
10
24.391254
20
4.253970
0
VERTEX
8
1
10
23.534023
20
4.253970
0
VERTEX
8
1
10
24.418694
20
8.876170
0
VERTEX
8
1
10
25.275917
20
8.876170
0
SEQEND
0
POLYLINE
8
1
66
1
70
1
0
VERTEX
8
1
10
23.832710
20
3.587302
0
VERTEX
8
1
10
26.499924
20
3.587302
0
VERTEX
8
1
10
26.535271
20
3.773414
0
VERTEX
8
1
10
26.575310
20
3.587302
0
VERTEX
8
1
10
26.840736
20
3.587302
0
VERTEX
8
1
10
25.336723
20
2.083285
0
SEQEND
0
POLYLINE
8
1
66
1
70
1
0
VERTEX
8
1
10
23.931026
20
2.992843
42
-0.908770
0
VERTEX
8
1
10
23.891991
20
2.944392
0
VERTEX
8
1
10
23.391102
20
3.444392
42
-0.986395
0
VERTEX
8
1
10
23.426651
20
3.496409
0
SEQEND
0
POLYLINE
8
1
66
1
70
1
0
VERTEX
8
1
10
25.691532
20
1.941981
42
-0.955576
0
VERTEX
8
1
10
25.743519
20
1.906726
0
VERTEX
8
1
10
25.365402
20
1.527461
42
-0.402816
0
VERTEX
8
1
10
25.320683
20
1.516147
0
VERTEX
8
1
10
24.389462
20
2.446040
42
-0.955774
0
VERTEX
8
1
10
24.427036
20
2.496112
0
VERTEX
8
1
10
25.337200
20
1.587649
0
SEQEND
0
POLYLINE
8
1
66
1
70
1
0
VERTEX
8
1
10
27.231743
20
3.482181
42
-0.899110
0
VERTEX
8
1
10
27.280586
20
3.443736
0
VERTEX
8
1
10
26.334057
20
2.496097
42
-0.955665
0
VERTEX
8
1
10
26.283577
20
2.533191
0
SEQEND
0
POLYLINE
8
1
66
1
70
1
0
VERTEX
8
1
10
27.623249
20
3.641288
42
-0.901258
0
VERTEX
8
1
10
27.628731
20
3.579352
0
VERTEX
8
1
10
27.031498
20
3.560290
42
-0.887010
0
VERTEX
8
1
10
27.021481
20
3.621547
0
SEQEND
0
POLYLINE
8
1
66
1
70
1
0
VERTEX
8
1
10
28.731739
20
8.876170
0
VERTEX
8
1
10
27.847580
20
4.253970
0
VERTEX
8
1
10
27.114647
20
4.253970
0
VERTEX
8
1
10
26.764412
20
5.877955
0
VERTEX
8
1
10
26.730076
20
6.031882
0
VERTEX
8
1
10
26.697392
20
6.186172
42
-0.035259
0
VERTEX
8
1
10
26.510292
20
7.511443
0
VERTEX
8
1
10
26.497082
20
7.511443
42
-0.016491
0
VERTEX
8
1
10
26.086906
20
4.985721
0
VERTEX
8
1
10
26.017673
20
4.620124
0
VERTEX
8
1
10
25.948082
20
4.254600
0
VERTEX
8
1
10
25.214188
20
4.254039
0
VERTEX
8
1
10
26.099556
20
8.876166
0
VERTEX
8
1
10
26.880623
20
8.876170
0
VERTEX
8
1
10
27.089825
20
7.798053
42
-0.007374
0
VERTEX
8
1
10
27.388672
20
6.195228
42
-0.014134
0
VERTEX
8
1
10
27.463581
20
5.604983
0
VERTEX
8
1
10
27.476616
20
5.604980
0
VERTEX
8
1
10
27.528923
20
6.041991
0
VERTEX
8
1
10
27.557133
20
6.283935
42
-0.019471
0
VERTEX
8
1
10
27.860905
20
8.182811
0
VERTEX
8
1
10
27.926102
20
8.529525
0
VERTEX
8
1
10
27.991638
20
8.876174
0
SEQEND
0
POLYLINE
8
1
66
1
70
1
0
VERTEX
8
1
10
29.538361
20
9.542838
0
VERTEX
8
1
10
27.438889
20
9.542838
0
VERTEX
8
1
10
27.434967
20
9.521979
42
-0.048844
0
VERTEX
8
1
10
27.430553
20
9.541903
0
VERTEX
8
1
10
23.867500
20
9.542724
0
VERTEX
8
1
10
23.406818
20
7.135768
0
VERTEX
8
1
10
22.082924
20
7.135718
0
VERTEX
8
1
10
23.417297
20
9.541060
0
VERTEX
8
1
10
23.412304
20
9.542834
0
VERTEX
8
1
10
18.846493
20
9.542125
0
VERTEX
8
1
10
19.025219
20
8.394794
0
VERTEX
8
1
10
17.680157
20
9.740325
42
0.302162
0
VERTEX
8
1
10
19.628067
20
10.306865
42
0.156054
0
VERTEX
8
1
10
20.637726
20
10.775702
42
0.015209
0
VERTEX
8
1
10
26.492451
20
10.569030
42
0.000886
0
VERTEX
8
1
10
31.072273
20
10.604041
0
VERTEX
8
1
10
31.072273
20
10.606807
42
0.400084
0
VERTEX
8
1
10
33.050903
20
9.797473
0
VERTEX
8
1
10
32.529999
20
9.276576
42
0.013789
0
VERTEX
8
1
10
32.025620
20
9.471396
42
0.081898
0
VERTEX
8
1
10
31.128117
20
9.583446
42
0.171802
0
VERTEX
8
1
10
29.420853
20
8.927604
0
SEQEND
0
POLYLINE
8
1
66
1
70
1
0
VERTEX
8
1
10
31.940899
20
8.791739
0
VERTEX
8
1
10
31.667351
20
8.039508
42
0.144052
0
VERTEX
8
1
10
30.904121
20
8.108878
42
0.149086
0
VERTEX
8
1
10
30.382225
20
7.809188
42
0.074369
0
VERTEX
8
1
10
30.093338
20
7.401702
42
0.070039
0
VERTEX
8
1
10
29.831760
20
6.682986
42
0.075533
0
VERTEX
8
1
10
29.751369
20
5.626044
42
0.086006
0
VERTEX
8
1
10
29.849365
20
5.245822
0
VERTEX
8
1
10
29.867935
20
5.210532
42
0.292370
0
VERTEX
8
1
10
30.291481
20
4.953639
42
0.070354
0
VERTEX
8
1
10
30.542686
20
4.981086
0
VERTEX
8
1
10
30.754913
20
6.126174
0
VERTEX
8
1
10
30.337173
20
6.126170
0
VERTEX
8
1
10
30.480938
20
6.818759
0
VERTEX
8
1
10
31.674168
20
6.818637
0
VERTEX
8
1
10
31.215652
20
4.389171
0
VERTEX
8
1
10
31.203838
20
4.380179
42
-0.128584
0
VERTEX
8
1
10
29.962334
20
4.239444
42
-0.267921
0
VERTEX
8
1
10
28.996525
20
5.004245
42
-0.102313
0
VERTEX
8
1
10
28.835732
20
5.876449
42
-0.115047
0
VERTEX
8
1
10
29.231613
20
7.595538
42
-0.079779
0
VERTEX
8
1
10
29.768169
20
8.342502
42
-0.193060
0
VERTEX
8
1
10
31.190155
20
8.916705
42
-0.080922
0
VERTEX
8
1
10
31.826042
20
8.835196
0
VERTEX
8
1
10
31.882267
20
8.816329
0
VERTEX
8
1
10
31.937771
20
8.795424
0
SEQEND
0
ENDSEC
0
EOF
