0
SECTION
2
HEADER
9
$EXTMIN
10
1.003452
20
0.378937
9
$EXTMAX
10
21.501286
20
15.291794
0
ENDSEC
0
SECTION
2
TABLES
0
TABLE
2
LTYPE
70
1
0
LTYPE
2
0
70
0
3
Solid Line
72
65
73
0
40
0.0
0
ENDTAB
0
TABLE
2
LAYER
70
1
0
LAYER
2
1
70
0
62
7
6
0
0
ENDTAB
0
ENDSEC
0
SECTION
2
BLOCKS
0
ENDSEC
0
SECTION
2
ENTITIES
0
POLYLINE
8
1
66
1
70
1
0
VERTEX
8
1
10
4.114971
20
0.378937
0
VERTEX
8
1
10
19.970539
20
0.378937
0
VERTEX
8
1
10
20.120113
20
0.386177
0
VERTEX
8
1
10
20.279285
20
0.410645
0
VERTEX
8
1
10
20.432613
20
0.451500
0
VERTEX
8
1
10
20.579159
20
0.507767
0
VERTEX
8
1
10
20.717983
20
0.578522
42
0.181386
0
VERTEX
8
1
10
21.393719
20
1.399712
0
VERTEX
8
1
10
21.436604
20
1.552223
0
VERTEX
8
1
10
21.463238
20
1.710693
0
VERTEX
8
1
10
21.472675
20
1.874184
0
VERTEX
8
1
10
21.464260
20
2.037918
0
VERTEX
8
1
10
21.438580
20
2.196701
0
VERTEX
8
1
10
21.396603
20
2.349579
0
VERTEX
8
1
10
21.339260
20
2.495605
0
VERTEX
8
1
10
21.267513
20
2.633842
42
0.154558
0
VERTEX
8
1
10
20.587353
20
3.246429
0
VERTEX
8
1
10
20.441219
20
3.303558
0
VERTEX
8
1
10
20.288250
20
3.345314
0
VERTEX
8
1
10
20.129391
20
3.370750
0
VERTEX
8
1
10
19.972691
20
3.378937
0
VERTEX
8
1
10
13.097683
20
3.378830
0
VERTEX
8
1
10
13.097652
20
1.877045
0
VERTEX
8
1
10
12.972713
20
1.877121
0
VERTEX
8
1
10
12.972710
20
3.445068
0
VERTEX
8
1
10
12.987961
20
3.451088
0
VERTEX
8
1
10
19.240490
20
3.451088
0
VERTEX
8
1
10
19.261181
20
3.451752
0
VERTEX
8
1
10
19.261181
20
3.651199
42
0.118206
0
VERTEX
8
1
10
19.567028
20
3.740784
42
0.218662
0
VERTEX
8
1
10
19.826038
20
4.167343
0
VERTEX
8
1
10
19.831364
20
4.214912
0
VERTEX
8
1
10
19.833759
20
4.264397
42
0.376049
0
VERTEX
8
1
10
19.394131
20
4.793434
42
0.056300
0
VERTEX
8
1
10
19.059635
20
4.812653
42
0.004863
0
VERTEX
8
1
10
18.730183
20
4.807610
0
VERTEX
8
1
10
18.727985
20
4.798218
42
0.007819
0
VERTEX
8
1
10
18.726521
20
4.655746
0
VERTEX
8
1
10
18.830120
20
4.652115
0
VERTEX
8
1
10
18.828312
20
3.812592
42
-0.394893
0
VERTEX
8
1
10
18.822948
20
3.805702
0
VERTEX
8
1
10
18.730694
20
3.798462
0
VERTEX
8
1
10
18.730015
20
3.796501
42
0.005113
0
VERTEX
8
1
10
18.728001
20
3.692184
0
VERTEX
8
1
10
18.520947
20
3.692184
0
VERTEX
8
1
10
18.521778
20
3.700012
42
0.006678
0
VERTEX
8
1
10
18.574818
20
3.953789
0
VERTEX
8
1
10
18.571262
20
3.963821
42
0.017687
0
VERTEX
8
1
10
18.401257
20
3.994270
0
VERTEX
8
1
10
18.348759
20
3.849510
42
-0.332141
0
VERTEX
8
1
10
18.301388
20
3.815399
42
-0.066797
0
VERTEX
8
1
10
18.100124
20
3.812851
42
-0.396134
0
VERTEX
8
1
10
18.079983
20
3.845680
0
VERTEX
8
1
10
18.081776
20
4.162758
42
-0.035819
0
VERTEX
8
1
10
18.246220
20
4.156120
42
-0.240254
0
VERTEX
8
1
10
18.260380
20
4.121689
0
VERTEX
8
1
10
18.269222
20
4.050934
0
VERTEX
8
1
10
18.270969
20
4.050255
42
0.028042
0
VERTEX
8
1
10
18.437199
20
4.057640
42
0.000726
0
VERTEX
8
1
10
18.440769
20
4.409210
0
VERTEX
8
1
10
18.437023
20
4.416527
42
0.009319
0
VERTEX
8
1
10
18.272861
20
4.419815
0
VERTEX
8
1
10
18.262470
20
4.354012
42
-0.297630
0
VERTEX
8
1
10
18.239864
20
4.318344
42
-0.021452
0
VERTEX
8
1
10
18.081783
20
4.316437
0
VERTEX
8
1
10
18.083553
20
4.653587
0
VERTEX
8
1
10
18.084347
20
4.653946
42
-0.052033
0
VERTEX
8
1
10
18.305950
20
4.638695
42
-0.256610
0
VERTEX
8
1
10
18.324635
20
4.613091
0
VERTEX
8
1
10
18.353298
20
4.475349
42
0.020311
0
VERTEX
8
1
10
18.528240
20
4.496574
42
0.012068
0
VERTEX
8
1
10
18.509266
20
4.812912
42
-0.005435
0
VERTEX
8
1
10
17.690319
20
4.811127
0
VERTEX
8
1
10
17.681568
20
4.807617
42
0.010715
0
VERTEX
8
1
10
17.678379
20
4.657516
0
VERTEX
8
1
10
17.781376
20
4.653961
0
VERTEX
8
1
10
17.781712
20
4.651131
0
VERTEX
8
1
10
17.781696
20
3.812286
42
-0.348733
0
VERTEX
8
1
10
17.774189
20
3.805641
0
VERTEX
8
1
10
17.681789
20
3.800209
42
0.009244
0
VERTEX
8
1
10
17.679966
20
3.693726
0
VERTEX
8
1
10
17.676693
20
3.692184
0
VERTEX
8
1
10
17.277500
20
3.692184
42
0.016484
0
VERTEX
8
1
10
17.276630
20
3.802071
0
VERTEX
8
1
10
17.149494
20
3.809135
0
VERTEX
8
1
10
17.154781
20
4.639343
0
VERTEX
8
1
10
17.156033
20
4.648598
42
-0.083301
0
VERTEX
8
1
10
17.290310
20
4.635880
42
-0.286535
0
VERTEX
8
1
10
17.311420
20
4.608727
0
VERTEX
8
1
10
17.340405
20
4.435387
0
VERTEX
8
1
10
17.344357
20
4.434570
42
0.007849
0
VERTEX
8
1
10
17.524105
20
4.451210
0
VERTEX
8
1
10
17.531445
20
4.460838
42
0.007068
0
VERTEX
8
1
10
17.514660
20
4.799286
0
VERTEX
8
1
10
17.510662
20
4.812912
42
-0.002033
0
VERTEX
8
1
10
16.713490
20
4.811127
0
VERTEX
8
1
10
16.710583
20
4.814293
42
0.076910
0
VERTEX
8
1
10
16.778904
20
4.905037
42
0.282650
0
VERTEX
8
1
10
16.696461
20
5.006882
42
0.184567
0
VERTEX
8
1
10
16.653790
20
4.998100
0
VERTEX
8
1
10
16.635769
20
4.994019
42
-0.107727
0
VERTEX
8
1
10
16.349918
20
5.033615
42
-0.098136
0
VERTEX
8
1
10
16.225445
20
5.169041
0
VERTEX
8
1
10
16.208813
20
5.193024
42
0.001345
0
VERTEX
8
1
10
16.183041
20
5.724033
42
-0.017667
0
VERTEX
8
1
10
16.242367
20
6.361675
42
0.246933
0
VERTEX
8
1
10
16.274181
20
6.404995
42
0.087029
0
VERTEX
8
1
10
16.292797
20
6.580437
42
-0.004004
0
VERTEX
8
1
10
16.253246
20
7.713516
0
VERTEX
8
1
10
16.233807
20
7.857018
0
VERTEX
8
1
10
16.237514
20
7.869820
0
VERTEX
8
1
10
21.039722
20
7.869816
0
VERTEX
8
1
10
21.065327
20
7.870209
0
VERTEX
8
1
10
21.065327
20
8.093716
42
0.230974
0
VERTEX
8
1
10
21.426228
20
8.376358
42
0.177079
0
VERTEX
8
1
10
21.482914
20
8.835918
42
0.297659
0
VERTEX
8
1
10
21.065479
20
9.214626
42
0.057478
0
VERTEX
8
1
10
20.732029
20
9.234585
42
0.004908
0
VERTEX
8
1
10
20.401493
20
9.229618
0
VERTEX
8
1
10
20.395702
20
9.221500
42
0.015043
0
VERTEX
8
1
10
20.395191
20
9.077614
0
VERTEX
8
1
10
20.497776
20
9.074074
0
VERTEX
8
1
10
20.495991
20
8.234615
42
-0.392174
0
VERTEX
8
1
10
20.490742
20
8.227650
0
VERTEX
8
1
10
20.398609
20
8.220394
0
VERTEX
8
1
10
20.397717
20
8.219292
42
0.007409
0
VERTEX
8
1
10
20.395870
20
8.110909
0
VERTEX
8
1
10
20.188389
20
8.110912
0
VERTEX
8
1
10
20.188213
20
8.116325
42
0.006567
0
VERTEX
8
1
10
20.241993
20
8.373119
0
VERTEX
8
1
10
20.240368
20
8.385441
42
0.016092
0
VERTEX
8
1
10
20.069019
20
8.416431
0
VERTEX
8
1
10
20.016621
20
8.271942
42
-0.331344
0
VERTEX
8
1
10
19.969906
20
8.237453
42
-0.065703
0
VERTEX
8
1
10
19.768627
20
8.234501
42
-0.401274
0
VERTEX
8
1
10
19.747669
20
8.266693
0
VERTEX
8
1
10
19.749439
20
8.584515
42
-0.020055
0
VERTEX
8
1
10
19.911770
20
8.579090
42
-0.270941
0
VERTEX
8
1
10
19.928028
20
8.543949
0
VERTEX
8
1
10
19.937077
20
8.472168
42
0.020883
0
VERTEX
8
1
10
20.104862
20
8.478279
42
0.000701
0
VERTEX
8
1
10
20.108433
20
8.829590
0
VERTEX
8
1
10
20.106113
20
8.838394
42
0.009146
0
VERTEX
8
1
10
19.940540
20
8.841808
0
VERTEX
8
1
10
19.930195
20
8.776272
42
-0.391848
0
VERTEX
8
1
10
19.902210
20
8.739925
42
-0.016402
0
VERTEX
8
1
10
19.749439
20
8.737671
0
VERTEX
8
1
10
19.751217
20
9.075081
0
VERTEX
8
1
10
19.751865
20
9.075867
42
-0.052509
0
VERTEX
8
1
10
19.972225
20
9.061169
42
-0.267410
0
VERTEX
8
1
10
19.992199
20
9.035439
0
VERTEX
8
1
10
20.020916
20
8.897289
42
0.011983
0
VERTEX
8
1
10
20.195324
20
8.916813
42
0.011598
0
VERTEX
8
1
10
20.178020
20
9.234829
42
-0.005305
0
VERTEX
8
1
10
19.359867
20
9.233036
0
VERTEX
8
1
10
19.349277
20
9.230850
42
0.009816
0
VERTEX
8
1
10
19.345913
20
9.079433
0
VERTEX
8
1
10
19.448841
20
9.075886
0
VERTEX
8
1
10
19.449383
20
9.074360
0
VERTEX
8
1
10
19.449368
20
8.234303
42
-0.351346
0
VERTEX
8
1
10
19.441998
20
8.227581
0
VERTEX
8
1
10
19.349575
20
8.222130
42
0.011988
0
VERTEX
8
1
10
19.347622
20
8.113529
0
VERTEX
8
1
10
19.345371
20
8.110916
0
VERTEX
8
1
10
18.945423
20
8.110912
42
0.010778
0
VERTEX
8
1
10
18.944691
20
8.223961
0
VERTEX
8
1
10
18.817181
20
8.231045
0
VERTEX
8
1
10
18.822506
20
9.070465
42
-0.082171
0
VERTEX
8
1
10
18.957493
20
9.057991
42
-0.303081
0
VERTEX
8
1
10
18.979694
20
9.027622
0
VERTEX
8
1
10
19.007992
20
8.857765
0
VERTEX
8
1
10
19.010250
20
8.856346
42
0.007818
0
VERTEX
8
1
10
19.190128
20
8.872936
0
VERTEX
8
1
10
19.199200
20
8.879471
42
0.013649
0
VERTEX
8
1
10
19.179340
20
9.234829
42
-0.005526
0
VERTEX
8
1
10
18.163082
20
9.234825
0
VERTEX
8
1
10
18.158825
20
9.220783
42
0.003634
0
VERTEX
8
1
10
18.137142
20
8.880669
0
VERTEX
8
1
10
18.144238
20
8.871323
42
0.021308
0
VERTEX
8
1
10
18.326199
20
8.857361
0
VERTEX
8
1
10
18.357540
20
9.024487
42
-0.376236
0
VERTEX
8
1
10
18.391415
20
9.063217
42
-0.042554
0
VERTEX
8
1
10
18.514500
20
9.072292
0
VERTEX
8
1
10
18.515301
20
9.062740
0
VERTEX
8
1
10
18.515270
20
8.235680
42
-0.315167
0
VERTEX
8
1
10
18.511227
20
8.229427
0
VERTEX
8
1
10
18.389606
20
8.223953
0
VERTEX
8
1
10
18.388485
20
8.222748
42
-0.004503
0
VERTEX
8
1
10
18.387020
20
8.110916
0
VERTEX
8
1
10
18.173054
20
8.110912
0
VERTEX
8
1
10
18.171719
20
8.113167
42
0.006164
0
VERTEX
8
1
10
18.172245
20
8.222130
0
VERTEX
8
1
10
18.081692
20
8.229229
42
-0.000649
0
VERTEX
8
1
10
17.748638
20
9.214024
0
VERTEX
8
1
10
17.725117
20
9.243755
42
0.017751
0
VERTEX
8
1
10
17.496502
20
9.240475
0
VERTEX
8
1
10
17.480877
20
9.205368
42
-0.004754
0
VERTEX
8
1
10
17.116398
20
8.230465
0
VERTEX
8
1
10
17.113689
20
8.228661
0
VERTEX
8
1
10
17.110638
20
8.227554
0
VERTEX
8
1
10
17.027576
20
8.222122
42
-0.008104
0
VERTEX
8
1
10
17.022724
20
8.110912
0
VERTEX
8
1
10
16.864971
20
8.110912
42
0.018658
0
VERTEX
8
1
10
16.932888
20
8.134727
42
0.034876
0
VERTEX
8
1
10
16.899738
20
8.300301
42
-0.087243
0
VERTEX
8
1
10
16.589130
20
8.252476
0
VERTEX
8
1
10
16.564861
20
8.255718
42
-0.336295
0
VERTEX
8
1
10
16.325809
20
8.488342
42
-0.138051
0
VERTEX
8
1
10
16.349880
20
8.861668
42
-0.194569
0
VERTEX
8
1
10
16.513119
20
9.048061
42
-0.269480
0
VERTEX
8
1
10
16.691608
20
9.038624
42
-0.091138
0
VERTEX
8
1
10
16.695423
20
9.029274
42
-0.000905
0
VERTEX
8
1
10
16.739941
20
8.835033
42
0.012514
0
VERTEX
8
1
10
16.924335
20
8.859261
0
VERTEX
8
1
10
16.926495
20
8.877800
42
0.007350
0
VERTEX
8
1
10
16.901188
20
9.219326
0
VERTEX
8
1
10
16.893261
20
9.226654
0
VERTEX
8
1
10
16.883045
20
9.229687
0
VERTEX
8
1
10
16.871899
20
9.232555
42
0.147503
0
VERTEX
8
1
10
16.360470
20
9.189457
42
0.082995
0
VERTEX
8
1
10
16.180904
20
9.072231
42
0.020733
0
VERTEX
8
1
10
16.173122
20
9.711914
42
0.134053
0
VERTEX
8
1
10
16.135967
20
9.847958
42
0.015906
0
VERTEX
8
1
10
15.948711
20
10.126137
42
0.032977
0
VERTEX
8
1
10
16.400631
20
10.496029
42
0.096200
0
VERTEX
8
1
10
16.545223
20
10.682610
0
VERTEX
8
1
10
16.551632
20
10.718971
42
0.003674
0
VERTEX
8
1
10
16.545391
20
11.205185
42
0.146897
0
VERTEX
8
1
10
16.677639
20
11.116856
42
-0.151333
0
VERTEX
8
1
10
16.773663
20
11.097458
42
0.066641
0
VERTEX
8
1
10
16.950962
20
10.834408
42
0.210160
0
VERTEX
8
1
10
17.062550
20
10.780010
42
-0.028344
0
VERTEX
8
1
10
17.439976
20
10.651039
42
-0.095270
0
VERTEX
8
1
10
17.548214
20
10.550491
42
0.074625
0
VERTEX
8
1
10
17.531887
20
10.377796
0
VERTEX
8
1
10
17.534710
20
10.369087
0
VERTEX
8
1
10
17.539196
20
10.362507
42
0.188048
0
VERTEX
8
1
10
17.676105
20
10.313465
0
VERTEX
8
1
10
17.683025
20
10.316601
0
VERTEX
8
1
10
17.687504
20
10.321594
42
0.006717
0
VERTEX
8
1
10
17.751545
20
10.500546
0
VERTEX
8
1
10
17.760273
20
10.515430
42
0.157985
0
VERTEX
8
1
10
17.803715
20
10.658615
42
-0.009986
0
VERTEX
8
1
10
17.808689
20
10.722786
42
0.041768
0
VERTEX
8
1
10
17.600796
20
10.800953
0
VERTEX
8
1
10
17.574390
20
10.813004
42
-0.034883
0
VERTEX
8
1
10
17.237354
20
11.027561
42
-0.045446
0
VERTEX
8
1
10
17.456287
20
11.176769
42
0.058991
0
VERTEX
8
1
10
17.643742
20
11.389427
42
0.084429
0
VERTEX
8
1
10
17.827709
20
11.481667
0
VERTEX
8
1
10
17.848446
20
11.491413
42
0.019415
0
VERTEX
8
1
10
17.982662
20
11.495117
42
0.475373
0
VERTEX
8
1
10
17.989773
20
11.528240
42
0.158683
0
VERTEX
8
1
10
17.918514
20
11.622330
42
-0.077560
0
VERTEX
8
1
10
17.820385
20
11.662773
42
0.027490
0
VERTEX
8
1
10
17.578381
20
11.771084
0
VERTEX
8
1
10
17.569134
20
11.771484
42
0.135308
0
VERTEX
8
1
10
17.515255
20
11.638016
0
VERTEX
8
1
10
17.505238
20
11.623123
42
-0.026027
0
VERTEX
8
1
10
17.135845
20
11.251373
42
0.082940
0
VERTEX
8
1
10
17.118626
20
11.487747
42
0.167368
0
VERTEX
8
1
10
17.073505
20
11.558414
42
0.019743
0
VERTEX
8
1
10
16.904758
20
11.696564
0
VERTEX
8
1
10
16.904057
20
11.699848
42
0.094870
0
VERTEX
8
1
10
16.931255
20
11.757118
42
0.201358
0
VERTEX
8
1
10
16.904118
20
11.815308
42
0.028231
0
VERTEX
8
1
10
16.814030
20
11.977829
42
0.172066
0
VERTEX
8
1
10
16.671848
20
12.075459
42
-0.058576
0
VERTEX
8
1
10
16.570316
20
12.216908
42
0.133492
0
VERTEX
8
1
10
16.401928
20
12.364319
42
0.048769
0
VERTEX
8
1
10
16.234219
20
12.430614
42
0.100197
0
VERTEX
8
1
10
16.227093
20
12.673832
42
0.168837
0
VERTEX
8
1
10
16.145985
20
12.796074
42
0.120921
0
VERTEX
8
1
10
15.999241
20
12.887077
42
0.248327
0
VERTEX
8
1
10
15.913700
20
12.866230
42
0.053777
0
VERTEX
8
1
10
15.678028
20
12.668587
42
0.088258
0
VERTEX
8
1
10
15.575092
20
12.505646
42
0.338219
0
VERTEX
8
1
10
15.612034
20
12.500164
42
0.126393
0
VERTEX
8
1
10
15.640965
20
12.360756
42
0.201560
0
VERTEX
8
1
10
15.677212
20
12.335682
42
-0.082231
0
VERTEX
8
1
10
15.751629
20
12.284210
42
0.155543
0
VERTEX
8
1
10
15.756443
20
12.190071
0
VERTEX
8
1
10
15.761417
20
12.185532
0
VERTEX
8
1
10
15.767735
20
12.183212
42
-0.329000
0
VERTEX
8
1
10
15.811771
20
12.143269
42
0.362328
0
VERTEX
8
1
10
15.839672
20
12.122757
42
0.115927
0
VERTEX
8
1
10
15.894215
20
12.101749
0
VERTEX
8
1
10
15.898838
20
12.103134
0
VERTEX
8
1
10
15.903034
20
12.105839
42
0.010919
0
VERTEX
8
1
10
15.872341
20
11.985054
42
0.102250
0
VERTEX
8
1
10
15.881260
20
11.880627
0
VERTEX
8
1
10
15.886181
20
11.872044
0
VERTEX
8
1
10
15.892384
20
11.864491
0
VERTEX
8
1
10
15.899998
20
11.858181
42
-0.081064
0
VERTEX
8
1
10
16.050091
20
11.757629
42
0.021040
0
VERTEX
8
1
10
15.789738
20
11.592476
42
0.075444
0
VERTEX
8
1
10
15.770733
20
11.548115
42
0.120329
0
VERTEX
8
1
10
15.632793
20
11.483269
42
0.337359
0
VERTEX
8
1
10
15.623165
20
11.426369
42
0.128691
0
VERTEX
8
1
10
15.701077
20
11.304028
42
0.628441
0
VERTEX
8
1
10
15.736858
20
11.310417
42
0.101949
0
VERTEX
8
1
10
15.745449
20
11.395817
42
0.115940
0
VERTEX
8
1
10
15.822346
20
11.472816
0
VERTEX
8
1
10
15.827419
20
11.474533
42
-0.003322
0
VERTEX
8
1
10
16.002666
20
11.471996
0
VERTEX
8
1
10
16.013988
20
11.473686
0
VERTEX
8
1
10
16.021954
20
11.476341
0
VERTEX
8
1
10
16.026325
20
11.471508
42
-0.207714
0
VERTEX
8
1
10
16.010952
20
11.316536
42
0.065000
0
VERTEX
8
1
10
15.923847
20
11.030796
42
-0.047764
0
VERTEX
8
1
10
15.899410
20
10.805088
42
-0.238743
0
VERTEX
8
1
10
15.865238
20
10.765835
42
0.074434
0
VERTEX
8
1
10
15.641392
20
10.547176
42
-0.193437
0
VERTEX
8
1
10
15.591991
20
10.520077
42
0.007051
0
VERTEX
8
1
10
15.497768
20
10.487888
0
VERTEX
8
1
10
15.472355
20
10.570408
42
0.106329
0
VERTEX
8
1
10
15.473255
20
10.675133
42
0.409787
0
VERTEX
8
1
10
15.436466
20
10.697983
42
-0.132295
0
VERTEX
8
1
10
15.339024
20
10.741829
0
VERTEX
8
1
10
15.294598
20
10.798992
42
0.193402
0
VERTEX
8
1
10
15.290218
20
10.883266
0
VERTEX
8
1
10
15.284184
20
10.888767
0
VERTEX
8
1
10
15.276417
20
10.892593
42
0.092657
0
VERTEX
8
1
10
15.135868
20
10.881561
42
0.332048
0
VERTEX
8
1
10
15.095158
20
10.939171
42
-0.003611
0
VERTEX
8
1
10
14.926273
20
10.976898
42
0.421048
0
VERTEX
8
1
10
14.816952
20
11.011631
42
0.221938
0
VERTEX
8
1
10
14.544537
20
10.633606
0
VERTEX
8
1
10
14.539562
20
10.584641
42
0.403674
0
VERTEX
8
1
10
14.736263
20
10.327061
42
-0.035863
0
VERTEX
8
1
10
14.996128
20
10.253002
0
VERTEX
8
1
10
14.970814
20
10.119675
42
0.141042
0
VERTEX
8
1
10
14.925251
20
9.992138
42
0.225299
0
VERTEX
8
1
10
14.957302
20
9.933887
42
0.011491
0
VERTEX
8
1
10
15.015247
20
9.872044
42
0.022607
0
VERTEX
8
1
10
15.126438
20
9.300819
42
0.023767
0
VERTEX
8
1
10
15.256481
20
8.938667
42
0.027838
0
VERTEX
8
1
10
15.205219
20
8.568634
42
0.547266
0
VERTEX
8
1
10
15.269154
20
8.513168
42
0.029136
0
VERTEX
8
1
10
15.227650
20
8.110912
0
VERTEX
8
1
10
14.796955
20
8.110912
0
VERTEX
8
1
10
14.799137
20
8.112209
42
0.216187
0
VERTEX
8
1
10
15.116405
20
8.414196
42
0.162229
0
VERTEX
8
1
10
15.154812
20
8.836514
42
0.297564
0
VERTEX
8
1
10
14.737087
20
9.214714
42
0.057332
0
VERTEX
8
1
10
14.403515
20
9.234589
42
0.004918
0
VERTEX
8
1
10
14.073109
20
9.229607
0
VERTEX
8
1
10
14.067753
20
9.221336
42
0.015213
0
VERTEX
8
1
10
14.067280
20
9.077614
0
VERTEX
8
1
10
14.169830
20
9.074074
0
VERTEX
8
1
10
14.168045
20
8.234600
42
-0.393467
0
VERTEX
8
1
10
14.162785
20
8.227646
0
VERTEX
8
1
10
14.070633
20
8.220394
0
VERTEX
8
1
10
14.069767
20
8.219181
42
0.007193
0
VERTEX
8
1
10
14.067905
20
8.110912
0
VERTEX
8
1
10
13.860378
20
8.110912
0
VERTEX
8
1
10
13.860336
20
8.116631
42
0.006624
0
VERTEX
8
1
10
13.914101
20
8.373417
0
VERTEX
8
1
10
13.912254
20
8.385471
42
0.016259
0
VERTEX
8
1
10
13.741066
20
8.416409
0
VERTEX
8
1
10
13.688648
20
8.271881
42
-0.331457
0
VERTEX
8
1
10
13.641861
20
8.237442
42
-0.065884
0
VERTEX
8
1
10
13.440575
20
8.234535
42
-0.400402
0
VERTEX
8
1
10
13.419720
20
8.266800
0
VERTEX
8
1
10
13.421497
20
8.584541
42
-0.019969
0
VERTEX
8
1
10
13.583866
20
8.579075
42
-0.270317
0
VERTEX
8
1
10
13.600086
20
8.543858
0
VERTEX
8
1
10
13.608925
20
8.473042
0
VERTEX
8
1
10
13.609325
20
8.472168
42
0.021730
0
VERTEX
8
1
10
13.776924
20
8.478428
42
0.000619
0
VERTEX
8
1
10
13.780483
20
8.829773
0
VERTEX
8
1
10
13.778000
20
8.838402
42
0.009133
0
VERTEX
8
1
10
13.612598
20
8.841805
0
VERTEX
8
1
10
13.602242
20
8.776230
42
-0.394160
0
VERTEX
8
1
10
13.574104
20
8.739918
42
-0.016859
0
VERTEX
8
1
10
13.421505
20
8.737743
0
VERTEX
8
1
10
13.423279
20
9.075138
0
VERTEX
8
1
10
13.423935
20
9.075867
42
-0.052621
0
VERTEX
8
1
10
13.644337
20
9.061146
42
-0.266858
0
VERTEX
8
1
10
13.664265
20
9.035389
0
VERTEX
8
1
10
13.692978
20
8.897282
42
0.011931
0
VERTEX
8
1
10
13.867550
20
8.916836
42
0.011437
0
VERTEX
8
1
10
13.849953
20
9.234829
42
-0.005326
0
VERTEX
8
1
10
13.031693
20
9.233036
0
VERTEX
8
1
10
13.021324
20
9.230698
42
0.009796
0
VERTEX
8
1
10
13.017975
20
9.079437
0
VERTEX
8
1
10
13.120918
20
9.075886
0
VERTEX
8
1
10
13.121433
20
9.074226
0
VERTEX
8
1
10
13.121422
20
8.234291
42
-0.350101
0
VERTEX
8
1
10
13.114037
20
8.227577
0
VERTEX
8
1
10
13.021606
20
8.222130
42
0.007537
0
VERTEX
8
1
10
13.019390
20
8.110912
0
VERTEX
8
1
10
12.972752
20
8.110912
0
VERTEX
8
1
10
12.972710
20
10.924828
0
VERTEX
8
1
10
12.973198
20
10.926140
42
0.185244
0
VERTEX
8
1
10
13.542866
20
11.132004
0
VERTEX
8
1
10
13.543385
20
11.136070
42
-0.013089
0
VERTEX
8
1
10
13.545799
20
11.489723
42
-0.415490
0
VERTEX
8
1
10
13.599403
20
11.548897
42
-0.037581
0
VERTEX
8
1
10
13.667450
20
11.552353
0
VERTEX
8
1
10
13.667446
20
11.659145
0
VERTEX
8
1
10
13.667213
20
11.660103
0
VERTEX
8
1
10
13.058861
20
11.660023
0
VERTEX
8
1
10
13.058861
20
11.553001
42
-0.078822
0
VERTEX
8
1
10
13.167568
20
11.540100
42
-0.294247
0
VERTEX
8
1
10
13.211590
20
11.473545
42
-0.037309
0
VERTEX
8
1
10
13.215607
20
11.407551
0
VERTEX
8
1
10
13.215687
20
11.135735
42
-0.240216
0
VERTEX
8
1
10
12.941711
20
11.070534
42
-0.160637
0
VERTEX
8
1
10
12.787926
20
11.182484
0
VERTEX
8
1
10
12.756840
20
11.227959
42
-0.105352
0
VERTEX
8
1
10
12.639202
20
11.619591
42
-0.081033
0
VERTEX
8
1
10
12.661896
20
12.146301
42
-0.114959
0
VERTEX
8
1
10
12.796734
20
12.437187
0
VERTEX
8
1
10
12.832253
20
12.474342
42
-0.327191
0
VERTEX
8
1
10
13.202137
20
12.524834
42
-0.165954
0
VERTEX
8
1
10
13.298080
20
12.396416
42
-0.043812
0
VERTEX
8
1
10
13.357185
20
12.156471
0
VERTEX
8
1
10
13.503525
20
12.180977
42
-0.020899
0
VERTEX
8
1
10
13.443008
20
12.595554
0
VERTEX
8
1
10
13.420597
20
12.607891
42
0.201150
0
VERTEX
8
1
10
12.676849
20
12.601566
42
0.181363
0
VERTEX
8
1
10
12.329666
20
12.243603
0
VERTEX
8
1
10
12.297756
20
12.163181
0
VERTEX
8
1
10
12.273094
20
12.078362
42
0.133316
0
VERTEX
8
1
10
12.305672
20
11.391186
42
0.175069
0
VERTEX
8
1
10
12.586021
20
11.027317
0
VERTEX
8
1
10
12.631332
20
11.002045
0
VERTEX
8
1
10
11.905415
20
11.002045
0
VERTEX
8
1
10
11.904911
20
11.003101
0
VERTEX
8
1
10
11.904945
20
12.355358
42
-0.118716
0
VERTEX
8
1
10
11.926003
20
12.490452
42
-0.257454
0
VERTEX
8
1
10
12.011356
20
12.535061
42
-0.026753
0
VERTEX
8
1
10
12.078125
20
12.538185
0
VERTEX
8
1
10
12.078125
20
12.647556
0
VERTEX
8
1
10
12.076706
20
12.647980
0
VERTEX
8
1
10
11.567001
20
12.647980
0
VERTEX
8
1
10
11.565514
20
12.647575
0
VERTEX
8
1
10
11.565510
20
12.538200
42
-0.097943
0
VERTEX
8
1
10
11.694012
20
12.521255
42
-0.272707
0
VERTEX
8
1
10
11.745396
20
12.437374
42
-0.038142
0
VERTEX
8
1
10
11.750389
20
12.355747
0
VERTEX
8
1
10
11.750393
20
11.404160
0
VERTEX
8
1
10
11.745827
20
11.404160
0
VERTEX
8
1
10
11.050667
20
12.647770
0
VERTEX
8
1
10
11.045280
20
12.647980
0
VERTEX
8
1
10
10.533260
20
12.647980
0
VERTEX
8
1
10
10.533249
20
12.539299
0
VERTEX
8
1
10
10.534237
20
12.537968
42
-0.113484
0
VERTEX
8
1
10
10.667259
20
12.520298
42
-0.251632
0
VERTEX
8
1
10
10.707447
20
12.454208
42
-0.041821
0
VERTEX
8
1
10
10.713486
20
12.349220
0
VERTEX
8
1
10
10.713478
20
11.254730
42
-0.108097
0
VERTEX
8
1
10
10.695271
20
11.117825
42
-0.269275
0
VERTEX
8
1
10
10.610126
20
11.070843
42
-0.031490
0
VERTEX
8
1
10
10.535591
20
11.067337
0
VERTEX
8
1
10
10.535591
20
11.002441
0
VERTEX
8
1
10
10.535412
20
11.002045
0
VERTEX
8
1
10
10.400532
20
11.002045
0
VERTEX
8
1
10
10.399864
20
11.002171
0
VERTEX
8
1
10
10.399868
20
11.067135
42
-0.086554
0
VERTEX
8
1
10
10.258904
20
11.083687
42
-0.292316
0
VERTEX
8
1
10
10.205437
20
11.165794
42
-0.036504
0
VERTEX
8
1
10
10.200958
20
11.245224
0
VERTEX
8
1
10
10.200993
20
12.364590
42
-0.136322
0
VERTEX
8
1
10
10.223480
20
12.494282
42
-0.231475
0
VERTEX
8
1
10
10.300934
20
12.532974
42
-0.025121
0
VERTEX
8
1
10
10.399864
20
12.538624
0
VERTEX
8
1
10
10.399868
20
12.647884
0
VERTEX
8
1
10
9.632458
20
12.647980
0
VERTEX
8
1
10
9.632114
20
12.647030
0
VERTEX
8
1
10
9.632114
20
12.537987
42
-0.105183
0
VERTEX
8
1
10
9.779789
20
12.519135
42
-0.276610
0
VERTEX
8
1
10
9.827766
20
12.430874
42
-0.029586
0
VERTEX
8
1
10
9.831070
20
12.346222
0
VERTEX
8
1
10
9.831070
20
11.372025
42
-0.029288
0
VERTEX
8
1
10
9.824535
20
11.154102
42
-0.359475
0
VERTEX
8
1
10
9.743774
20
11.074890
42
-0.047183
0
VERTEX
8
1
10
9.632114
20
11.067375
0
VERTEX
8
1
10
9.632114
20
11.002621
0
VERTEX
8
1
10
9.631840
20
11.002045
0
VERTEX
8
1
10
8.961128
20
11.002045
0
VERTEX
8
1
10
8.956493
20
11.003181
0
VERTEX
8
1
10
9.400139
20
12.416630
42
-0.164415
0
VERTEX
8
1
10
9.458996
20
12.519501
42
-0.154953
0
VERTEX
8
1
10
9.543175
20
12.538189
0
VERTEX
8
1
10
9.543175
20
12.647560
0
VERTEX
8
1
10
9.541985
20
12.647980
0
VERTEX
8
1
10
9.120728
20
12.647980
0
VERTEX
8
1
10
9.119511
20
12.647568
0
VERTEX
8
1
10
9.119507
20
12.538197
42
-0.135168
0
VERTEX
8
1
10
9.219620
20
12.519474
42
-0.289884
0
VERTEX
8
1
10
9.239155
20
12.440731
42
-0.033328
0
VERTEX
8
1
10
9.226036
20
12.384521
0
VERTEX
8
1
10
8.911118
20
11.343536
0
VERTEX
8
1
10
8.904270
20
11.343536
0
VERTEX
8
1
10
8.571789
20
12.369560
42
-0.141193
0
VERTEX
8
1
10
8.554962
20
12.494938
42
-0.279527
0
VERTEX
8
1
10
8.613857
20
12.533680
42
-0.042355
0
VERTEX
8
1
10
8.672428
20
12.537983
0
VERTEX
8
1
10
8.672428
20
12.647011
0
VERTEX
8
1
10
8.672157
20
12.647984
0
VERTEX
8
1
10
8.019367
20
12.647892
0
VERTEX
8
1
10
8.019367
20
12.538631
42
-0.221777
0
VERTEX
8
1
10
8.129990
20
12.502045
42
-0.075096
0
VERTEX
8
1
10
8.188854
20
12.375778
0
VERTEX
8
1
10
8.658562
20
11.007271
0
VERTEX
8
1
10
8.657200
20
11.002045
0
VERTEX
8
1
10
7.545135
20
11.002045
0
VERTEX
8
1
10
7.548676
20
11.005390
42
0.191654
0
VERTEX
8
1
10
7.851738
20
11.354774
0
VERTEX
8
1
10
7.867283
20
11.398739
42
0.130466
0
VERTEX
8
1
10
7.881424
20
12.153061
42
0.143381
0
VERTEX
8
1
10
7.674454
20
12.509464
0
VERTEX
8
1
10
7.603500
20
12.563854
0
VERTEX
8
1
10
7.520618
20
12.609383
0
VERTEX
8
1
10
7.424931
20
12.644665
0
VERTEX
8
1
10
7.315544
20
12.668316
42
0.081974
0
VERTEX
8
1
10
6.959251
20
12.660793
0
VERTEX
8
1
10
6.862072
20
12.634644
42
0.177869
0
VERTEX
8
1
10
6.532494
20
12.372826
0
VERTEX
8
1
10
6.493553
20
12.301140
0
VERTEX
8
1
10
6.462177
20
12.225304
0
VERTEX
8
1
10
6.437752
20
12.146305
42
0.123439
0
VERTEX
8
1
10
6.446239
20
11.421833
0
VERTEX
8
1
10
6.460918
20
11.376564
42
0.200615
0
VERTEX
8
1
10
6.778046
20
11.002266
0
VERTEX
8
1
10
6.771763
20
11.002048
0
VERTEX
8
1
10
6.215401
20
11.002048
0
VERTEX
8
1
10
6.287243
20
11.397430
0
VERTEX
8
1
10
6.138775
20
11.397427
0
VERTEX
8
1
10
6.135220
20
11.387512
42
-0.060181
0
VERTEX
8
1
10
6.067131
20
11.163280
42
-0.300082
0
VERTEX
8
1
10
5.949776
20
11.091312
0
VERTEX
8
1
10
5.924400
20
11.090069
42
-0.008836
0
VERTEX
8
1
10
5.614254
20
11.090256
42
-0.451345
0
VERTEX
8
1
10
5.558167
20
11.138618
42
-0.035516
0
VERTEX
8
1
10
5.554718
20
11.182018
0
VERTEX
8
1
10
5.554665
20
12.354233
42
-0.118757
0
VERTEX
8
1
10
5.574127
20
12.492168
42
-0.250420
0
VERTEX
8
1
10
5.647404
20
12.532684
42
-0.039999
0
VERTEX
8
1
10
5.748905
20
12.538380
0
VERTEX
8
1
10
5.748905
20
12.647755
0
VERTEX
8
1
10
5.745270
20
12.647984
0
VERTEX
8
1
10
4.996227
20
12.647980
0
VERTEX
8
1
10
4.995190
20
12.647320
0
VERTEX
8
1
10
4.995193
20
12.538059
42
-0.103168
0
VERTEX
8
1
10
5.131527
20
12.520176
42
-0.273244
0
VERTEX
8
1
10
5.180706
20
12.434048
42
-0.033537
0
VERTEX
8
1
10
5.184784
20
12.350864
0
VERTEX
8
1
10
5.184792
20
11.383835
42
-0.028439
0
VERTEX
8
1
10
5.178253
20
11.157806
42
-0.346902
0
VERTEX
8
1
10
5.102039
20
11.075554
42
-0.048085
0
VERTEX
8
1
10
4.995193
20
11.066605
0
VERTEX
8
1
10
4.995190
20
11.002048
0
VERTEX
8
1
10
4.972942
20
11.002045
0
VERTEX
8
1
10
4.972710
20
11.002712
0
VERTEX
8
1
10
4.972710
20
15.254303
0
VERTEX
8
1
10
4.971642
20
15.291794
0
VERTEX
8
1
10
2.490978
20
15.291794
0
VERTEX
8
1
10
2.472710
20
15.284660
0
VERTEX
8
1
10
2.472710
20
6.808918
0
VERTEX
8
1
10
2.467701
20
6.771233
42
0.213665
0
VERTEX
8
1
10
2.159081
20
7.085300
0
VERTEX
8
1
10
2.099579
20
7.107361
42
0.142933
0
VERTEX
8
1
10
1.419178
20
7.110271
0
VERTEX
8
1
10
1.381310
20
7.096870
0
VERTEX
8
1
10
1.344940
20
7.081757
42
0.266136
0
VERTEX
8
1
10
1.018219
20
6.655804
42
0.043995
0
VERTEX
8
1
10
1.003452
20
6.462280
0
VERTEX
8
1
10
1.003452
20
5.836597
0
VERTEX
8
1
10
1.003933
20
5.835320
0
VERTEX
8
1
10
1.102158
20
5.835320
42
-0.102024
0
VERTEX
8
1
10
1.117813
20
5.955204
42
-0.276128
0
VERTEX
8
1
10
1.194233
20
5.997448
42
-0.030775
0
VERTEX
8
1
10
1.268307
20
6.000713
0
VERTEX
8
1
10
2.136425
20
6.000725
42
-0.048678
0
VERTEX
8
1
10
2.358944
20
5.992153
42
-0.310368
0
VERTEX
8
1
10
2.415916
20
5.931576
42
-0.052757
0
VERTEX
8
1
10
2.424019
20
5.835316
0
VERTEX
8
1
10
2.472710
20
5.835320
0
VERTEX
8
1
10
2.472687
20
5.562988
0
VERTEX
8
1
10
1.272472
20
5.562996
42
-0.106442
0
VERTEX
8
1
10
1.147568
20
5.579803
42
-0.271552
0
VERTEX
8
1
10
1.105385
20
5.650921
42
-0.034545
0
VERTEX
8
1
10
1.102249
20
5.712257
0
VERTEX
8
1
10
1.004173
20
5.712257
0
VERTEX
8
1
10
1.003452
20
5.711884
0
VERTEX
8
1
10
1.003452
20
5.273148
0
VERTEX
8
1
10
1.003590
20
5.270512
0
VERTEX
8
1
10
1.101818
20
5.270508
42
-0.090058
0
VERTEX
8
1
10
1.116032
20
5.378548
42
-0.276126
0
VERTEX
8
1
10
1.188618
20
5.424904
42
-0.039610
0
VERTEX
8
1
10
1.260033
20
5.429775
0
VERTEX
8
1
10
2.120941
20
5.429844
0
VERTEX
8
1
10
2.120941
20
5.425926
0
VERTEX
8
1
10
1.004959
20
4.827545
0
VERTEX
8
1
10
1.003456
20
4.824036
0
VERTEX
8
1
10
1.003452
20
4.381317
0
VERTEX
8
1
10
1.004181
20
4.380951
0
VERTEX
8
1
10
1.102249
20
4.380951
42
-0.107060
0
VERTEX
8
1
10
1.116844
20
4.494011
42
-0.270007
0
VERTEX
8
1
10
1.192799
20
4.533211
42
-0.029255
0
VERTEX
8
1
10
1.268536
20
4.536270
0
VERTEX
8
1
10
2.145309
20
4.536270
42
-0.052629
0
VERTEX
8
1
10
2.361214
20
4.527046
42
-0.349546
0
VERTEX
8
1
10
2.419865
20
4.451126
42
-0.038012
0
VERTEX
8
1
10
2.423508
20
4.382965
0
VERTEX
8
1
10
2.472706
20
4.382950
0
VERTEX
8
1
10
2.472687
20
4.265999
0
VERTEX
8
1
10
2.423866
20
4.265991
42
-0.080310
0
VERTEX
8
1
10
2.410122
20
4.147476
42
-0.295516
0
VERTEX
8
1
10
2.339043
20
4.099030
42
-0.038425
0
VERTEX
8
1
10
2.269527
20
4.094635
0
VERTEX
8
1
10
1.263985
20
4.094566
42
-0.121213
0
VERTEX
8
1
10
1.143993
20
4.112465
42
-0.254017
0
VERTEX
8
1
10
1.104729
20
4.197662
0
VERTEX
8
1
10
1.103107
20
4.221931
0
VERTEX
8
1
10
1.102005
20
4.265991
0
VERTEX
8
1
10
1.003731
20
4.265991
0
VERTEX
8
1
10
1.003456
20
4.263458
0
VERTEX
8
1
10
1.003452
20
3.605698
0
VERTEX
8
1
10
1.003937
20
3.604362
0
VERTEX
8
1
10
1.102158
20
3.604370
42
-0.098658
0
VERTEX
8
1
10
1.117832
20
3.728905
42
-0.281154
0
VERTEX
8
1
10
1.194286
20
3.772507
42
-0.031436
0
VERTEX
8
1
10
1.268387
20
3.775818
0
VERTEX
8
1
10
2.136604
20
3.775833
42
-0.049923
0
VERTEX
8
1
10
2.358990
20
3.767044
42
-0.310580
0
VERTEX
8
1
10
2.415928
20
3.704323
42
-0.050767
0
VERTEX
8
1
10
2.424019
20
3.604370
0
VERTEX
8
1
10
2.472710
20
3.604370
0
VERTEX
8
1
10
2.472710
20
3.525688
0
VERTEX
8
1
10
2.424011
20
3.525696
42
-0.282807
0
VERTEX
8
1
10
2.364044
20
3.399574
42
-0.032166
0
VERTEX
8
1
10
2.257782
20
3.335915
0
VERTEX
8
1
10
1.551205
20
2.963615
0
VERTEX
8
1
10
1.545761
20
2.961128
0
VERTEX
8
1
10
1.197189
20
3.229858
0
VERTEX
8
1
10
1.180370
20
3.243866
42
-0.268132
0
VERTEX
8
1
10
1.102089
20
3.418785
0
VERTEX
8
1
10
1.003819
20
3.418785
0
VERTEX
8
1
10
1.003456
20
3.417496
0
VERTEX
8
1
10
1.003452
20
2.974236
0
VERTEX
8
1
10
1.003834
20
2.973000
0
VERTEX
8
1
10
1.102097
20
2.973000
0
VERTEX
8
1
10
1.102715
20
2.991348
42
-0.243796
0
VERTEX
8
1
10
1.125206
20
3.054008
42
-0.267500
0
VERTEX
8
1
10
1.182312
20
3.044174
42
-0.031193
0
VERTEX
8
1
10
1.260895
20
2.993126
0
VERTEX
8
1
10
1.719532
20
2.652229
0
VERTEX
8
1
10
1.719532
20
2.646324
42
-0.008977
0
VERTEX
8
1
10
1.201763
20
2.648605
0
VERTEX
8
1
10
1.182110
20
2.650894
42
-0.328883
0
VERTEX
8
1
10
1.109314
20
2.704323
42
-0.067400
0
VERTEX
8
1
10
1.102287
20
2.777344
0
VERTEX
8
1
10
1.003452
20
2.777237
0
VERTEX
8
1
10
1.003498
20
2.166145
0
VERTEX
8
1
10
1.101578
20
2.166153
42
-0.079058
0
VERTEX
8
1
10
1.115208
20
2.278839
42
-0.293174
0
VERTEX
8
1
10
1.185959
20
2.325180
42
-0.036962
0
VERTEX
8
1
10
1.256092
20
2.329445
0
VERTEX
8
1
10
2.261742
20
2.329506
42
-0.116536
0
VERTEX
8
1
10
2.380993
20
2.312225
42
-0.259521
0
VERTEX
8
1
10
2.420933
20
2.230972
42
-0.024708
0
VERTEX
8
1
10
2.423656
20
2.166161
0
VERTEX
8
1
10
2.472572
20
2.166153
0
VERTEX
8
1
10
2.472710
20
2.165520
0
VERTEX
8
1
10
2.472713
20
1.841896
0
VERTEX
8
1
10
2.473202
20
1.841904
0
VERTEX
8
1
10
2.481140
20
1.720261
0
VERTEX
8
1
10
2.506275
20
1.563812
0
VERTEX
8
1
10
2.547245
20
1.413071
0
VERTEX
8
1
10
2.603142
20
1.268951
42
0.232197
0
VERTEX
8
1
10
3.628819
20
0.418976
0
VERTEX
8
1
10
3.784267
20
0.390800
0
VERTEX
8
1
10
3.944695
20
0.379196
0
SEQEND
0
POLYLINE
8
1
66
1
70
1
0
VERTEX
8
1
10
19.131863
20
3.827225
0
VERTEX
8
1
10
19.137318
20
4.661095
42
-0.279094
0
VERTEX
8
1
10
19.385502
20
4.580841
42
-0.186002
0
VERTEX
8
1
10
19.503613
20
4.295715
42
-0.153770
0
VERTEX
8
1
10
19.439190
20
3.930824
42
-0.291813
0
VERTEX
8
1
10
19.156315
20
3.794167
42
-0.347308
0
SEQEND
0
POLYLINE
8
1
66
1
70
1
0
VERTEX
8
1
10
20.799534
20
8.249146
0
VERTEX
8
1
10
20.804981
20
9.083008
42
-0.275348
0
VERTEX
8
1
10
21.053181
20
9.002750
42
-0.185935
0
VERTEX
8
1
10
21.171284
20
8.717625
42
-0.153790
0
VERTEX
8
1
10
21.106853
20
8.352741
42
-0.291867
0
VERTEX
8
1
10
20.823986
20
8.216087
42
-0.347709
0
SEQEND
0
POLYLINE
8
1
66
1
70
1
0
VERTEX
8
1
10
17.430225
20
8.509090
42
-0.086858
0
VERTEX
8
1
10
17.431187
20
8.516815
42
-0.000698
0
VERTEX
8
1
10
17.552677
20
8.911549
0
VERTEX
8
1
10
17.561565
20
8.911545
42
0.002292
0
VERTEX
8
1
10
17.684551
20
8.506100
0
VERTEX
8
1
10
17.433895
20
8.506138
42
-0.393932
0
SEQEND
0
POLYLINE
8
1
66
1
70
1
0
VERTEX
8
1
10
17.364521
20
8.272686
42
0.005139
0
VERTEX
8
1
10
17.384747
20
8.354286
0
VERTEX
8
1
10
17.715443
20
8.357857
42
-0.468177
0
VERTEX
8
1
10
17.729176
20
8.345020
42
-0.022608
0
VERTEX
8
1
10
17.763630
20
8.233498
42
-0.283670
0
VERTEX
8
1
10
17.758854
20
8.229321
0
VERTEX
8
1
10
17.671528
20
8.223965
42
0.023738
0
VERTEX
8
1
10
17.668865
20
8.116646
0
VERTEX
8
1
10
17.665287
20
8.110916
0
VERTEX
8
1
10
17.452801
20
8.110912
42
-0.008472
0
VERTEX
8
1
10
17.452618
20
8.219395
0
VERTEX
8
1
10
17.449802
20
8.222275
0
VERTEX
8
1
10
17.354435
20
8.227474
42
-0.012826
0
SEQEND
0
POLYLINE
8
1
66
1
70
1
0
VERTEX
8
1
10
16.199711
20
8.146954
42
0.039030
0
VERTEX
8
1
10
16.266132
20
8.110912
0
VERTEX
8
1
10
16.200237
20
8.110912
0
VERTEX
8
1
10
16.197247
20
8.113377
0
VERTEX
8
1
10
16.191753
20
8.150059
0
SEQEND
0
POLYLINE
8
1
66
1
70
1
0
VERTEX
8
1
10
16.177158
20
10.786907
0
VERTEX
8
1
10
16.259602
20
11.395744
42
-0.506316
0
VERTEX
8
1
10
16.323055
20
11.383095
42
0.005589
0
VERTEX
8
1
10
16.250538
20
10.818954
42
-0.215486
0
SEQEND
0
POLYLINE
8
1
66
1
70
1
0
VERTEX
8
1
10
16.052952
20
3.695953
42
0.187465
0
VERTEX
8
1
10
16.306469
20
3.967575
42
0.237884
0
VERTEX
8
1
10
16.273113
20
4.601608
0
VERTEX
8
1
10
16.253696
20
4.630554
0
VERTEX
8
1
10
16.232693
20
4.657585
0
VERTEX
8
1
10
16.236851
20
4.664131
42
0.068606
0
VERTEX
8
1
10
16.366131
20
4.702980
42
-0.048371
0
VERTEX
8
1
10
16.480839
20
4.724365
0
VERTEX
8
1
10
16.485279
20
4.710915
42
0.002051
0
VERTEX
8
1
10
16.468983
20
4.450333
42
0.018998
0
VERTEX
8
1
10
16.658428
20
4.434860
0
VERTEX
8
1
10
16.690434
20
4.605576
42
-0.380044
0
VERTEX
8
1
10
16.725697
20
4.641624
42
-0.041313
0
VERTEX
8
1
10
16.840748
20
4.650360
0
VERTEX
8
1
10
16.847637
20
4.643913
0
VERTEX
8
1
10
16.847637
20
3.814491
42
-0.340423
0
VERTEX
8
1
10
16.842815
20
3.807373
0
VERTEX
8
1
10
16.720928
20
3.801994
42
-0.007600
0
VERTEX
8
1
10
16.718952
20
3.692177
0
VERTEX
8
1
10
16.047573
20
3.692184
0
SEQEND
0
POLYLINE
8
1
66
1
70
1
0
VERTEX
8
1
10
15.789082
20
4.659821
42
0.011202
0
VERTEX
8
1
10
15.887875
20
4.652809
42
-0.166024
0
VERTEX
8
1
10
15.972012
20
4.544510
42
-0.162576
0
VERTEX
8
1
10
15.993565
20
3.947548
42
-0.186669
0
VERTEX
8
1
10
15.884853
20
3.803192
42
-0.375936
0
VERTEX
8
1
10
15.614948
20
3.888649
42
-0.127142
0
VERTEX
8
1
10
15.549099
20
4.111801
42
-0.094610
0
VERTEX
8
1
10
15.577618
20
4.485703
0
VERTEX
8
1
10
15.588291
20
4.515961
0
VERTEX
8
1
10
15.600071
20
4.543335
42
-0.259049
0
VERTEX
8
1
10
15.757427
20
4.673569
0
VERTEX
8
1
10
15.764301
20
4.673195
42
0.218456
0
SEQEND
0
POLYLINE
8
1
66
1
70
1
0
VERTEX
8
1
10
15.307728
20
8.098042
42
0.002929
0
VERTEX
8
1
10
15.309353
20
8.225685
0
VERTEX
8
1
10
15.412952
20
8.229259
42
0.335042
0
VERTEX
8
1
10
15.420010
20
8.235432
0
VERTEX
8
1
10
15.420094
20
9.075867
0
VERTEX
8
1
10
15.309353
20
9.081223
42
-0.009297
0
VERTEX
8
1
10
15.311146
20
9.233036
0
VERTEX
8
1
10
15.845181
20
9.233036
42
0.000269
0
VERTEX
8
1
10
15.843403
20
9.081223
0
VERTEX
8
1
10
15.730877
20
9.075867
42
0.559061
0
VERTEX
8
1
10
15.727367
20
9.071651
0
VERTEX
8
1
10
15.721943
20
8.231045
0
VERTEX
8
1
10
15.841610
20
8.223904
42
-0.008742
0
VERTEX
8
1
10
15.839825
20
8.070297
42
0.006456
0
VERTEX
8
1
10
15.307575
20
8.070297
0
SEQEND
0
POLYLINE
8
1
66
1
70
1
0
VERTEX
8
1
10
14.471592
20
8.249146
0
VERTEX
8
1
10
14.477039
20
9.083008
42
-0.275351
0
VERTEX
8
1
10
14.725231
20
9.002750
42
-0.185980
0
VERTEX
8
1
10
14.843334
20
8.717625
42
-0.153831
0
VERTEX
8
1
10
14.778904
20
8.352741
42
-0.291867
0
VERTEX
8
1
10
14.496037
20
8.216087
42
-0.347481
0
SEQEND
0
POLYLINE
8
1
66
1
70
1
0
VERTEX
8
1
10
12.972794
20
3.692184
0
VERTEX
8
1
10
12.972710
20
5.655285
0
VERTEX
8
1
10
14.956692
20
5.655285
0
VERTEX
8
1
10
14.974827
20
5.655590
0
VERTEX
8
1
10
14.974819
20
5.855576
42
0.259400
0
VERTEX
8
1
10
15.389744
20
6.167492
42
0.149692
0
VERTEX
8
1
10
15.445446
20
6.567909
42
0.315833
0
VERTEX
8
1
10
15.021107
20
6.984894
42
0.059314
0
VERTEX
8
1
10
14.692844
20
7.005333
42
0.006004
0
VERTEX
8
1
10
14.349312
20
6.999985
42
0.010106
0
VERTEX
8
1
10
14.347713
20
6.848370
0
VERTEX
8
1
10
14.450817
20
6.844810
0
VERTEX
8
1
10
14.451115
20
6.839458
0
VERTEX
8
1
10
14.449314
20
6.004601
42
-0.359080
0
VERTEX
8
1
10
14.444294
20
5.998409
0
VERTEX
8
1
10
14.351589
20
5.991093
42
0.017495
0
VERTEX
8
1
10
14.349442
20
5.898312
0
VERTEX
8
1
10
14.347012
20
5.896389
0
VERTEX
8
1
10
14.106705
20
5.896412
0
VERTEX
8
1
10
14.113705
20
6.841503
42
-0.341246
0
VERTEX
8
1
10
14.118744
20
6.848160
0
VERTEX
8
1
10
14.199303
20
6.853729
42
0.023893
0
VERTEX
8
1
10
14.198704
20
7.005554
42
0.000419
0
VERTEX
8
1
10
13.783466
20
7.003769
0
VERTEX
8
1
10
13.779266
20
6.995270
42
0.008890
0
VERTEX
8
1
10
13.776024
20
6.851948
0
VERTEX
8
1
10
13.905392
20
6.848400
0
VERTEX
8
1
10
13.906544
20
6.831673
42
0.002271
0
VERTEX
8
1
10
13.911686
20
6.228600
0
VERTEX
8
1
10
13.901043
20
6.228603
42
0.007347
0
VERTEX
8
1
10
13.416645
20
6.965611
0
VERTEX
8
1
10
13.385155
20
7.003769
0
VERTEX
8
1
10
13.059418
20
7.003769
0
VERTEX
8
1
10
13.047092
20
6.998127
42
0.015819
0
VERTEX
8
1
10
13.046635
20
6.851910
0
VERTEX
8
1
10
13.149101
20
6.848301
0
VERTEX
8
1
10
13.150826
20
6.005531
42
-0.347875
0
VERTEX
8
1
10
13.147327
20
6.000179
0
VERTEX
8
1
10
13.056232
20
5.994629
42
0.006718
0
VERTEX
8
1
10
13.054474
20
5.896389
0
VERTEX
8
1
10
12.973064
20
5.896389
0
VERTEX
8
1
10
12.972706
20
5.905704
0
VERTEX
8
1
10
12.972710
20
7.868355
0
VERTEX
8
1
10
12.998478
20
7.869812
0
VERTEX
8
1
10
15.207233
20
7.869816
0
VERTEX
8
1
10
15.240810
20
7.868790
42
0.135320
0
VERTEX
8
1
10
15.317410
20
7.689995
42
0.026493
0
VERTEX
8
1
10
15.501385
20
7.459877
0
VERTEX
8
1
10
15.508205
20
7.449417
42
0.073716
0
VERTEX
8
1
10
15.534451
20
7.369053
42
-0.015368
0
VERTEX
8
1
10
15.721111
20
6.878166
42
-0.119678
0
VERTEX
8
1
10
15.730480
20
6.775208
42
0.053330
0
VERTEX
8
1
10
15.764156
20
6.595440
42
0.025507
0
VERTEX
8
1
10
15.528500
20
5.830242
0
VERTEX
8
1
10
15.514751
20
5.761066
42
-0.054730
0
VERTEX
8
1
10
15.472431
20
5.561321
42
-0.180924
0
VERTEX
8
1
10
15.436375
20
5.511272
42
-0.154810
0
VERTEX
8
1
10
15.427944
20
5.510456
0
VERTEX
8
1
10
15.345463
20
5.142620
42
0.154457
0
VERTEX
8
1
10
15.308346
20
4.936134
42
0.142009
0
VERTEX
8
1
10
15.333652
20
4.832474
0
VERTEX
8
1
10
15.341770
20
4.826859
0
VERTEX
8
1
10
15.351406
20
4.824806
42
-0.033844
0
VERTEX
8
1
10
15.635387
20
4.804955
42
0.264764
0
VERTEX
8
1
10
15.236660
20
4.420853
42
0.182262
0
VERTEX
8
1
10
15.271091
20
3.911919
42
0.161224
0
VERTEX
8
1
10
15.487988
20
3.693893
0
VERTEX
8
1
10
15.484501
20
3.692184
0
VERTEX
8
1
10
14.695667
20
3.692184
42
0.006808
0
VERTEX
8
1
10
15.067501
20
4.653976
0
VERTEX
8
1
10
15.159824
20
4.659309
42
0.020018
0
VERTEX
8
1
10
15.159901
20
4.811127
0
VERTEX
8
1
10
14.723904
20
4.811127
0
VERTEX
8
1
10
14.718685
20
4.803192
42
0.010239
0
VERTEX
8
1
10
14.718700
20
4.657524
0
VERTEX
8
1
10
14.821354
20
4.653976
42
-0.493486
0
VERTEX
8
1
10
14.827641
20
4.645378
42
-0.021907
0
VERTEX
8
1
10
14.720142
20
4.259789
42
-0.006263
0
VERTEX
8
1
10
14.624027
20
3.944878
0
VERTEX
8
1
10
14.611599
20
3.944878
42
-0.013748
0
VERTEX
8
1
10
14.432926
20
4.653946
0
VERTEX
8
1
10
14.553341
20
4.659264
0
VERTEX
8
1
10
14.554501
20
4.662827
42
0.008274
0
VERTEX
8
1
10
14.556164
20
4.806664
0
VERTEX
8
1
10
14.542645
20
4.811127
0
VERTEX
8
1
10
13.999706
20
4.811127
0
VERTEX
8
1
10
13.986397
20
4.809158
42
-0.003236
0
VERTEX
8
1
10
13.984955
20
4.659294
0
VERTEX
8
1
10
14.074238
20
4.655540
42
-0.369750
0
VERTEX
8
1
10
14.081421
20
4.647415
42
0.015569
0
VERTEX
8
1
10
14.394207
20
3.708008
0
VERTEX
8
1
10
14.396412
20
3.692184
0
VERTEX
8
1
10
13.862194
20
3.692184
42
0.015639
0
VERTEX
8
1
10
13.916237
20
3.963219
42
0.017353
0
VERTEX
8
1
10
13.743309
20
3.994301
0
VERTEX
8
1
10
13.693096
20
3.855782
42
-0.345971
0
VERTEX
8
1
10
13.645123
20
3.815689
42
-0.061461
0
VERTEX
8
1
10
13.445427
20
3.811905
42
-0.421804
0
VERTEX
8
1
10
13.422062
20
3.843742
0
VERTEX
8
1
10
13.423813
20
4.162743
42
-0.027585
0
VERTEX
8
1
10
13.586338
20
4.157120
42
-0.274356
0
VERTEX
8
1
10
13.602459
20
4.121376
0
VERTEX
8
1
10
13.611343
20
4.050316
42
0.021379
0
VERTEX
8
1
10
13.779243
20
4.056396
42
0.001286
0
VERTEX
8
1
10
13.782810
20
4.411758
0
VERTEX
8
1
10
13.774853
20
4.416664
42
0.014961
0
VERTEX
8
1
10
13.614765
20
4.418922
0
VERTEX
8
1
10
13.604778
20
4.355713
42
-0.418209
0
VERTEX
8
1
10
13.574947
20
4.317947
42
-0.008733
0
VERTEX
8
1
10
13.426430
20
4.314590
0
VERTEX
8
1
10
13.423836
20
4.318451
0
VERTEX
8
1
10
13.425709
20
4.653946
42
-0.056801
0
VERTEX
8
1
10
13.648510
20
4.638412
42
-0.257684
0
VERTEX
8
1
10
13.666679
20
4.613052
0
VERTEX
8
1
10
13.695007
20
4.476761
0
VERTEX
8
1
10
13.698746
20
4.475647
42
0.011182
0
VERTEX
8
1
10
13.864525
20
4.494194
0
VERTEX
8
1
10
13.869869
20
4.508133
42
0.007805
0
VERTEX
8
1
10
13.852783
20
4.808342
0
VERTEX
8
1
10
13.844616
20
4.812897
0
VERTEX
8
1
10
13.708340
20
4.811234
0
VERTEX
8
1
10
13.028759
20
4.811127
0
VERTEX
8
1
10
13.023445
20
4.803337
42
0.020744
0
VERTEX
8
1
10
13.021873
20
4.657463
0
VERTEX
8
1
10
13.122734
20
4.653984
0
VERTEX
8
1
10
13.123749
20
4.652924
0
VERTEX
8
1
10
13.123734
20
3.812241
42
-0.346341
0
VERTEX
8
1
10
13.116249
20
3.805649
0
VERTEX
8
1
10
13.024975
20
3.800278
0
VERTEX
8
1
10
13.023697
20
3.799217
42
0.006860
0
VERTEX
8
1
10
13.021847
20
3.692192
0
SEQEND
0
POLYLINE
8
1
66
1
70
1
0
VERTEX
8
1
10
13.480251
20
5.996437
0
VERTEX
8
1
10
13.349140
20
5.999985
42
0.002609
0
VERTEX
8
1
10
13.352741
20
6.532242
0
VERTEX
8
1
10
13.365192
20
6.534019
42
0.021269
0
VERTEX
8
1
10
13.831512
20
5.896389
0
VERTEX
8
1
10
13.483593
20
5.896389
0
VERTEX
8
1
10
13.480816
20
5.899025
42
0.013954
0
SEQEND
0
POLYLINE
8
1
66
1
70
1
0
VERTEX
8
1
10
14.763081
20
5.995079
42
-0.197309
0
VERTEX
8
1
10
14.752949
20
6.016113
0
VERTEX
8
1
10
14.758289
20
6.846146
0
VERTEX
8
1
10
14.759190
20
6.854088
42
-0.280449
0
VERTEX
8
1
10
15.012493
20
6.767204
42
-0.170901
0
VERTEX
8
1
10
15.121922
20
6.515053
0
VERTEX
8
1
10
15.125492
20
6.477306
42
-0.156175
0
VERTEX
8
1
10
15.056011
20
6.116631
42
-0.286505
0
VERTEX
8
1
10
14.775921
20
5.987316
42
-0.089874
0
SEQEND
0
POLYLINE
8
1
66
1
70
1
0
VERTEX
8
1
10
2.411377
20
6.451412
42
-0.051078
0
VERTEX
8
1
10
2.406837
20
6.352882
42
-0.319203
0
VERTEX
8
1
10
2.357136
20
6.321526
42
-0.031916
0
VERTEX
8
1
10
2.289547
20
6.317505
0
VERTEX
8
1
10
1.235516
20
6.317410
42
-0.111812
0
VERTEX
8
1
10
1.131599
20
6.330856
42
-0.254033
0
VERTEX
8
1
10
1.112446
20
6.378048
0
VERTEX
8
1
10
1.112373
20
6.464489
42
-0.274604
0
VERTEX
8
1
10
1.255333
20
6.718830
42
-0.108594
0
VERTEX
8
1
10
1.564560
20
6.814278
42
-0.076649
0
VERTEX
8
1
10
2.072674
20
6.795937
42
-0.125424
0
VERTEX
8
1
10
2.311623
20
6.682114
42
-0.214829
0
SEQEND
0
POLYLINE
8
1
66
1
70
1
0
VERTEX
8
1
10
2.472710
20
3.092590
0
VERTEX
8
1
10
2.472710
20
2.783394
0
VERTEX
8
1
10
2.424103
20
2.783394
42
-0.130316
0
VERTEX
8
1
10
2.405025
20
2.682434
42
-0.202124
0
VERTEX
8
1
10
2.348972
20
2.652252
42
-0.042165
0
VERTEX
8
1
10
2.247368
20
2.646225
0
VERTEX
8
1
10
1.920681
20
2.646233
0
VERTEX
8
1
10
1.918613
20
2.646683
0
VERTEX
8
1
10
1.780323
20
2.748894
0
VERTEX
8
1
10
1.785458
20
2.751816
0
VERTEX
8
1
10
2.472363
20
3.096207
0
SEQEND
0
POLYLINE
8
1
66
1
70
1
0
VERTEX
8
1
10
2.472710
20
5.310661
0
VERTEX
8
1
10
2.472710
20
4.824722
0
VERTEX
8
1
10
2.423569
20
4.824722
42
-0.121990
0
VERTEX
8
1
10
2.404556
20
4.710121
42
-0.230974
0
VERTEX
8
1
10
2.332798
20
4.675041
42
-0.030663
0
VERTEX
8
1
10
2.267693
20
4.671509
0
VERTEX
8
1
10
1.301987
20
4.671417
0
VERTEX
8
1
10
1.301987
20
4.675377
0
VERTEX
8
1
10
2.467018
20
5.308167
0
SEQEND
0
POLYLINE
8
1
66
1
70
1
0
VERTEX
8
1
10
12.712154
20
5.882450
0
VERTEX
8
1
10
12.843678
20
5.872143
42
-0.008549
0
VERTEX
8
1
10
12.841244
20
5.659424
0
VERTEX
8
1
10
12.824612
20
5.655281
0
VERTEX
8
1
10
12.136478
20
5.655285
0
VERTEX
8
1
10
12.115681
20
5.660603
42
-0.008844
0
VERTEX
8
1
10
12.118267
20
5.874722
0
VERTEX
8
1
10
12.244682
20
5.882462
42
0.517297
0
VERTEX
8
1
10
12.252731
20
5.894627
42
0.040805
0
VERTEX
8
1
10
12.195091
20
6.065495
42
0.139871
0
VERTEX
8
1
10
12.184910
20
6.068295
0
VERTEX
8
1
10
12.021912
20
6.066601
0
VERTEX
8
1
10
12.021881
20
6.282139
0
VERTEX
8
1
10
12.022888
20
6.282608
0
VERTEX
8
1
10
12.138180
20
6.282612
42
-0.001800
0
VERTEX
8
1
10
11.960773
20
6.868633
0
VERTEX
8
1
10
11.947872
20
6.868629
42
0.001330
0
VERTEX
8
1
10
11.771301
20
6.294018
42
0.576220
0
VERTEX
8
1
10
11.776573
20
6.282639
0
VERTEX
8
1
10
11.895645
20
6.282612
0
VERTEX
8
1
10
11.896885
20
6.282299
0
VERTEX
8
1
10
11.896873
20
6.065250
0
VERTEX
8
1
10
11.705357
20
6.063175
42
0.012193
0
VERTEX
8
1
10
11.662205
20
5.879837
0
VERTEX
8
1
10
11.802082
20
5.872208
0
VERTEX
8
1
10
11.803299
20
5.866440
42
-0.007799
0
VERTEX
8
1
10
11.801250
20
5.671280
0
VERTEX
8
1
10
11.798195
20
5.655285
0
VERTEX
8
1
10
11.190727
20
5.655285
0
VERTEX
8
1
10
11.183743
20
5.666527
42
-0.009898
0
VERTEX
8
1
10
11.189262
20
5.872166
0
VERTEX
8
1
10
11.309181
20
5.880024
42
0.251513
0
VERTEX
8
1
10
11.323086
20
5.892662
42
0.001571
0
VERTEX
8
1
10
11.851128
20
7.312267
0
VERTEX
8
1
10
11.871357
20
7.344475
42
-0.017837
0
VERTEX
8
1
10
12.192070
20
7.348801
0
VERTEX
8
1
10
12.233692
20
7.298477
42
-0.000713
0
SEQEND
0
POLYLINE
8
1
66
1
70
1
0
VERTEX
8
1
10
11.937859
20
2.358017
42
-0.029644
0
VERTEX
8
1
10
11.915577
20
2.662750
42
-0.063800
0
VERTEX
8
1
10
11.959488
20
2.957420
42
-0.359532
0
VERTEX
8
1
10
12.306049
20
3.152565
0
VERTEX
8
1
10
12.323181
20
3.147026
42
-0.189780
0
VERTEX
8
1
10
12.459530
20
2.991707
42
-0.195972
0
VERTEX
8
1
10
12.424866
20
2.754066
42
-0.099626
0
VERTEX
8
1
10
12.641548
20
2.778084
42
-0.523659
0
VERTEX
8
1
10
12.744793
20
2.351479
0
VERTEX
8
1
10
12.717377
20
2.324539
42
-0.209983
0
VERTEX
8
1
10
12.375008
20
2.236961
42
-0.019362
0
VERTEX
8
1
10
11.946812
20
2.300224
0
VERTEX
8
1
10
11.941330
20
2.306396
42
0.018029
0
SEQEND
0
POLYLINE
8
1
66
1
70
1
0
VERTEX
8
1
10
11.798786
20
3.451500
42
0.003110
0
VERTEX
8
1
10
11.217457
20
3.453667
42
-0.025907
0
VERTEX
8
1
10
11.220623
20
3.668091
0
VERTEX
8
1
10
11.351768
20
3.678337
42
0.393128
0
VERTEX
8
1
10
11.360477
20
3.687027
0
VERTEX
8
1
10
11.363140
20
4.900032
0
VERTEX
8
1
10
11.361595
20
4.901985
0
VERTEX
8
1
10
11.213749
20
4.907082
42
-0.011087
0
VERTEX
8
1
10
11.215752
20
5.119537
0
VERTEX
8
1
10
11.245316
20
5.127296
42
-0.009464
0
VERTEX
8
1
10
11.894810
20
5.133770
0
VERTEX
8
1
10
11.896881
20
5.132675
0
VERTEX
8
1
10
11.896881
20
4.926201
0
VERTEX
8
1
10
11.896420
20
4.924927
42
0.095045
0
VERTEX
8
1
10
11.810223
20
4.916077
0
VERTEX
8
1
10
11.807156
20
4.912140
0
VERTEX
8
1
10
11.799511
20
3.724251
42
0.518891
0
VERTEX
8
1
10
11.862038
20
3.657608
42
0.011167
0
VERTEX
8
1
10
11.896885
20
3.658546
0
VERTEX
8
1
10
11.896881
20
3.454643
0
VERTEX
8
1
10
11.896622
20
3.451424
42
-0.009608
0
SEQEND
0
POLYLINE
8
1
66
1
70
1
0
VERTEX
8
1
10
11.571396
20
2.699829
42
-0.281172
0
VERTEX
8
1
10
11.645092
20
2.604065
42
-0.225368
0
VERTEX
8
1
10
11.584339
20
2.450912
42
-0.020982
0
VERTEX
8
1
10
11.431503
20
2.312241
42
0.006531
0
VERTEX
8
1
10
11.317017
20
2.391083
42
-0.067859
0
VERTEX
8
1
10
11.210381
20
2.502365
42
-0.402474
0
VERTEX
8
1
10
11.249058
20
2.689705
42
-0.433130
0
VERTEX
8
1
10
11.412312
20
2.610863
42
-0.094919
0
VERTEX
8
1
10
11.466084
20
2.693504
42
-0.237029
0
SEQEND
0
POLYLINE
8
1
66
1
70
1
0
VERTEX
8
1
10
12.021881
20
3.681999
42
0.228358
0
VERTEX
8
1
10
12.277157
20
3.925690
42
0.121676
0
VERTEX
8
1
10
12.337635
20
4.373810
0
VERTEX
8
1
10
12.333405
20
4.419235
0
VERTEX
8
1
10
12.327591
20
4.462204
42
0.219969
0
VERTEX
8
1
10
12.077492
20
4.870811
42
0.021302
0
VERTEX
8
1
10
12.021881
20
4.899544
0
VERTEX
8
1
10
12.021881
20
5.126190
42
-0.106607
0
VERTEX
8
1
10
12.433640
20
5.018295
42
-0.282484
0
VERTEX
8
1
10
12.812634
20
4.305710
42
-0.178503
0
VERTEX
8
1
10
12.572582
20
3.705711
42
-0.171473
0
VERTEX
8
1
10
12.118183
20
3.472702
42
-0.019682
0
VERTEX
8
1
10
12.021881
20
3.459259
0
SEQEND
0
POLYLINE
8
1
66
1
70
1
0
VERTEX
8
1
10
12.335724
20
9.481522
0
VERTEX
8
1
10
12.357613
20
9.473061
0
VERTEX
8
1
10
12.379223
20
9.463909
42
-0.318490
0
VERTEX
8
1
10
12.810432
20
8.689861
42
-0.178917
0
VERTEX
8
1
10
12.554367
20
8.105618
42
-0.164443
0
VERTEX
8
1
10
12.103699
20
7.888931
42
-0.030510
0
VERTEX
8
1
10
12.021881
20
7.879230
0
VERTEX
8
1
10
12.021881
20
8.099762
0
VERTEX
8
1
10
12.025921
20
8.102139
42
0.214971
0
VERTEX
8
1
10
12.270050
20
8.328472
42
0.123820
0
VERTEX
8
1
10
12.339169
20
8.768848
0
VERTEX
8
1
10
12.335716
20
8.815571
0
VERTEX
8
1
10
12.330696
20
8.859741
0
VERTEX
8
1
10
12.324074
20
8.901539
42
0.211837
0
VERTEX
8
1
10
12.077938
20
9.289280
42
0.039372
0
VERTEX
8
1
10
12.021881
20
9.316994
0
VERTEX
8
1
10
12.021881
20
9.545921
42
-0.066699
0
SEQEND
0
POLYLINE
8
1
66
1
70
1
0
VERTEX
8
1
10
11.914158
20
10.518612
0
VERTEX
8
1
10
11.918362
20
10.546570
0
VERTEX
8
1
10
11.923260
20
10.574413
0
VERTEX
8
1
10
11.928852
20
10.602131
42
-0.437516
0
VERTEX
8
1
10
12.305405
20
10.856674
42
-0.232503
0
VERTEX
8
1
10
12.452259
20
10.673386
42
-0.169412
0
VERTEX
8
1
10
12.411346
20
10.462795
42
-0.093336
0
VERTEX
8
1
10
12.625324
20
10.486687
42
-0.306440
0
VERTEX
8
1
10
12.799713
20
10.243942
0
VERTEX
8
1
10
12.800915
20
10.229370
42
-0.288656
0
VERTEX
8
1
10
12.618362
20
9.979362
42
-0.152285
0
VERTEX
8
1
10
12.356731
20
9.945526
42
-0.017476
0
VERTEX
8
1
10
11.938858
20
10.007057
0
VERTEX
8
1
10
11.927441
20
10.012775
42
0.024074
0
VERTEX
8
1
10
11.904427
20
10.254940
42
-0.056279
0
SEQEND
0
POLYLINE
8
1
66
1
70
1
0
VERTEX
8
1
10
11.218647
20
9.545326
42
-0.011495
0
VERTEX
8
1
10
11.896652
20
9.552460
0
VERTEX
8
1
10
11.896881
20
9.548813
0
VERTEX
8
1
10
11.896881
20
9.343693
42
0.096203
0
VERTEX
8
1
10
11.808178
20
9.333992
0
VERTEX
8
1
10
11.807083
20
9.319195
0
VERTEX
8
1
10
11.799297
20
8.124664
42
0.437693
0
VERTEX
8
1
10
11.867744
20
8.076389
42
-0.060835
0
VERTEX
8
1
10
11.896881
20
8.075851
0
VERTEX
8
1
10
11.896881
20
7.870979
0
VERTEX
8
1
10
11.895592
20
7.870129
42
-0.010573
0
VERTEX
8
1
10
11.605522
20
7.872276
0
VERTEX
8
1
10
11.232281
20
7.872395
0
VERTEX
8
1
10
11.215988
20
7.879169
42
-0.010691
0
VERTEX
8
1
10
11.218872
20
8.086689
0
VERTEX
8
1
10
11.352531
20
8.097160
42
0.383119
0
VERTEX
8
1
10
11.360527
20
8.106319
0
VERTEX
8
1
10
11.363056
20
9.320656
0
VERTEX
8
1
10
11.215733
20
9.325745
0
VERTEX
8
1
10
11.213413
20
9.327900
42
-0.007399
0
VERTEX
8
1
10
11.215431
20
9.528271
0
SEQEND
0
POLYLINE
8
1
66
1
70
1
0
VERTEX
8
1
10
11.609276
20
10.661118
42
-0.281024
0
VERTEX
8
1
10
11.682972
20
10.565361
42
-0.225394
0
VERTEX
8
1
10
11.622215
20
10.412205
42
-0.021068
0
VERTEX
8
1
10
11.469383
20
10.273537
42
0.006463
0
VERTEX
8
1
10
11.354893
20
10.352375
42
-0.067882
0
VERTEX
8
1
10
11.248264
20
10.463654
42
-0.402544
0
VERTEX
8
1
10
11.286938
20
10.650993
42
-0.433118
0
VERTEX
8
1
10
11.450195
20
10.572163
42
-0.094905
0
VERTEX
8
1
10
11.503963
20
10.654804
42
-0.237062
0
SEQEND
0
POLYLINE
8
1
66
1
70
1
0
VERTEX
8
1
10
10.870403
20
11.241909
0
VERTEX
8
1
10
10.870312
20
12.315701
0
VERTEX
8
1
10
10.874916
20
12.315701
0
VERTEX
8
1
10
11.615574
20
11.007725
0
VERTEX
8
1
10
11.618168
20
11.002041
0
VERTEX
8
1
10
11.048210
20
11.002045
0
VERTEX
8
1
10
11.048210
20
11.067314
42
-0.103699
0
VERTEX
8
1
10
10.919952
20
11.085732
42
-0.243396
0
VERTEX
8
1
10
10.876762
20
11.154358
42
-0.042558
0
SEQEND
0
POLYLINE
8
1
66
1
70
1
0
VERTEX
8
1
10
6.780750
20
11.695179
42
-0.061168
0
VERTEX
8
1
10
6.816849
20
12.228268
42
-0.122591
0
VERTEX
8
1
10
6.929649
20
12.467079
42
-0.221401
0
VERTEX
8
1
10
7.158005
20
12.562664
42
-0.281453
0
VERTEX
8
1
10
7.429695
20
12.409706
42
-0.103190
0
VERTEX
8
1
10
7.522182
20
12.098919
42
-0.059109
0
VERTEX
8
1
10
7.515545
20
11.475765
42
-0.113774
0
VERTEX
8
1
10
7.407963
20
11.173721
42
-0.256176
0
VERTEX
8
1
10
7.155663
20
11.044933
42
-0.285466
0
VERTEX
8
1
10
6.888836
20
11.203377
0
VERTEX
8
1
10
6.870956
20
11.236530
0
VERTEX
8
1
10
6.855049
20
11.271908
42
-0.084118
0
SEQEND
0
POLYLINE
8
1
66
1
70
1
0
VERTEX
8
1
10
5.569405
20
2.675301
42
-0.056492
0
VERTEX
8
1
10
5.606495
20
2.610863
0
VERTEX
8
1
10
5.607769
20
2.614235
42
-0.470642
0
VERTEX
8
1
10
5.779575
20
2.683998
42
-0.408304
0
VERTEX
8
1
10
5.798119
20
2.488358
42
-0.085065
0
VERTEX
8
1
10
5.602104
20
2.323135
0
VERTEX
8
1
10
5.590973
20
2.315208
0
VERTEX
8
1
10
5.587307
20
2.312241
42
-0.034556
0
VERTEX
8
1
10
5.407497
20
2.481636
0
VERTEX
8
1
10
5.399258
20
2.495010
42
-0.356928
0
VERTEX
8
1
10
5.413338
20
2.680290
42
-0.335782
0
VERTEX
8
1
10
5.557907
20
2.688850
0
VERTEX
8
1
10
5.563519
20
2.682693
0
SEQEND
0
POLYLINE
8
1
66
1
70
1
0
VERTEX
8
1
10
5.807526
20
9.562996
42
-0.092633
0
VERTEX
8
1
10
5.642151
20
9.366631
42
-0.440158
0
VERTEX
8
1
10
5.440811
20
9.394997
42
-0.433084
0
VERTEX
8
1
10
5.519650
20
9.558254
42
-0.094891
0
VERTEX
8
1
10
5.437004
20
9.612026
42
-0.664150
0
VERTEX
8
1
10
5.575951
20
9.788662
42
-0.152493
0
VERTEX
8
1
10
5.679600
20
9.730278
42
-0.021050
0
VERTEX
8
1
10
5.818272
20
9.577446
42
0.021946
0
SEQEND
0
POLYLINE
8
1
66
1
70
1
0
VERTEX
8
1
10
5.416069
20
10.071434
42
-0.074580
0
VERTEX
8
1
10
5.258034
20
10.094574
42
-0.330441
0
VERTEX
8
1
10
5.112862
20
10.339802
0
VERTEX
8
1
10
5.116955
20
10.353508
0
VERTEX
8
1
10
5.140369
20
10.394112
0
VERTEX
8
1
10
5.166584
20
10.425327
42
-0.298076
0
VERTEX
8
1
10
5.394112
20
10.460064
0
VERTEX
8
1
10
5.406925
20
10.454620
42
-0.096438
0
VERTEX
8
1
10
5.372345
20
10.618011
42
-0.484065
0
VERTEX
8
1
10
5.668087
20
10.742222
0
VERTEX
8
1
10
5.696545
20
10.723225
42
-0.228553
0
VERTEX
8
1
10
5.804485
20
10.457695
42
-0.020565
0
VERTEX
8
1
10
5.787594
20
10.119926
42
-0.003185
0
VERTEX
8
1
10
5.546055
20
10.076115
42
-0.032134
0
SEQEND
0
POLYLINE
8
1
66
1
70
1
0
VERTEX
8
1
10
3.078754
20
14.645893
0
VERTEX
8
1
10
2.955753
20
14.645893
42
-0.224061
0
VERTEX
8
1
10
3.184860
20
15.010075
0
VERTEX
8
1
10
3.236355
20
15.039940
0
VERTEX
8
1
10
3.290428
20
15.065029
0
VERTEX
8
1
10
3.346413
20
15.085724
0
VERTEX
8
1
10
3.403610
20
15.102409
42
-0.115852
0
VERTEX
8
1
10
4.088272
20
15.098190
0
VERTEX
8
1
10
4.123859
20
15.087639
0
VERTEX
8
1
10
4.157635
20
15.076038
0
VERTEX
8
1
10
4.189640
20
15.063427
0
VERTEX
8
1
10
4.219898
20
15.049839
42
-0.271163
0
VERTEX
8
1
10
4.515324
20
14.645889
0
VERTEX
8
1
10
4.386719
20
14.645893
42
0.163636
0
VERTEX
8
1
10
4.236294
20
14.764496
0
VERTEX
8
1
10
4.198536
20
14.778736
0
VERTEX
8
1
10
4.158493
20
14.790966
42
0.067875
0
VERTEX
8
1
10
3.669243
20
14.833561
42
0.063088
0
VERTEX
8
1
10
3.293751
20
14.789822
0
VERTEX
8
1
10
3.254768
20
14.777340
42
0.181135
0
SEQEND
0
POLYLINE
8
1
66
1
70
1
0
VERTEX
8
1
10
2.947784
20
14.520885
0
VERTEX
8
1
10
3.052883
20
14.520893
42
0.257328
0
VERTEX
8
1
10
3.165131
20
14.333954
42
0.103805
0
VERTEX
8
1
10
3.420856
20
14.251877
42
0.068005
0
VERTEX
8
1
10
4.088184
20
14.261051
42
0.119255
0
VERTEX
8
1
10
4.331280
20
14.358341
42
0.222961
0
VERTEX
8
1
10
4.415375
20
14.520893
0
VERTEX
8
1
10
4.522610
20
14.520893
0
VERTEX
8
1
10
4.521950
20
14.496387
0
VERTEX
8
1
10
4.521008
20
14.477787
0
VERTEX
8
1
10
4.519611
20
14.459217
42
-0.283230
0
VERTEX
8
1
10
4.225010
20
14.024075
42
-0.106910
0
VERTEX
8
1
10
3.782265
20
13.932156
42
-0.092950
0
VERTEX
8
1
10
3.316051
20
13.996548
42
-0.189302
0
VERTEX
8
1
10
3.008846
20
14.252964
42
-0.115721
0
SEQEND
0
POLYLINE
8
1
66
1
70
1
0
VERTEX
8
1
10
3.296391
20
6.866970
0
VERTEX
8
1
10
4.130322
20
6.866943
42
0.045826
0
VERTEX
8
1
10
4.331585
20
6.874817
42
0.341828
0
VERTEX
8
1
10
4.391117
20
6.937881
42
0.037188
0
VERTEX
8
1
10
4.396160
20
7.004089
0
VERTEX
8
1
10
4.491814
20
7.004089
0
VERTEX
8
1
10
4.492546
20
7.003857
0
VERTEX
8
1
10
4.492546
20
6.602081
0
VERTEX
8
1
10
4.491749
20
6.601921
0
VERTEX
8
1
10
4.396114
20
6.601921
0
VERTEX
8
1
10
4.395016
20
6.635113
42
0.255223
0
VERTEX
8
1
10
4.357395
20
6.727051
42
0.117947
0
VERTEX
8
1
10
4.248856
20
6.744450
42
0.003647
0
VERTEX
8
1
10
3.199505
20
6.744057
0
VERTEX
8
1
10
3.177490
20
6.742950
42
0.262177
0
VERTEX
8
1
10
3.089054
20
6.703384
42
0.110007
0
VERTEX
8
1
10
3.074432
20
6.600067
0
VERTEX
8
1
10
2.975693
20
6.600067
0
VERTEX
8
1
10
2.975666
20
7.039593
0
VERTEX
8
1
10
2.978596
20
7.042191
0
VERTEX
8
1
10
4.070965
20
7.426640
0
VERTEX
8
1
10
4.070969
20
7.432087
0
VERTEX
8
1
10
2.982521
20
7.809757
0
VERTEX
8
1
10
2.975662
20
7.812592
0
VERTEX
8
1
10
2.975666
20
8.258717
0
VERTEX
8
1
10
3.074203
20
8.258781
0
VERTEX
8
1
10
3.075241
20
8.222660
0
VERTEX
8
1
10
3.076729
20
8.202198
42
0.318190
0
VERTEX
8
1
10
3.125469
20
8.123600
42
0.076852
0
VERTEX
8
1
10
3.250137
20
8.112370
0
VERTEX
8
1
10
4.242493
20
8.112461
42
0.111550
0
VERTEX
8
1
10
4.355408
20
8.128841
42
0.264512
0
VERTEX
8
1
10
4.393147
20
8.200539
42
0.027812
0
VERTEX
8
1
10
4.395851
20
8.260635
0
VERTEX
8
1
10
4.492538
20
8.260632
0
VERTEX
8
1
10
4.492546
20
7.676556
0
VERTEX
8
1
10
4.492203
20
7.674988
0
VERTEX
8
1
10
4.396595
20
7.674988
0
VERTEX
8
1
10
4.395714
20
7.678703
42
0.134330
0
VERTEX
8
1
10
4.377758
20
7.784809
42
0.238910
0
VERTEX
8
1
10
4.301041
20
7.818844
42
0.024770
0
VERTEX
8
1
10
4.229450
20
7.821388
0
VERTEX
8
1
10
3.302444
20
7.821384
0
VERTEX
8
1
10
3.302441
20
7.815907
0
VERTEX
8
1
10
4.501888
20
7.394253
0
VERTEX
8
1
10
4.504650
20
7.392902
0
VERTEX
8
1
10
4.504650
20
7.299549
0
VERTEX
8
1
10
4.504177
20
7.298599
0
VERTEX
8
1
10
3.296391
20
6.872459
0
SEQEND
0
POLYLINE
8
1
66
1
70
1
0
VERTEX
8
1
10
3.669559
20
9.025890
0
VERTEX
8
1
10
3.224628
20
9.218590
42
0.094246
0
VERTEX
8
1
10
3.114849
20
9.253960
42
0.427141
0
VERTEX
8
1
10
3.077797
20
9.219635
42
0.045725
0
VERTEX
8
1
10
3.074509
20
9.174259
0
VERTEX
8
1
10
2.975666
20
9.174259
0
VERTEX
8
1
10
2.975666
20
9.509708
0
VERTEX
8
1
10
3.074509
20
9.509708
42
0.337850
0
VERTEX
8
1
10
3.134075
20
9.403904
42
0.031608
0
VERTEX
8
1
10
3.199570
20
9.372570
0
VERTEX
8
1
10
3.828911
20
9.079742
0
VERTEX
8
1
10
4.160793
20
9.079742
42
0.045136
0
VERTEX
8
1
10
4.333572
20
9.089146
42
0.319927
0
VERTEX
8
1
10
4.389610
20
9.155582
42
0.053565
0
VERTEX
8
1
10
4.395725
20
9.244690
0
VERTEX
8
1
10
4.492546
20
9.244690
0
VERTEX
8
1
10
4.492546
20
8.621979
0
VERTEX
8
1
10
4.395725
20
8.621979
42
0.117760
0
VERTEX
8
1
10
4.375824
20
8.750145
42
0.227790
0
VERTEX
8
1
10
4.312332
20
8.784348
42
0.041192
0
VERTEX
8
1
10
4.222260
20
8.788776
0
VERTEX
8
1
10
3.832947
20
8.788776
42
0.004637
0
VERTEX
8
1
10
3.142590
20
8.446495
0
VERTEX
8
1
10
3.125313
20
8.435139
42
0.292834
0
VERTEX
8
1
10
3.074509
20
8.332867
0
VERTEX
8
1
10
2.975666
20
8.332863
0
VERTEX
8
1
10
2.975666
20
8.872177
0
VERTEX
8
1
10
3.074509
20
8.872177
42
0.169526
0
VERTEX
8
1
10
3.092140
20
8.784180
42
0.273620
0
VERTEX
8
1
10
3.151340
20
8.779488
42
0.041926
0
VERTEX
8
1
10
3.217724
20
8.807312
0
VERTEX
8
1
10
3.669559
20
9.020439
0
SEQEND
0
POLYLINE
8
1
66
1
70
1
0
VERTEX
8
1
10
3.645958
20
10.971916
42
0.009126
0
VERTEX
8
1
10
3.160297
20
10.969315
0
VERTEX
8
1
10
3.140835
20
10.966736
42
0.395828
0
VERTEX
8
1
10
3.077179
20
10.903160
0
VERTEX
8
1
10
3.075359
20
10.885063
0
VERTEX
8
1
10
3.074055
20
10.853298
0
VERTEX
8
1
10
2.975666
20
10.853348
0
VERTEX
8
1
10
2.975666
20
11.411594
0
VERTEX
8
1
10
2.976250
20
11.412998
0
VERTEX
8
1
10
3.073357
20
11.412994
0
VERTEX
8
1
10
3.074520
20
11.408672
42
0.106496
0
VERTEX
8
1
10
3.090176
20
11.303997
42
0.264684
0
VERTEX
8
1
10
3.157982
20
11.266918
42
0.035723
0
VERTEX
8
1
10
3.237362
20
11.262905
0
VERTEX
8
1
10
4.229286
20
11.262894
42
0.076692
0
VERTEX
8
1
10
4.345264
20
11.275177
42
0.285932
0
VERTEX
8
1
10
4.390076
20
11.333828
42
0.033394
0
VERTEX
8
1
10
4.396595
20
11.412994
0
VERTEX
8
1
10
4.491756
20
11.412994
0
VERTEX
8
1
10
4.492546
20
11.412251
0
VERTEX
8
1
10
4.492546
20
10.853596
0
VERTEX
8
1
10
4.491508
20
10.853306
0
VERTEX
8
1
10
4.396366
20
10.853302
42
0.135405
0
VERTEX
8
1
10
4.379539
20
10.941208
42
0.230650
0
VERTEX
8
1
10
4.312176
20
10.969093
42
0.027124
0
VERTEX
8
1
10
4.233765
20
10.971912
0
VERTEX
8
1
10
3.766811
20
10.971916
0
VERTEX
8
1
10
3.764362
20
10.970531
0
VERTEX
8
1
10
3.764362
20
10.506744
0
VERTEX
8
1
10
4.245979
20
10.506783
42
0.121041
0
VERTEX
8
1
10
4.365017
20
10.523888
0
VERTEX
8
1
10
4.374729
20
10.531494
42
0.191677
0
VERTEX
8
1
10
4.395729
20
10.623497
0
VERTEX
8
1
10
4.492256
20
10.623493
0
VERTEX
8
1
10
4.492550
20
10.620552
0
VERTEX
8
1
10
4.492527
20
10.063793
0
VERTEX
8
1
10
4.395927
20
10.063793
42
0.139843
0
VERTEX
8
1
10
4.375549
20
10.178974
42
0.235602
0
VERTEX
8
1
10
4.300552
20
10.211174
0
VERTEX
8
1
10
4.276226
20
10.212917
42
0.003933
0
VERTEX
8
1
10
3.171360
20
10.211418
0
VERTEX
8
1
10
3.150017
20
10.208611
42
0.396723
0
VERTEX
8
1
10
3.078197
20
10.133247
42
0.037278
0
VERTEX
8
1
10
3.074409
20
10.063793
0
VERTEX
8
1
10
2.975742
20
10.063793
0
VERTEX
8
1
10
2.975666
20
10.619362
0
VERTEX
8
1
10
2.975834
20
10.623493
0
VERTEX
8
1
10
3.074474
20
10.623493
42
0.180598
0
VERTEX
8
1
10
3.094418
20
10.532429
0
VERTEX
8
1
10
3.103783
20
10.524628
42
0.127988
0
VERTEX
8
1
10
3.219234
20
10.506809
0
VERTEX
8
1
10
3.647339
20
10.506733
0
VERTEX
8
1
10
3.647373
20
10.969757
0
SEQEND
0
POLYLINE
8
1
66
1
70
1
0
VERTEX
8
1
10
3.157860
20
13.074631
0
VERTEX
8
1
10
3.175632
20
13.073921
42
0.008674
0
VERTEX
8
1
10
3.697796
20
13.073807
0
VERTEX
8
1
10
3.697781
20
13.159676
0
VERTEX
8
1
10
3.814697
20
13.159729
0
VERTEX
8
1
10
3.814793
20
13.074394
0
VERTEX
8
1
10
3.815239
20
13.073486
0
VERTEX
8
1
10
4.246635
20
13.073589
42
0.096770
0
VERTEX
8
1
10
4.360001
20
13.088867
42
0.245630
0
VERTEX
8
1
10
4.391483
20
13.137806
42
0.049037
0
VERTEX
8
1
10
4.395760
20
13.205074
0
VERTEX
8
1
10
4.492237
20
13.205074
0
VERTEX
8
1
10
4.492546
20
13.201427
0
VERTEX
8
1
10
4.492542
20
12.630550
0
VERTEX
8
1
10
4.396206
20
12.630550
42
0.149674
0
VERTEX
8
1
10
4.373299
20
12.748459
42
0.195153
0
VERTEX
8
1
10
4.309921
20
12.776714
42
0.035755
0
VERTEX
8
1
10
4.222721
20
12.780666
0
VERTEX
8
1
10
3.234619
20
12.780628
42
0.097046
0
VERTEX
8
1
10
3.116192
20
12.764767
42
0.239118
0
VERTEX
8
1
10
3.080490
20
12.712540
42
0.029683
0
VERTEX
8
1
10
3.073273
20
12.630554
0
VERTEX
8
1
10
2.976616
20
12.630550
0
VERTEX
8
1
10
2.975666
20
12.631340
0
VERTEX
8
1
10
2.975666
20
13.091137
42
-0.064654
0
VERTEX
8
1
10
3.001961
20
13.436569
0
VERTEX
8
1
10
3.011097
20
13.466560
0
VERTEX
8
1
10
3.021797
20
13.495026
42
-0.319603
0
VERTEX
8
1
10
3.368244
20
13.729408
0
VERTEX
8
1
10
3.405930
20
13.728928
42
-0.312124
0
VERTEX
8
1
10
3.758457
20
13.478004
0
VERTEX
8
1
10
3.772472
20
13.433052
0
VERTEX
8
1
10
4.250431
20
13.676609
42
0.100198
0
VERTEX
8
1
10
4.374722
20
13.764668
42
0.152859
0
VERTEX
8
1
10
4.397354
20
13.844463
0
VERTEX
8
1
10
4.491932
20
13.844463
0
VERTEX
8
1
10
4.492546
20
13.843307
0
VERTEX
8
1
10
4.492546
20
13.481350
0
VERTEX
8
1
10
4.486847
20
13.478565
0
VERTEX
8
1
10
4.073563
20
13.286446
0
VERTEX
8
1
10
4.069160
20
13.284729
0
VERTEX
8
1
10
3.676872
20
13.284729
42
0.242361
0
VERTEX
8
1
10
3.528667
20
13.410229
42
0.170530
0
VERTEX
8
1
10
3.208191
20
13.391579
42
0.311490
0
VERTEX
8
1
10
3.092659
20
13.188377
42
0.045581
0
VERTEX
8
1
10
3.095917
20
13.099297
42
0.299305
0
VERTEX
8
1
10
3.142685
20
13.075817
0
SEQEND
0
POLYLINE
8
1
66
1
70
1
0
VERTEX
8
1
10
2.975666
20
12.432289
0
VERTEX
8
1
10
3.328663
20
12.491596
0
VERTEX
8
1
10
3.328663
20
12.374836
42
0.079733
0
VERTEX
8
1
10
3.135986
20
12.315697
42
0.279854
0
VERTEX
8
1
10
3.093029
20
12.225029
42
0.019236
0
VERTEX
8
1
10
3.093967
20
12.008240
42
0.439034
0
VERTEX
8
1
10
3.141506
20
11.968586
42
0.021185
0
VERTEX
8
1
10
3.185448
20
11.967106
0
VERTEX
8
1
10
3.649387
20
11.967106
0
VERTEX
8
1
10
3.649387
20
12.101742
42
0.106688
0
VERTEX
8
1
10
3.637844
20
12.181458
42
0.239301
0
VERTEX
8
1
10
3.568626
20
12.216309
42
0.037269
0
VERTEX
8
1
10
3.443645
20
12.222866
0
VERTEX
8
1
10
3.443642
20
12.334064
0
VERTEX
8
1
10
3.978180
20
12.334064
0
VERTEX
8
1
10
3.978180
20
12.222866
42
0.079682
0
VERTEX
8
1
10
3.805927
20
12.207470
42
0.347977
0
VERTEX
8
1
10
3.766743
20
12.142326
0
VERTEX
8
1
10
3.766380
20
12.124638
0
VERTEX
8
1
10
3.766380
20
11.967106
0
VERTEX
8
1
10
4.214706
20
11.967106
42
0.067813
0
VERTEX
8
1
10
4.350876
20
11.974110
42
0.384597
0
VERTEX
8
1
10
4.375553
20
12.019001
0
VERTEX
8
1
10
4.375553
20
12.216145
42
0.082147
0
VERTEX
8
1
10
4.363899
20
12.323975
42
0.183187
0
VERTEX
8
1
10
4.307560
20
12.372719
42
0.054667
0
VERTEX
8
1
10
4.125431
20
12.423023
0
VERTEX
8
1
10
4.125431
20
12.539780
0
VERTEX
8
1
10
4.492546
20
12.478622
0
VERTEX
8
1
10
4.492546
20
11.524170
0
VERTEX
8
1
10
4.395725
20
11.524185
42
0.110874
0
VERTEX
8
1
10
4.379242
20
11.632019
42
0.261281
0
VERTEX
8
1
10
4.306839
20
11.670391
42
0.035394
0
VERTEX
8
1
10
4.222252
20
11.674282
0
VERTEX
8
1
10
3.310028
20
11.674282
42
0.038481
0
VERTEX
8
1
10
3.141872
20
11.666626
42
0.348866
0
VERTEX
8
1
10
3.079365
20
11.599113
42
0.049332
0
VERTEX
8
1
10
3.074509
20
11.524174
0
VERTEX
8
1
10
2.975666
20
11.524170
0
SEQEND
0
POLYLINE
8
1
66
1
70
1
0
VERTEX
8
1
10
2.880665
20
4.825356
42
-0.017693
0
VERTEX
8
1
10
2.902794
20
4.856522
0
VERTEX
8
1
10
2.936207
20
4.869102
0
VERTEX
8
1
10
2.970192
20
4.874702
0
VERTEX
8
1
10
3.004120
20
4.874413
42
-0.157939
0
VERTEX
8
1
10
3.249016
20
4.747887
42
0.000276
0
VERTEX
8
1
10
3.449657
20
4.563667
42
0.110804
0
VERTEX
8
1
10
3.628582
20
4.463593
42
0.148064
0
VERTEX
8
1
10
3.690586
20
4.470207
0
VERTEX
8
1
10
3.700344
20
4.480309
42
0.126280
0
VERTEX
8
1
10
3.783699
20
4.778137
42
0.037921
0
VERTEX
8
1
10
3.675117
20
5.336975
42
-0.083748
0
VERTEX
8
1
10
3.631912
20
5.555214
42
-0.039554
0
VERTEX
8
1
10
3.519825
20
5.930168
42
-0.176283
0
VERTEX
8
1
10
3.551167
20
6.122746
42
-0.403775
0
VERTEX
8
1
10
3.654945
20
6.147278
42
-0.086561
0
VERTEX
8
1
10
3.729282
20
6.095490
0
VERTEX
8
1
10
3.731911
20
6.086769
42
0.039322
0
VERTEX
8
1
10
3.894085
20
5.639683
42
-0.021053
0
VERTEX
8
1
10
3.989445
20
5.303535
0
VERTEX
8
1
10
4.004192
20
5.261475
0
VERTEX
8
1
10
4.021530
20
5.226574
42
0.261800
0
VERTEX
8
1
10
4.161312
20
5.130829
42
0.370460
0
VERTEX
8
1
10
4.200104
20
5.150478
0
VERTEX
8
1
10
4.203705
20
5.173096
42
0.024849
0
VERTEX
8
1
10
4.209373
20
5.640331
42
-0.023885
0
VERTEX
8
1
10
4.233437
20
5.804985
42
-0.030164
0
VERTEX
8
1
10
4.252941
20
6.218670
42
-0.204194
0
VERTEX
8
1
10
4.334232
20
6.356255
0
VERTEX
8
1
10
4.353294
20
6.365803
42
-0.498248
0
VERTEX
8
1
10
4.490292
20
6.296341
42
-0.017019
0
VERTEX
8
1
10
4.509403
20
6.167191
42
0.016517
0
VERTEX
8
1
10
4.500748
20
5.746830
0
VERTEX
8
1
10
4.504707
20
5.716164
42
-0.113537
0
VERTEX
8
1
10
4.506805
20
5.499348
42
0.042351
0
VERTEX
8
1
10
4.518188
20
5.147308
0
VERTEX
8
1
10
4.524849
20
5.123138
42
0.615976
0
VERTEX
8
1
10
4.554253
20
5.111404
0
VERTEX
8
1
10
4.565960
20
5.123726
42
0.087234
0
VERTEX
8
1
10
4.657707
20
5.365017
42
-0.005834
0
VERTEX
8
1
10
4.701260
20
5.518738
0
VERTEX
8
1
10
4.804348
20
5.979584
42
-0.243059
0
VERTEX
8
1
10
4.922920
20
6.143307
42
-0.501485
0
VERTEX
8
1
10
5.049332
20
6.079193
42
-0.090686
0
VERTEX
8
1
10
5.037701
20
5.905247
42
0.015448
0
VERTEX
8
1
10
4.966694
20
5.507877
42
-0.029521
0
VERTEX
8
1
10
4.877926
20
5.159363
42
0.065852
0
VERTEX
8
1
10
4.867886
20
4.933052
42
0.487246
0
VERTEX
8
1
10
4.905052
20
4.896187
42
0.068656
0
VERTEX
8
1
10
5.053482
20
4.947563
42
0.032416
0
VERTEX
8
1
10
5.295853
20
5.198898
42
0.068548
0
VERTEX
8
1
10
5.459980
20
5.379673
42
-0.158033
0
VERTEX
8
1
10
5.637299
20
5.498882
42
-0.385304
0
VERTEX
8
1
10
5.696831
20
5.477814
0
VERTEX
8
1
10
5.699707
20
5.464706
42
-0.172396
0
VERTEX
8
1
10
5.628155
20
5.288006
42
-0.005564
0
VERTEX
8
1
10
5.314342
20
4.865150
42
0.004385
0
VERTEX
8
1
10
5.118008
20
4.566391
42
0.134183
0
VERTEX
8
1
10
5.092075
20
4.490288
42
0.014647
0
VERTEX
8
1
10
5.018215
20
4.068672
42
-0.042334
0
VERTEX
8
1
10
4.895710
20
3.774994
42
0.038516
0
VERTEX
8
1
10
4.889191
20
3.455345
42
-0.009263
0
VERTEX
8
1
10
5.047756
20
2.442886
0
VERTEX
8
1
10
5.038853
20
2.433777
0
VERTEX
8
1
10
4.998745
20
2.428421
42
-0.015682
0
VERTEX
8
1
10
4.123043
20
2.426041
0
VERTEX
8
1
10
4.118835
20
2.430260
42
-0.002275
0
VERTEX
8
1
10
4.318966
20
3.387527
42
-0.111259
0
VERTEX
8
1
10
4.430836
20
3.566704
42
0.017699
0
VERTEX
8
1
10
4.561104
20
3.756348
42
0.067363
0
VERTEX
8
1
10
4.689636
20
3.933754
42
-0.055158
0
VERTEX
8
1
10
4.836266
20
4.103981
42
0.080692
0
VERTEX
8
1
10
4.916973
20
4.209671
0
VERTEX
8
1
10
4.921165
20
4.222115
42
0.681130
0
VERTEX
8
1
10
4.867496
20
4.270386
0
VERTEX
8
1
10
4.855904
20
4.265724
42
0.098576
0
VERTEX
8
1
10
4.676697
20
4.104317
42
-0.113480
0
VERTEX
8
1
10
4.552120
20
4.011703
0
VERTEX
8
1
10
4.546524
20
4.013397
0
VERTEX
8
1
10
4.544537
20
4.018135
0
VERTEX
8
1
10
4.545773
20
4.025482
42
-0.038589
0
VERTEX
8
1
10
4.638042
20
4.163231
42
-0.007755
0
VERTEX
8
1
10
4.766499
20
4.369797
42
0.046824
0
VERTEX
8
1
10
4.829018
20
4.492561
0
VERTEX
8
1
10
4.832790
20
4.513885
42
0.584336
0
VERTEX
8
1
10
4.784943
20
4.563141
42
0.088732
0
VERTEX
8
1
10
4.736404
20
4.553062
42
0.124125
0
VERTEX
8
1
10
4.680206
20
4.469261
42
0.010814
0
VERTEX
8
1
10
4.533276
20
4.252174
42
-0.072541
0
VERTEX
8
1
10
4.438282
20
4.165695
0
VERTEX
8
1
10
4.434330
20
4.166611
0
VERTEX
8
1
10
4.432034
20
4.170601
42
-0.105187
0
VERTEX
8
1
10
4.456844
20
4.280121
0
VERTEX
8
1
10
4.470242
20
4.316124
42
0.034787
0
VERTEX
8
1
10
4.539204
20
4.502411
42
-0.010447
0
VERTEX
8
1
10
4.606945
20
4.677460
42
0.159345
0
VERTEX
8
1
10
4.611439
20
4.731377
42
0.349747
0
VERTEX
8
1
10
4.514286
20
4.732422
0
VERTEX
8
1
10
4.510662
20
4.728439
0
VERTEX
8
1
10
4.506687
20
4.722534
42
0.031565
0
VERTEX
8
1
10
4.391361
20
4.457611
42
-0.049913
0
VERTEX
8
1
10
4.348873
20
4.382599
42
-0.000178
0
VERTEX
8
1
10
4.297722
20
4.246704
0
VERTEX
8
1
10
4.292336
20
4.237877
42
-0.631467
0
VERTEX
8
1
10
4.234421
20
4.234337
42
-0.072957
0
VERTEX
8
1
10
4.245655
20
4.358437
0
VERTEX
8
1
10
4.269894
20
4.407021
42
-0.036868
0
VERTEX
8
1
10
4.313328
20
4.674026
42
0.279114
0
VERTEX
8
1
10
4.287254
20
4.776062
0
VERTEX
8
1
10
4.277771
20
4.782555
0
VERTEX
8
1
10
4.261734
20
4.781860
0
VERTEX
8
1
10
4.246025
20
4.775520
42
0.178639
0
VERTEX
8
1
10
4.172752
20
4.650291
42
0.032884
0
VERTEX
8
1
10
4.082863
20
4.289787
42
-0.063637
0
VERTEX
8
1
10
3.975731
20
4.045021
42
-0.315938
0
VERTEX
8
1
10
3.906288
20
4.014610
0
VERTEX
8
1
10
3.898712
20
4.018379
0
VERTEX
8
1
10
3.890701
20
4.025665
42
-0.042528
0
VERTEX
8
1
10
3.792728
20
4.219635
42
0.217488
0
VERTEX
8
1
10
3.662605
20
4.330933
42
0.597586
0
VERTEX
8
1
10
3.623802
20
4.290321
42
0.010690
0
VERTEX
8
1
10
3.694679
20
4.108757
42
-0.102710
0
VERTEX
8
1
10
3.726425
20
3.874191
42
0.017927
0
VERTEX
8
1
10
3.744251
20
3.769600
42
-0.077584
0
VERTEX
8
1
10
3.835186
20
3.566269
0
VERTEX
8
1
10
3.844566
20
3.538048
0
VERTEX
8
1
10
3.538586
20
3.844025
0
VERTEX
8
1
10
3.522274
20
3.862221
0
VERTEX
8
1
10
3.502754
20
3.889511
42
-0.028536
0
VERTEX
8
1
10
3.281235
20
4.306030
42
0.048098
0
VERTEX
8
1
10
2.969742
20
4.663521
0
VERTEX
8
1
10
2.931805
20
4.702682
42
-0.119906
0
VERTEX
8
1
10
2.869289
20
4.784622
42
-0.204529
0
SEQEND
0
POLYLINE
8
1
66
1
70
1
0
VERTEX
8
1
10
3.442406
20
2.282913
42
-0.020763
0
VERTEX
8
1
10
3.031517
20
2.230583
42
-0.162216
0
VERTEX
8
1
10
2.766098
20
2.324539
42
-0.291911
0
VERTEX
8
1
10
2.679588
20
2.593834
42
-0.268136
0
VERTEX
8
1
10
2.851883
20
2.779816
42
-0.096768
0
VERTEX
8
1
10
3.058609
20
2.754066
42
-0.195915
0
VERTEX
8
1
10
3.023949
20
2.991699
0
VERTEX
8
1
10
3.038376
20
3.027100
42
-0.176922
0
VERTEX
8
1
10
3.177425
20
3.152557
42
-0.413646
0
VERTEX
8
1
10
3.539032
20
2.901993
42
-0.092852
0
VERTEX
8
1
10
3.552944
20
2.428925
42
0.020014
0
VERTEX
8
1
10
3.542149
20
2.306404
0
VERTEX
8
1
10
3.536663
20
2.300224
42
-0.010923
0
SEQEND
0
POLYLINE
8
1
66
1
70
1
0
VERTEX
8
1
10
2.597710
20
2.002045
0
VERTEX
8
1
10
5.922829
20
2.002045
0
VERTEX
8
1
10
5.922829
20
1.877045
0
VERTEX
8
1
10
2.597710
20
1.877045
0
SEQEND
0
POLYLINE
8
1
66
1
70
1
0
VERTEX
8
1
10
6.125919
20
10.352371
42
-0.067878
0
VERTEX
8
1
10
6.019287
20
10.463654
42
-0.402492
0
VERTEX
8
1
10
6.057961
20
10.650993
42
-0.433119
0
VERTEX
8
1
10
6.221218
20
10.572163
42
-0.094795
0
VERTEX
8
1
10
6.274986
20
10.654804
42
-0.664117
0
VERTEX
8
1
10
6.451630
20
10.515858
42
-0.152531
0
VERTEX
8
1
10
6.393242
20
10.412205
42
-0.021029
0
VERTEX
8
1
10
6.240406
20
10.273537
42
0.006451
0
SEQEND
0
POLYLINE
8
1
66
1
70
1
0
VERTEX
8
1
10
10.922710
20
3.072044
0
VERTEX
8
1
10
6.022709
20
3.072044
0
VERTEX
8
1
10
6.022709
20
9.932045
0
VERTEX
8
1
10
10.922710
20
9.932045
0
SEQEND
0
POLYLINE
8
1
66
1
70
1
0
VERTEX
8
1
10
8.994236
20
2.793427
42
-0.228903
0
VERTEX
8
1
10
9.098537
20
2.668030
0
VERTEX
8
1
10
9.105217
20
2.634476
42
-0.228594
0
VERTEX
8
1
10
8.993790
20
2.370392
42
-0.020583
0
VERTEX
8
1
10
8.743008
20
2.143494
0
VERTEX
8
1
10
8.738407
20
2.147278
0
VERTEX
8
1
10
8.731075
20
2.152771
42
-0.032079
0
VERTEX
8
1
10
8.516373
20
2.304306
42
-0.058052
0
VERTEX
8
1
10
8.368450
20
2.465538
42
-0.377064
0
VERTEX
8
1
10
8.421383
20
2.776077
0
VERTEX
8
1
10
8.433964
20
2.782875
0
VERTEX
8
1
10
8.479237
20
2.795029
0
VERTEX
8
1
10
8.519844
20
2.798569
42
-0.298089
0
VERTEX
8
1
10
8.705292
20
2.662247
0
VERTEX
8
1
10
8.710503
20
2.649338
42
-0.096385
0
VERTEX
8
1
10
8.801579
20
2.789322
42
-0.259112
0
SEQEND
0
POLYLINE
8
1
66
1
70
1
0
VERTEX
8
1
10
9.397587
20
1.877045
0
VERTEX
8
1
10
6.047829
20
1.877045
0
VERTEX
8
1
10
6.047829
20
2.002045
0
VERTEX
8
1
10
9.397587
20
2.002045
0
SEQEND
0
POLYLINE
8
1
66
1
70
1
0
VERTEX
8
1
10
9.522587
20
2.002045
0
VERTEX
8
1
10
12.847710
20
2.002045
0
VERTEX
8
1
10
12.847710
20
1.877045
0
VERTEX
8
1
10
9.522587
20
1.877045
0
SEQEND
0
POLYLINE
8
1
66
1
70
1
0
VERTEX
8
1
10
14.242062
20
2.101662
0
VERTEX
8
1
10
14.227676
20
1.992340
0
VERTEX
8
1
10
14.169651
20
1.992340
0
VERTEX
8
1
10
14.130463
20
1.720062
0
VERTEX
8
1
10
14.191849
20
1.720062
0
VERTEX
8
1
10
14.177464
20
1.610741
0
VERTEX
8
1
10
14.116020
20
1.610741
0
VERTEX
8
1
10
14.041763
20
1.090950
0
VERTEX
8
1
10
13.913879
20
1.090950
0
VERTEX
8
1
10
13.988132
20
1.610741
0
VERTEX
8
1
10
13.717922
20
1.610741
0
VERTEX
8
1
10
13.730297
20
1.720062
0
VERTEX
8
1
10
14.002571
20
1.720062
0
VERTEX
8
1
10
14.041763
20
1.992340
0
VERTEX
8
1
10
13.769489
20
1.992340
0
VERTEX
8
1
10
13.783928
20
2.101662
0
VERTEX
8
1
10
14.056202
20
2.101662
0
VERTEX
8
1
10
14.128395
20
2.602898
0
VERTEX
8
1
10
14.256287
20
2.602898
0
VERTEX
8
1
10
14.184090
20
2.101662
0
SEQEND
0
POLYLINE
8
1
66
1
70
1
0
VERTEX
8
1
10
14.809086
20
1.992340
0
VERTEX
8
1
10
14.540936
20
1.992340
0
VERTEX
8
1
10
14.501743
20
1.720062
0
VERTEX
8
1
10
14.769894
20
1.720062
0
VERTEX
8
1
10
14.755451
20
1.610741
0
VERTEX
8
1
10
14.487309
20
1.610741
0
VERTEX
8
1
10
14.413044
20
1.090950
0
VERTEX
8
1
10
14.283100
20
1.090950
0
VERTEX
8
1
10
14.359417
20
1.610741
0
VERTEX
8
1
10
14.303539
20
1.610741
0
VERTEX
8
1
10
14.317924
20
1.720062
0
VERTEX
8
1
10
14.373856
20
1.720062
0
VERTEX
8
1
10
14.413044
20
1.992340
0
VERTEX
8
1
10
14.353752
20
1.992340
0
VERTEX
8
1
10
14.368137
20
2.101662
0
VERTEX
8
1
10
14.429554
20
2.101662
0
VERTEX
8
1
10
14.499683
20
2.602898
0
VERTEX
8
1
10
14.627567
20
2.602898
0
VERTEX
8
1
10
14.557438
20
2.101662
0
VERTEX
8
1
10
14.825588
20
2.101662
0
SEQEND
0
POLYLINE
8
1
66
1
70
1
0
VERTEX
8
1
10
15.900066
20
1.008247
0
VERTEX
8
1
10
15.900059
20
0.892662
0
VERTEX
8
1
10
14.992725
20
0.892662
0
VERTEX
8
1
10
14.990269
20
0.892982
0
VERTEX
8
1
10
14.990269
20
1.008560
42
0.075027
0
VERTEX
8
1
10
15.199818
20
1.027580
42
0.295398
0
VERTEX
8
1
10
15.274151
20
1.114731
42
0.049492
0
VERTEX
8
1
10
15.282856
20
1.232964
0
VERTEX
8
1
10
15.282909
20
2.510468
42
0.099302
0
VERTEX
8
1
10
15.263630
20
2.670700
42
0.379093
0
VERTEX
8
1
10
15.189243
20
2.705460
42
0.059795
0
VERTEX
8
1
10
15.090214
20
2.680748
0
VERTEX
8
1
10
15.004757
20
2.651405
0
VERTEX
8
1
10
14.984524
20
2.766991
42
0.049502
0
VERTEX
8
1
10
15.581348
20
3.028069
0
VERTEX
8
1
10
15.624691
20
3.004959
0
VERTEX
8
1
10
15.624805
20
3.000175
0
VERTEX
8
1
10
15.624805
20
1.404739
42
0.022779
0
VERTEX
8
1
10
15.631046
20
1.126488
42
0.331426
0
VERTEX
8
1
10
15.714085
20
1.024017
42
0.073842
0
SEQEND
0
POLYLINE
8
1
66
1
70
1
0
VERTEX
8
1
10
16.703724
20
3.054955
0
VERTEX
8
1
10
16.703716
20
2.977089
42
0.043726
0
VERTEX
8
1
10
16.605526
20
2.973450
42
0.319225
0
VERTEX
8
1
10
16.582073
20
2.927544
0
VERTEX
8
1
10
16.581249
20
2.912575
0
VERTEX
8
1
10
16.580959
20
2.894989
0
VERTEX
8
1
10
16.580959
20
2.002022
42
0.124362
0
VERTEX
8
1
10
16.592869
20
1.912743
42
0.279058
0
VERTEX
8
1
10
16.637196
20
1.896904
0
VERTEX
8
1
10
16.703655
20
1.896919
0
VERTEX
8
1
10
16.703716
20
1.819489
0
VERTEX
8
1
10
16.703365
20
1.819130
0
VERTEX
8
1
10
16.248028
20
1.819016
0
VERTEX
8
1
10
16.244640
20
1.819321
0
VERTEX
8
1
10
16.244640
20
1.884674
42
0.083924
0
VERTEX
8
1
10
16.344883
20
1.898491
42
0.258595
0
VERTEX
8
1
10
16.375584
20
1.951881
42
0.038059
0
VERTEX
8
1
10
16.378841
20
2.024742
0
VERTEX
8
1
10
16.378826
20
2.859337
42
0.137343
0
VERTEX
8
1
10
16.360966
20
2.962120
42
0.208123
0
VERTEX
8
1
10
16.296963
20
2.985542
0
VERTEX
8
1
10
16.270206
20
2.986778
0
VERTEX
8
1
10
16.244640
20
2.987099
0
VERTEX
8
1
10
16.244640
20
3.053757
0
VERTEX
8
1
10
16.244816
20
3.054955
0
SEQEND
0
POLYLINE
8
1
66
1
70
1
0
VERTEX
8
1
10
16.828716
20
2.963646
0
VERTEX
8
1
10
16.828716
20
3.049538
0
VERTEX
8
1
10
16.832218
20
3.050125
0
VERTEX
8
1
10
16.859509
20
3.046867
42
-0.288946
0
VERTEX
8
1
10
17.233784
20
2.760971
0
VERTEX
8
1
10
17.245617
20
2.729332
42
-0.146924
0
VERTEX
8
1
10
17.242977
20
2.152328
42
-0.289281
0
VERTEX
8
1
10
16.870693
20
1.833984
0
VERTEX
8
1
10
16.840450
20
1.828880
0
VERTEX
8
1
10
16.828716
20
1.827728
0
VERTEX
8
1
10
16.828716
20
1.916107
42
0.217472
0
VERTEX
8
1
10
17.020832
20
2.103546
42
0.101257
0
VERTEX
8
1
10
17.076313
20
2.421684
42
0.093571
0
VERTEX
8
1
10
17.022816
20
2.776604
42
0.217291
0
VERTEX
8
1
10
16.846485
20
2.957588
0
SEQEND
0
POLYLINE
8
1
66
1
70
1
0
VERTEX
8
1
10
18.398479
20
1.885269
0
VERTEX
8
1
10
18.398479
20
1.819016
0
VERTEX
8
1
10
18.009190
20
1.819016
0
VERTEX
8
1
10
18.009136
20
1.885246
42
0.159798
0
VERTEX
8
1
10
18.084667
20
1.901642
0
VERTEX
8
1
10
18.089260
20
1.906998
42
0.200801
0
VERTEX
8
1
10
18.084827
20
1.985451
0
VERTEX
8
1
10
18.017651
20
2.199348
0
VERTEX
8
1
10
18.016171
20
2.200073
0
VERTEX
8
1
10
17.878017
20
2.200073
0
VERTEX
8
1
10
17.877308
20
2.200645
0
VERTEX
8
1
10
17.877308
20
2.282341
0
VERTEX
8
1
10
17.877888
20
2.282906
0
VERTEX
8
1
10
17.989902
20
2.282913
0
VERTEX
8
1
10
17.990307
20
2.284828
0
VERTEX
8
1
10
17.815289
20
2.826324
0
VERTEX
8
1
10
17.810390
20
2.826324
0
VERTEX
8
1
10
17.653004
20
2.282913
0
VERTEX
8
1
10
17.752308
20
2.282906
0
VERTEX
8
1
10
17.752308
20
2.200073
0
VERTEX
8
1
10
17.624783
20
2.200073
0
VERTEX
8
1
10
17.574963
20
2.018524
42
0.119550
0
VERTEX
8
1
10
17.558674
20
1.914635
0
VERTEX
8
1
10
17.561420
20
1.907654
0
VERTEX
8
1
10
17.565487
20
1.901810
42
0.173908
0
VERTEX
8
1
10
17.641338
20
1.884544
0
VERTEX
8
1
10
17.641338
20
1.819252
0
VERTEX
8
1
10
17.638844
20
1.819016
0
VERTEX
8
1
10
17.362766
20
1.819016
0
VERTEX
8
1
10
17.361347
20
1.819473
0
VERTEX
8
1
10
17.361347
20
1.884827
42
0.374798
0
VERTEX
8
1
10
17.451847
20
1.946838
42
0.026882
0
VERTEX
8
1
10
17.465252
20
1.983612
0
VERTEX
8
1
10
17.796619
20
3.067474
0
VERTEX
8
1
10
17.800663
20
3.079819
0
VERTEX
8
1
10
17.918034
20
3.079811
0
VERTEX
8
1
10
17.920147
20
3.078423
0
VERTEX
8
1
10
18.288853
20
1.998795
42
0.128134
0
VERTEX
8
1
10
18.339237
20
1.901611
42
0.193405
0
SEQEND
0
POLYLINE
8
1
66
1
70
1
0
VERTEX
8
1
10
18.939754
20
3.054939
0
VERTEX
8
1
10
18.939747
20
2.977089
42
0.039339
0
VERTEX
8
1
10
18.834545
20
2.973663
42
0.325032
0
VERTEX
8
1
10
18.810642
20
2.929070
0
VERTEX
8
1
10
18.809742
20
2.914474
0
VERTEX
8
1
10
18.809406
20
2.897308
0
VERTEX
8
1
10
18.809475
20
1.986626
42
0.179047
0
VERTEX
8
1
10
18.825550
20
1.907661
42
0.187805
0
VERTEX
8
1
10
18.862370
20
1.896965
0
VERTEX
8
1
10
18.939747
20
1.896935
0
VERTEX
8
1
10
18.939747
20
1.820633
0
VERTEX
8
1
10
18.939587
20
1.819260
42
-0.011226
0
VERTEX
8
1
10
18.473072
20
1.820183
0
VERTEX
8
1
10
18.473072
20
1.885185
42
0.113185
0
VERTEX
8
1
10
18.577831
20
1.901184
42
0.234954
0
VERTEX
8
1
10
18.604893
20
1.958755
0
VERTEX
8
1
10
18.606617
20
1.982567
0
VERTEX
8
1
10
18.607227
20
2.010918
0
VERTEX
8
1
10
18.607197
20
2.867050
42
0.154286
0
VERTEX
8
1
10
18.587368
20
2.964447
42
0.190455
0
VERTEX
8
1
10
18.520527
20
2.985886
0
VERTEX
8
1
10
18.492947
20
2.986885
0
VERTEX
8
1
10
18.473080
20
2.987251
0
VERTEX
8
1
10
18.473072
20
3.054077
0
VERTEX
8
1
10
18.473766
20
3.054962
0
SEQEND
0
POLYLINE
8
1
66
1
70
1
0
VERTEX
8
1
10
19.064747
20
2.960960
0
VERTEX
8
1
10
19.064747
20
3.049500
0
VERTEX
8
1
10
19.084988
20
3.047157
42
-0.305740
0
VERTEX
8
1
10
19.471882
20
2.735535
42
-0.139760
0
VERTEX
8
1
10
19.482121
20
2.186409
0
VERTEX
8
1
10
19.471981
20
2.153992
42
-0.288621
0
VERTEX
8
1
10
19.102268
20
1.834610
0
VERTEX
8
1
10
19.072437
20
1.829430
0
VERTEX
8
1
10
19.064747
20
1.829025
0
VERTEX
8
1
10
19.064747
20
1.919197
42
0.195609
0
VERTEX
8
1
10
19.239643
20
2.083008
42
0.106212
0
VERTEX
8
1
10
19.303852
20
2.380188
42
0.086290
0
VERTEX
8
1
10
19.261288
20
2.750130
42
0.204842
0
VERTEX
8
1
10
19.098766
20
2.947716
0
SEQEND
0
ENDSEC
0
EOF
