0
SECTION
2
HEADER
9
$EXTMIN
10
0.300835
20
0.114586
9
$EXTMAX
10
16.656067
20
28.073467
0
ENDSEC
0
SECTION
2
TABLES
0
TABLE
2
LTYPE
70
1
0
LTYPE
2
0
70
0
3
Solid Line
72
65
73
0
40
0.0
0
ENDTAB
0
TABLE
2
LAYER
70
1
0
LAYER
2
1
70
0
62
7
6
0
0
ENDTAB
0
ENDSEC
0
SECTION
2
BLOCKS
0
ENDSEC
0
SECTION
2
ENTITIES
0
POLYLINE
8
1
66
1
70
1
0
VERTEX
8
1
10
16.441933
20
13.011780
42
-0.361146
0
VERTEX
8
1
10
16.549934
20
12.959961
42
-0.041399
0
VERTEX
8
1
10
16.610184
20
12.819710
42
0.016249
0
VERTEX
8
1
10
15.623909
20
12.092125
42
-0.090592
0
VERTEX
8
1
10
15.354897
20
11.916893
42
-0.141650
0
VERTEX
8
1
10
15.086815
20
11.904114
42
-0.040915
0
VERTEX
8
1
10
14.750969
20
12.002617
42
-0.177765
0
VERTEX
8
1
10
14.505875
20
12.283241
42
-0.082884
0
VERTEX
8
1
10
14.409103
20
12.689331
42
-0.037278
0
VERTEX
8
1
10
14.401779
20
12.999359
0
VERTEX
8
1
10
14.384415
20
13.008698
42
0.312311
0
VERTEX
8
1
10
14.189102
20
12.988037
42
0.129674
0
VERTEX
8
1
10
14.112923
20
12.850395
42
-0.074048
0
VERTEX
8
1
10
13.899689
20
12.350273
42
-0.114614
0
VERTEX
8
1
10
13.639603
20
12.095596
42
-0.155273
0
VERTEX
8
1
10
13.381416
20
12.035645
42
-0.010954
0
VERTEX
8
1
10
13.175224
20
10.158195
0
VERTEX
8
1
10
13.152740
20
10.010132
0
VERTEX
8
1
10
13.128548
20
9.862335
42
-0.006035
0
VERTEX
8
1
10
13.485298
20
9.751831
42
-0.062784
0
VERTEX
8
1
10
13.518272
20
9.345688
42
-0.087063
0
VERTEX
8
1
10
13.480118
20
9.201508
0
VERTEX
8
1
10
13.469162
20
9.184982
42
-0.348002
0
VERTEX
8
1
10
13.357758
20
9.139717
42
0.015014
0
VERTEX
8
1
10
12.089645
20
9.541458
42
0.040572
0
VERTEX
8
1
10
11.709526
20
9.619865
42
0.050454
0
VERTEX
8
1
10
10.556419
20
9.619987
42
0.061245
0
VERTEX
8
1
10
10.342278
20
9.573326
0
VERTEX
8
1
10
10.317032
20
9.562630
0
VERTEX
8
1
10
10.321945
20
9.547028
0
VERTEX
8
1
10
10.389565
20
9.501167
42
-0.049668
0
VERTEX
8
1
10
11.113617
20
8.850685
42
-0.054980
0
VERTEX
8
1
10
11.214958
20
8.708954
0
VERTEX
8
1
10
11.253700
20
8.692001
42
-0.107514
0
VERTEX
8
1
10
11.590446
20
8.517792
42
-0.162001
0
VERTEX
8
1
10
11.747551
20
8.231262
42
-0.137812
0
VERTEX
8
1
10
11.725716
20
7.770218
42
-0.179377
0
VERTEX
8
1
10
11.562523
20
7.592911
42
-0.017966
0
VERTEX
8
1
10
11.318367
20
7.468040
0
VERTEX
8
1
10
11.313438
20
7.453964
42
0.151585
0
VERTEX
8
1
10
11.365646
20
7.310715
0
VERTEX
8
1
10
11.402405
20
7.257996
0
VERTEX
8
1
10
11.440735
20
7.206413
42
0.010665
0
VERTEX
8
1
10
11.707207
20
6.896652
42
-0.161107
0
VERTEX
8
1
10
11.843040
20
6.505272
42
-0.074046
0
VERTEX
8
1
10
11.826553
20
6.264351
0
VERTEX
8
1
10
11.818176
20
6.241997
42
-0.358366
0
VERTEX
8
1
10
11.637329
20
6.131966
42
-0.047419
0
VERTEX
8
1
10
11.476791
20
6.159706
0
VERTEX
8
1
10
11.458504
20
6.161659
42
0.019931
0
VERTEX
8
1
10
10.276405
20
6.143562
0
VERTEX
8
1
10
10.198463
20
6.136101
42
0.081379
0
VERTEX
8
1
10
10.024399
20
6.101578
0
VERTEX
8
1
10
10.014755
20
6.091927
0
VERTEX
8
1
10
10.021515
20
6.079697
0
VERTEX
8
1
10
10.042480
20
6.063446
42
0.040900
0
VERTEX
8
1
10
10.318893
20
5.934448
42
0.006996
0
VERTEX
8
1
10
11.560585
20
5.467934
42
-0.038599
0
VERTEX
8
1
10
11.735458
20
5.394951
42
-0.169403
0
VERTEX
8
1
10
11.814186
20
5.310196
42
-0.196475
0
VERTEX
8
1
10
11.804733
20
5.210579
42
-0.035894
0
VERTEX
8
1
10
11.760803
20
5.107010
0
VERTEX
8
1
10
11.751213
20
5.098671
42
-0.194000
0
VERTEX
8
1
10
11.660912
20
5.108162
42
-0.040038
0
VERTEX
8
1
10
11.397995
20
5.248398
42
0.043845
0
VERTEX
8
1
10
11.249443
20
5.321121
42
0.472192
0
VERTEX
8
1
10
11.196701
20
5.283180
0
VERTEX
8
1
10
11.194328
20
5.272964
42
0.087006
0
VERTEX
8
1
10
11.207123
20
5.109421
42
-0.024428
0
VERTEX
8
1
10
11.771011
20
4.827042
0
VERTEX
8
1
10
11.804741
20
4.803917
42
-0.259268
0
VERTEX
8
1
10
11.933525
20
4.570198
42
-0.075849
0
VERTEX
8
1
10
11.886528
20
4.222786
42
-0.267313
0
VERTEX
8
1
10
11.674934
20
4.057625
42
-0.102428
0
VERTEX
8
1
10
11.425095
20
4.068153
42
-0.056486
0
VERTEX
8
1
10
10.876740
20
4.052444
42
-0.272132
0
VERTEX
8
1
10
10.703781
20
4.179649
42
-0.123813
0
VERTEX
8
1
10
10.659035
20
4.447929
42
-0.057993
0
VERTEX
8
1
10
10.706680
20
4.789314
0
VERTEX
8
1
10
10.675331
20
4.815697
42
0.142587
0
VERTEX
8
1
10
10.401672
20
4.896942
42
0.198609
0
VERTEX
8
1
10
10.161263
20
4.779633
42
0.121616
0
VERTEX
8
1
10
9.970596
20
4.435577
0
VERTEX
8
1
10
9.969818
20
4.408699
42
0.102730
0
VERTEX
8
1
10
10.041748
20
4.228195
42
0.035876
0
VERTEX
8
1
10
10.303375
20
3.873344
0
VERTEX
8
1
10
10.773392
20
3.316795
42
-0.028466
0
VERTEX
8
1
10
11.069229
20
2.930466
42
-0.067502
0
VERTEX
8
1
10
11.189957
20
2.680206
0
VERTEX
8
1
10
11.194664
20
2.655029
42
-0.200969
0
VERTEX
8
1
10
11.182938
20
2.559250
0
VERTEX
8
1
10
11.174889
20
2.550827
42
-0.518047
0
VERTEX
8
1
10
11.116959
20
2.515610
0
VERTEX
8
1
10
11.100334
20
2.519783
0
VERTEX
8
1
10
11.084259
20
2.525734
42
-0.185213
0
VERTEX
8
1
10
10.883919
20
2.758057
0
VERTEX
8
1
10
10.873466
20
2.776558
42
0.036480
0
VERTEX
8
1
10
10.688744
20
3.004875
42
0.009249
0
VERTEX
8
1
10
9.996796
20
3.740021
0
VERTEX
8
1
10
9.974747
20
3.748978
42
-0.007451
0
VERTEX
8
1
10
10.775444
20
1.824181
42
-0.028956
0
VERTEX
8
1
10
10.884987
20
1.508995
42
-0.310524
0
VERTEX
8
1
10
10.769524
20
1.223663
42
-0.091234
0
VERTEX
8
1
10
10.485649
20
1.104477
42
-0.044215
0
VERTEX
8
1
10
9.874649
20
1.018074
42
0.184225
0
VERTEX
8
1
10
9.552612
20
0.899628
42
0.060155
0
VERTEX
8
1
10
9.379135
20
0.718552
42
0.002166
0
VERTEX
8
1
10
9.152679
20
0.432335
0
VERTEX
8
1
10
9.109802
20
0.384407
0
VERTEX
8
1
10
9.065361
20
0.337936
42
-0.151409
0
VERTEX
8
1
10
8.685089
20
0.114586
0
VERTEX
8
1
10
8.618523
20
0.118210
42
-0.129253
0
VERTEX
8
1
10
8.307259
20
0.287285
0
VERTEX
8
1
10
8.269722
20
0.321625
42
-0.035652
0
VERTEX
8
1
10
7.960686
20
0.695122
42
0.073764
0
VERTEX
8
1
10
7.725998
20
0.930260
42
0.132912
0
VERTEX
8
1
10
7.504616
20
1.014595
42
-0.035159
0
VERTEX
8
1
10
6.899467
20
1.088837
42
-0.045426
0
VERTEX
8
1
10
6.646408
20
1.168541
42
-0.111775
0
VERTEX
8
1
10
6.480339
20
1.290901
42
-0.261485
0
VERTEX
8
1
10
6.447823
20
1.554764
42
-0.015183
0
VERTEX
8
1
10
6.794594
20
2.446152
42
-0.004160
0
VERTEX
8
1
10
7.687355
20
4.539658
0
VERTEX
8
1
10
7.686707
20
10.790642
42
0.089373
0
VERTEX
8
1
10
7.633514
20
10.709709
42
0.039149
0
VERTEX
8
1
10
7.525238
20
10.408981
42
0.016739
0
VERTEX
8
1
10
7.321136
20
9.567436
0
VERTEX
8
1
10
7.310532
20
9.557472
42
0.009404
0
VERTEX
8
1
10
7.048340
20
9.537712
42
-0.069919
0
VERTEX
8
1
10
6.881302
20
9.552032
0
VERTEX
8
1
10
6.863808
20
9.558640
42
-0.347159
0
VERTEX
8
1
10
6.787796
20
9.673630
0
VERTEX
8
1
10
6.790680
20
9.702438
42
0.005129
0
VERTEX
8
1
10
7.129532
20
11.472771
0
VERTEX
8
1
10
6.322906
20
11.400200
0
VERTEX
8
1
10
6.313873
20
11.385399
42
0.046000
0
VERTEX
8
1
10
6.214050
20
11.092247
42
0.038484
0
VERTEX
8
1
10
5.981560
20
9.968269
42
0.035768
0
VERTEX
8
1
10
5.967941
20
9.637505
42
0.033019
0
VERTEX
8
1
10
5.983475
20
9.528610
0
VERTEX
8
1
10
5.996834
20
9.521118
42
0.094735
0
VERTEX
8
1
10
6.234520
20
9.519394
42
-0.044651
0
VERTEX
8
1
10
6.067810
20
9.226166
42
-0.114670
0
VERTEX
8
1
10
5.987518
20
9.155396
42
-0.313493
0
VERTEX
8
1
10
5.947777
20
9.169052
42
-0.121589
0
VERTEX
8
1
10
5.826469
20
9.392105
42
-0.076150
0
VERTEX
8
1
10
5.757683
20
9.895844
42
-0.042953
0
VERTEX
8
1
10
5.796829
20
10.421829
0
VERTEX
8
1
10
5.791542
20
10.463272
42
-0.025766
0
VERTEX
8
1
10
5.470978
20
10.057587
42
-0.062198
0
VERTEX
8
1
10
5.324425
20
9.931763
0
VERTEX
8
1
10
5.303276
20
9.921745
42
-0.298324
0
VERTEX
8
1
10
5.156609
20
9.938934
0
VERTEX
8
1
10
5.084358
20
9.992737
42
-0.237318
0
VERTEX
8
1
10
4.920860
20
10.450050
42
-0.054813
0
VERTEX
8
1
10
4.941841
20
10.521713
0
VERTEX
8
1
10
4.935791
20
10.528725
42
-0.018997
0
VERTEX
8
1
10
4.549286
20
10.428322
0
VERTEX
8
1
10
4.513367
20
10.423431
0
VERTEX
8
1
10
4.477272
20
10.420090
0
VERTEX
8
1
10
4.471527
20
10.382187
42
0.044053
0
VERTEX
8
1
10
4.566818
20
9.426811
42
-0.153898
0
VERTEX
8
1
10
4.515549
20
9.151024
0
VERTEX
8
1
10
4.505951
20
9.136604
0
VERTEX
8
1
10
4.461449
20
9.190125
42
-0.102412
0
VERTEX
8
1
10
4.284943
20
9.625061
0
VERTEX
8
1
10
4.270081
20
9.706291
42
-0.067838
0
VERTEX
8
1
10
4.270546
20
10.585396
0
VERTEX
8
1
10
4.281815
20
10.664215
42
0.030759
0
VERTEX
8
1
10
3.970100
20
10.150879
0
VERTEX
8
1
10
3.952629
20
10.111107
42
-0.288872
0
VERTEX
8
1
10
3.836617
20
10.001060
42
-0.181606
0
VERTEX
8
1
10
3.491974
20
10.034592
42
-0.224328
0
VERTEX
8
1
10
3.420738
20
10.132500
42
-0.092603
0
VERTEX
8
1
10
3.404175
20
10.313911
42
-0.124480
0
VERTEX
8
1
10
3.561897
20
10.827965
42
-0.003035
0
VERTEX
8
1
10
2.694260
20
10.610596
0
VERTEX
8
1
10
2.663498
20
10.533600
42
-0.016981
0
VERTEX
8
1
10
2.357063
20
8.294250
0
VERTEX
8
1
10
2.340752
20
8.216759
0
VERTEX
8
1
10
2.322754
20
8.139641
0
VERTEX
8
1
10
2.315102
20
8.120743
42
-0.167067
0
VERTEX
8
1
10
2.032852
20
7.892166
0
VERTEX
8
1
10
2.011101
20
7.887825
42
-0.541586
0
VERTEX
8
1
10
1.923950
20
7.956772
0
VERTEX
8
1
10
1.924408
20
7.984062
0
VERTEX
8
1
10
1.928909
20
8.016449
42
0.095364
0
VERTEX
8
1
10
2.052338
20
8.280807
42
0.045558
0
VERTEX
8
1
10
2.118828
20
8.635521
42
0.022449
0
VERTEX
8
1
10
2.171715
20
9.350250
0
VERTEX
8
1
10
2.185104
20
9.595856
42
-0.012866
0
VERTEX
8
1
10
2.248375
20
10.497116
0
VERTEX
8
1
10
2.212097
20
10.492554
42
-0.027643
0
VERTEX
8
1
10
0.925758
20
10.258820
42
-0.003709
0
VERTEX
8
1
10
0.302826
20
10.176689
0
VERTEX
8
1
10
0.300835
20
10.181717
0
VERTEX
8
1
10
0.309380
20
10.206223
42
-0.120355
0
VERTEX
8
1
10
0.442192
20
10.317337
0
VERTEX
8
1
10
0.488693
20
10.344131
42
-0.040847
0
VERTEX
8
1
10
1.006821
20
10.561356
42
-0.029836
0
VERTEX
8
1
10
2.242073
20
10.913101
0
VERTEX
8
1
10
2.242905
20
10.919632
0
VERTEX
8
1
10
2.287804
20
11.142899
0
VERTEX
8
1
10
2.288696
20
11.149590
42
-0.057502
0
VERTEX
8
1
10
2.774292
20
13.829628
42
-0.020054
0
VERTEX
8
1
10
2.930672
20
14.267685
0
VERTEX
8
1
10
2.948105
20
14.303566
42
-0.392753
0
VERTEX
8
1
10
3.228485
20
14.433052
42
-0.183507
0
VERTEX
8
1
10
3.508186
20
14.206436
42
-0.095978
0
VERTEX
8
1
10
3.619904
20
13.920242
42
0.088157
0
VERTEX
8
1
10
3.691826
20
13.768768
42
-0.203856
0
VERTEX
8
1
10
3.717262
20
13.647934
42
-0.087565
0
VERTEX
8
1
10
3.695152
20
13.606277
42
0.252697
0
VERTEX
8
1
10
3.605705
20
13.719284
42
0.230367
0
VERTEX
8
1
10
3.402359
20
13.723442
42
0.098194
0
VERTEX
8
1
10
3.277786
20
13.642693
0
VERTEX
8
1
10
3.224854
20
13.581421
0
VERTEX
8
1
10
3.175026
20
13.504524
0
VERTEX
8
1
10
3.128242
20
13.413559
0
VERTEX
8
1
10
3.084419
20
13.310089
42
0.045142
0
VERTEX
8
1
10
2.879105
20
12.513397
42
0.026624
0
VERTEX
8
1
10
2.699425
20
10.934441
0
VERTEX
8
1
10
2.701530
20
10.932983
42
-0.015151
0
VERTEX
8
1
10
3.099762
20
10.992699
42
0.131100
0
VERTEX
8
1
10
3.508278
20
11.160255
0
VERTEX
8
1
10
3.668266
20
11.274582
42
-0.093751
0
VERTEX
8
1
10
4.062523
20
11.449928
42
-0.194003
0
VERTEX
8
1
10
4.424843
20
11.397377
42
-0.332163
0
VERTEX
8
1
10
4.588791
20
10.951576
42
0.109734
0
VERTEX
8
1
10
4.495132
20
10.685997
0
VERTEX
8
1
10
4.507050
20
10.683258
42
0.230244
0
VERTEX
8
1
10
4.931656
20
10.913071
42
0.046473
0
VERTEX
8
1
10
5.008766
20
11.034424
42
-0.445642
0
VERTEX
8
1
10
5.185043
20
10.970871
42
-0.079645
0
VERTEX
8
1
10
5.202789
20
10.913956
42
0.063535
0
VERTEX
8
1
10
5.132935
20
10.404762
42
0.128059
0
VERTEX
8
1
10
5.156189
20
10.301231
42
0.462300
0
VERTEX
8
1
10
5.210732
20
10.287704
0
VERTEX
8
1
10
5.231194
20
10.300797
0
VERTEX
8
1
10
5.254501
20
10.321571
42
0.025883
0
VERTEX
8
1
10
5.441124
20
10.556854
42
0.012375
0
VERTEX
8
1
10
5.959946
20
11.317711
42
-0.069417
0
VERTEX
8
1
10
5.650940
20
11.193321
42
-0.142958
0
VERTEX
8
1
10
5.518478
20
11.196587
42
-0.259136
0
VERTEX
8
1
10
5.456543
20
11.277702
42
-0.274365
0
VERTEX
8
1
10
5.511765
20
11.505104
42
-0.202205
0
VERTEX
8
1
10
5.695831
20
11.562302
42
0.055826
0
VERTEX
8
1
10
5.907463
20
11.593277
42
0.019809
0
VERTEX
8
1
10
6.104530
20
11.643578
42
-0.021848
0
VERTEX
8
1
10
6.418961
20
12.570335
42
-0.053763
0
VERTEX
8
1
10
6.537247
20
12.806595
42
-0.167798
0
VERTEX
8
1
10
6.594704
20
12.858696
42
-0.167040
0
VERTEX
8
1
10
6.723221
20
12.823677
42
-0.302873
0
VERTEX
8
1
10
6.741676
20
12.731041
42
-0.084529
0
VERTEX
8
1
10
6.706268
20
12.648788
42
0.037256
0
VERTEX
8
1
10
6.623718
20
12.450073
42
0.012816
0
VERTEX
8
1
10
6.384239
20
11.697762
42
0.021513
0
VERTEX
8
1
10
6.445099
20
11.700272
42
0.009489
0
VERTEX
8
1
10
7.105179
20
11.772652
0
VERTEX
8
1
10
7.108398
20
11.778008
0
VERTEX
8
1
10
7.117538
20
11.812340
0
VERTEX
8
1
10
7.130157
20
11.857643
42
0.000165
0
VERTEX
8
1
10
7.626350
20
13.540459
0
VERTEX
8
1
10
7.657524
20
13.654945
0
VERTEX
8
1
10
7.687355
20
13.769783
0
VERTEX
8
1
10
7.687347
20
16.608727
0
VERTEX
8
1
10
6.904495
20
15.064972
42
-0.016215
0
VERTEX
8
1
10
6.675224
20
14.639793
0
VERTEX
8
1
10
6.659019
20
14.619087
0
VERTEX
8
1
10
6.641342
20
14.599632
42
-0.288148
0
VERTEX
8
1
10
6.423492
20
14.531158
42
-0.102899
0
VERTEX
8
1
10
6.148697
20
14.648079
42
0.229618
0
VERTEX
8
1
10
5.940681
20
14.697678
42
0.089949
0
VERTEX
8
1
10
5.716614
20
14.612320
42
0.032402
0
VERTEX
8
1
10
5.392242
20
14.409599
42
-0.027308
0
VERTEX
8
1
10
5.086929
20
14.227135
42
-0.070435
0
VERTEX
8
1
10
4.963493
20
14.188446
0
VERTEX
8
1
10
4.955811
20
14.194626
42
-0.082588
0
VERTEX
8
1
10
4.985474
20
14.401100
42
-0.020117
0
VERTEX
8
1
10
5.139275
20
14.851898
42
0.042001
0
VERTEX
8
1
10
5.236717
20
15.212120
42
0.102542
0
VERTEX
8
1
10
5.226967
20
15.424385
42
0.105409
0
VERTEX
8
1
10
5.168190
20
15.522263
42
-0.098074
0
VERTEX
8
1
10
4.994385
20
15.824928
0
VERTEX
8
1
10
4.989105
20
15.848572
42
-0.230003
0
VERTEX
8
1
10
5.036957
20
16.061310
0
VERTEX
8
1
10
5.052063
20
16.082497
42
-0.028701
0
VERTEX
8
1
10
5.244034
20
16.266449
42
-0.001765
0
VERTEX
8
1
10
6.828552
20
17.655670
0
VERTEX
8
1
10
6.816948
20
17.664909
42
-0.005033
0
VERTEX
8
1
10
3.416634
20
16.642410
42
-0.014311
0
VERTEX
8
1
10
2.844162
20
16.491714
0
VERTEX
8
1
10
2.787521
20
16.480141
42
-0.213919
0
VERTEX
8
1
10
2.380569
20
16.565880
42
-0.125380
0
VERTEX
8
1
10
2.186012
20
16.843285
42
-0.061749
0
VERTEX
8
1
10
2.065323
20
17.301476
42
-0.017092
0
VERTEX
8
1
10
2.023842
20
17.643021
42
0.149499
0
VERTEX
8
1
10
1.901901
20
17.863243
42
0.064470
0
VERTEX
8
1
10
1.590691
20
18.091125
0
VERTEX
8
1
10
1.514320
20
18.134438
42
-0.019873
0
VERTEX
8
1
10
1.045242
20
18.407677
42
-0.086023
0
VERTEX
8
1
10
0.758835
20
18.668686
42
-0.098976
0
VERTEX
8
1
10
0.665497
20
18.871414
0
VERTEX
8
1
10
0.670258
20
18.945938
42
-0.123541
0
VERTEX
8
1
10
0.820351
20
19.204422
42
-0.073670
0
VERTEX
8
1
10
1.227325
20
19.503128
42
0.010129
0
VERTEX
8
1
10
1.676987
20
19.759972
42
0.092086
0
VERTEX
8
1
10
1.955772
20
19.999474
42
0.121489
0
VERTEX
8
1
10
2.026360
20
20.171280
42
-0.044114
0
VERTEX
8
1
10
2.126617
20
20.784355
42
-0.077701
0
VERTEX
8
1
10
2.272987
20
21.116150
0
VERTEX
8
1
10
2.294205
20
21.144180
42
-0.240604
0
VERTEX
8
1
10
2.672867
20
21.329247
42
-0.068216
0
VERTEX
8
1
10
2.808311
20
21.314423
0
VERTEX
8
1
10
2.895813
20
21.294495
42
-0.010028
0
VERTEX
8
1
10
3.811951
20
21.042389
42
-0.003954
0
VERTEX
8
1
10
6.995079
20
20.078316
42
0.001862
0
VERTEX
8
1
10
5.149208
20
21.517578
42
-0.005385
0
VERTEX
8
1
10
4.830429
20
21.775795
42
-0.137966
0
VERTEX
8
1
10
4.727585
20
21.937569
42
-0.132964
0
VERTEX
8
1
10
4.737625
20
22.087852
42
-0.091639
0
VERTEX
8
1
10
4.883171
20
22.368378
42
0.197758
0
VERTEX
8
1
10
4.951035
20
22.578232
42
0.079505
0
VERTEX
8
1
10
4.874443
20
22.904083
42
0.001623
0
VERTEX
8
1
10
4.666527
20
23.416077
42
-0.045355
0
VERTEX
8
1
10
4.604683
20
23.640213
0
VERTEX
8
1
10
4.603004
20
23.665298
0
VERTEX
8
1
10
4.603050
20
23.690437
0
VERTEX
8
1
10
4.613663
20
23.693283
42
-0.089697
0
VERTEX
8
1
10
4.802643
20
23.632584
0
VERTEX
8
1
10
4.880463
20
23.592628
42
0.002766
0
VERTEX
8
1
10
5.298157
20
23.358063
0
VERTEX
8
1
10
5.362953
20
23.326118
42
0.123717
0
VERTEX
8
1
10
5.671974
20
23.241821
42
0.168538
0
VERTEX
8
1
10
5.827339
20
23.312462
42
-0.093204
0
VERTEX
8
1
10
6.092552
20
23.441872
0
VERTEX
8
1
10
6.116959
20
23.445724
42
-0.283010
0
VERTEX
8
1
10
6.325005
20
23.367821
0
VERTEX
8
1
10
6.343475
20
23.347267
42
-0.024609
0
VERTEX
8
1
10
6.493828
20
23.109901
42
-0.002092
0
VERTEX
8
1
10
7.312988
20
21.697388
0
VERTEX
8
1
10
7.657318
20
21.106239
0
VERTEX
8
1
10
7.655052
20
21.163116
42
0.017963
0
VERTEX
8
1
10
7.443466
20
22.088249
42
0.005894
0
VERTEX
8
1
10
6.818710
20
24.362373
42
-0.004672
0
VERTEX
8
1
10
6.491425
20
25.560280
42
-0.020072
0
VERTEX
8
1
10
6.427773
20
25.864914
0
VERTEX
8
1
10
6.427216
20
25.902542
42
-0.166907
0
VERTEX
8
1
10
6.541512
20
26.262077
42
-0.128520
0
VERTEX
8
1
10
6.848549
20
26.471321
0
VERTEX
8
1
10
6.904053
20
26.492447
42
-0.056917
0
VERTEX
8
1
10
7.469536
20
26.607307
42
0.185309
0
VERTEX
8
1
10
7.689316
20
26.709236
0
VERTEX
8
1
10
7.735321
20
26.757553
42
0.056565
0
VERTEX
8
1
10
7.942589
20
27.092484
0
VERTEX
8
1
10
8.139793
20
27.499416
42
-0.054546
0
VERTEX
8
1
10
8.373062
20
27.873898
42
-0.101363
0
VERTEX
8
1
10
8.591026
20
28.049599
0
VERTEX
8
1
10
8.656418
20
28.073467
0
VERTEX
8
1
10
8.722229
20
28.052631
0
VERTEX
8
1
10
8.784157
20
28.019890
0
VERTEX
8
1
10
8.842499
20
27.978077
0
VERTEX
8
1
10
8.897545
20
27.928108
42
-0.068983
0
VERTEX
8
1
10
9.134148
20
27.587811
42
-0.011824
0
VERTEX
8
1
10
9.371017
20
27.104271
42
0.036931
0
VERTEX
8
1
10
9.541962
20
26.811638
42
0.066762
0
VERTEX
8
1
10
9.673714
20
26.673111
42
0.141564
0
VERTEX
8
1
10
9.838264
20
26.608574
42
-0.054134
0
VERTEX
8
1
10
10.408470
20
26.495613
42
-0.088637
0
VERTEX
8
1
10
10.707405
20
26.334770
42
-0.217473
0
VERTEX
8
1
10
10.890869
20
25.943916
42
-0.059994
0
VERTEX
8
1
10
10.885414
20
25.814339
0
VERTEX
8
1
10
10.868759
20
25.731049
0
VERTEX
8
1
10
10.843369
20
25.621696
42
-0.008404
0
VERTEX
8
1
10
10.412575
20
24.050804
42
0.004244
0
VERTEX
8
1
10
9.892059
20
22.148827
42
0.014219
0
VERTEX
8
1
10
9.667648
20
21.178017
0
VERTEX
8
1
10
9.660271
20
21.102081
42
0.000527
0
VERTEX
8
1
10
10.783157
20
23.038261
42
-0.010688
0
VERTEX
8
1
10
10.971313
20
23.341293
0
VERTEX
8
1
10
10.988838
20
23.361900
42
-0.167516
0
VERTEX
8
1
10
11.128380
20
23.446877
0
VERTEX
8
1
10
11.147713
20
23.449165
0
VERTEX
8
1
10
11.167175
20
23.449684
42
-0.130250
0
VERTEX
8
1
10
11.445648
20
23.343254
42
-0.018552
0
VERTEX
8
1
10
11.546669
20
23.273346
42
0.193728
0
VERTEX
8
1
10
11.742195
20
23.248779
42
0.071959
0
VERTEX
8
1
10
12.013412
20
23.353287
42
0.000648
0
VERTEX
8
1
10
12.463051
20
23.606033
42
-0.046200
0
VERTEX
8
1
10
12.656822
20
23.685760
42
-0.073198
0
VERTEX
8
1
10
12.716881
20
23.691887
42
-0.087322
0
VERTEX
8
1
10
12.679054
20
23.490234
42
-0.021839
0
VERTEX
8
1
10
12.503723
20
23.054016
42
0.039757
0
VERTEX
8
1
10
12.383881
20
22.698570
42
0.096617
0
VERTEX
8
1
10
12.377174
20
22.484596
42
0.120070
0
VERTEX
8
1
10
12.452866
20
22.346642
42
-0.086682
0
VERTEX
8
1
10
12.589447
20
22.065025
0
VERTEX
8
1
10
12.593826
20
22.040596
42
-0.238178
0
VERTEX
8
1
10
12.531342
20
21.821434
0
VERTEX
8
1
10
12.517609
20
21.804268
42
-0.029535
0
VERTEX
8
1
10
12.293488
20
21.614975
42
-0.001826
0
VERTEX
8
1
10
10.895256
20
20.526711
0
VERTEX
8
1
10
10.328796
20
20.081367
0
VERTEX
8
1
10
10.440712
20
20.113884
42
-0.004945
0
VERTEX
8
1
10
13.794594
20
21.124908
0
VERTEX
8
1
10
14.048729
20
21.195518
42
-0.022072
0
VERTEX
8
1
10
14.570526
20
21.325615
42
-0.201087
0
VERTEX
8
1
10
14.950745
20
21.223289
42
-0.126258
0
VERTEX
8
1
10
15.147522
20
20.920586
0
VERTEX
8
1
10
15.168053
20
20.864494
42
-0.053221
0
VERTEX
8
1
10
15.282112
20
20.289665
0
VERTEX
8
1
10
15.292961
20
20.177216
42
0.157698
0
VERTEX
8
1
10
15.401657
20
19.952744
42
0.072273
0
VERTEX
8
1
10
15.703453
20
19.722313
42
0.000136
0
VERTEX
8
1
10
16.160446
20
19.463715
42
-0.067913
0
VERTEX
8
1
10
16.494667
20
19.209793
42
-0.122056
0
VERTEX
8
1
10
16.647903
20
18.952744
0
VERTEX
8
1
10
16.656067
20
18.878372
42
-0.128834
0
VERTEX
8
1
10
16.518158
20
18.614273
42
-0.080121
0
VERTEX
8
1
10
16.119698
20
18.310669
42
0.005555
0
VERTEX
8
1
10
15.667496
20
18.053467
42
0.084038
0
VERTEX
8
1
10
15.378113
20
17.817192
42
0.115560
0
VERTEX
8
1
10
15.297256
20
17.648682
0
VERTEX
8
1
10
15.287521
20
17.561958
42
-0.048687
0
VERTEX
8
1
10
15.179085
20
16.965729
42
-0.083169
0
VERTEX
8
1
10
15.027748
20
16.655762
42
-0.230929
0
VERTEX
8
1
10
14.665230
20
16.469215
42
-0.066189
0
VERTEX
8
1
10
14.541542
20
16.477661
0
VERTEX
8
1
10
14.437614
20
16.500854
42
-0.012245
0
VERTEX
8
1
10
13.462738
20
16.768913
42
-0.003817
0
VERTEX
8
1
10
10.515846
20
17.660957
0
VERTEX
8
1
10
10.488808
20
17.658035
42
-0.000278
0
VERTEX
8
1
10
12.030441
20
16.307701
42
-0.007392
0
VERTEX
8
1
10
12.246330
20
16.107826
42
-0.141086
0
VERTEX
8
1
10
12.334923
20
15.941803
42
-0.132481
0
VERTEX
8
1
10
12.312637
20
15.787704
42
-0.092986
0
VERTEX
8
1
10
12.134308
20
15.501160
42
0.192671
0
VERTEX
8
1
10
12.077599
20
15.288094
42
0.070103
0
VERTEX
8
1
10
12.142807
20
14.968178
42
0.006409
0
VERTEX
8
1
10
12.305756
20
14.505821
42
-0.031832
0
VERTEX
8
1
10
12.333122
20
14.391151
0
VERTEX
8
1
10
12.337181
20
14.385857
42
-0.185920
0
VERTEX
8
1
10
12.425079
20
14.417824
0
VERTEX
8
1
10
12.542625
20
14.419876
42
-0.304382
0
VERTEX
8
1
10
12.853485
20
14.143692
42
-0.115854
0
VERTEX
8
1
10
12.860641
20
13.805962
42
-0.050769
0
VERTEX
8
1
10
13.321289
20
14.108833
42
-0.061510
0
VERTEX
8
1
10
13.508972
20
14.173752
0
VERTEX
8
1
10
13.534164
20
14.175705
42
-0.389876
0
VERTEX
8
1
10
13.644524
20
14.102936
42
-0.076337
0
VERTEX
8
1
10
13.659142
20
13.962929
0
VERTEX
8
1
10
13.652214
20
13.695099
0
VERTEX
8
1
10
13.715073
20
13.694443
42
-0.142218
0
VERTEX
8
1
10
14.050545
20
13.603424
42
-0.229249
0
VERTEX
8
1
10
14.215515
20
13.311935
42
0.146838
0
VERTEX
8
1
10
14.330482
20
13.242630
42
0.348365
0
VERTEX
8
1
10
14.396477
20
13.294250
42
-0.046006
0
VERTEX
8
1
10
14.483856
20
13.518013
42
-0.041476
0
VERTEX
8
1
10
14.876648
20
14.224594
42
-0.078291
0
VERTEX
8
1
10
14.939262
20
14.294861
42
-0.183441
0
VERTEX
8
1
10
15.014687
20
14.303764
0
VERTEX
8
1
10
15.046944
20
14.300087
42
-0.105480
0
VERTEX
8
1
10
15.565285
20
14.074593
42
-0.263696
0
VERTEX
8
1
10
15.639488
20
13.917175
42
-0.102149
0
VERTEX
8
1
10
15.576057
20
13.628090
42
-0.100146
0
VERTEX
8
1
10
15.203133
20
13.040802
42
-0.118071
0
VERTEX
8
1
10
15.121658
20
13.003151
42
0.033540
0
VERTEX
8
1
10
14.971733
20
12.957047
0
VERTEX
8
1
10
14.950424
20
12.921082
42
0.109370
0
VERTEX
8
1
10
14.879288
20
12.629768
42
0.173423
0
VERTEX
8
1
10
14.961594
20
12.446167
42
0.038645
0
VERTEX
8
1
10
15.180031
20
12.237625
42
0.207852
0
VERTEX
8
1
10
15.344536
20
12.223106
42
0.091835
0
VERTEX
8
1
10
15.662582
20
12.396019
42
0.028025
0
VERTEX
8
1
10
16.105339
20
12.775078
42
-0.022854
0
VERTEX
8
1
10
16.316116
20
12.952950
42
-0.082289
0
SEQEND
0
POLYLINE
8
1
66
1
70
1
0
VERTEX
8
1
10
4.308922
20
11.033386
0
VERTEX
8
1
10
4.298050
20
11.050873
42
0.248062
0
VERTEX
8
1
10
4.095032
20
11.145683
42
0.140639
0
VERTEX
8
1
10
3.635139
20
10.607872
0
VERTEX
8
1
10
3.613197
20
10.558113
42
0.067442
0
VERTEX
8
1
10
3.592026
20
10.347290
42
0.169044
0
VERTEX
8
1
10
3.617493
20
10.291122
42
0.247812
0
VERTEX
8
1
10
3.659393
20
10.287735
42
0.116644
0
VERTEX
8
1
10
3.764679
20
10.363243
42
0.007010
0
VERTEX
8
1
10
4.168617
20
10.829231
42
-0.052089
0
VERTEX
8
1
10
4.285530
20
10.944855
0
VERTEX
8
1
10
4.299812
20
10.954193
0
VERTEX
8
1
10
4.314781
20
10.962379
42
0.229938
0
SEQEND
0
POLYLINE
8
1
66
1
70
1
0
VERTEX
8
1
10
12.299278
20
13.991753
42
0.187030
0
VERTEX
8
1
10
12.262383
20
13.863640
42
0.228206
0
VERTEX
8
1
10
12.305786
20
13.802353
42
0.267736
0
VERTEX
8
1
10
12.589371
20
13.799362
42
0.140590
0
VERTEX
8
1
10
12.645370
20
13.866310
42
0.087838
0
VERTEX
8
1
10
12.710663
20
14.013702
42
0.393777
0
VERTEX
8
1
10
12.646347
20
14.120163
42
0.103206
0
VERTEX
8
1
10
12.446892
20
14.142166
42
0.075852
0
SEQEND
0
POLYLINE
8
1
66
1
70
1
0
VERTEX
8
1
10
12.206192
20
13.540100
42
0.204026
0
VERTEX
8
1
10
12.076019
20
13.520592
0
VERTEX
8
1
10
12.067757
20
13.512253
42
0.045381
0
VERTEX
8
1
10
11.812241
20
12.924004
42
0.045148
0
VERTEX
8
1
10
11.777969
20
12.753922
42
0.298196
0
VERTEX
8
1
10
11.883179
20
12.580734
42
0.232938
0
VERTEX
8
1
10
12.006561
20
12.594856
42
0.097311
0
VERTEX
8
1
10
12.117981
20
12.694229
42
0.038792
0
VERTEX
8
1
10
12.472084
20
13.179199
42
0.066899
0
VERTEX
8
1
10
12.533684
20
13.326515
42
0.340907
0
VERTEX
8
1
10
12.500237
20
13.409096
42
0.123223
0
SEQEND
0
POLYLINE
8
1
66
1
70
1
0
VERTEX
8
1
10
9.878197
20
17.823502
0
VERTEX
8
1
10
9.633270
20
17.823494
0
VERTEX
8
1
10
9.632675
20
17.214195
42
-0.001877
0
VERTEX
8
1
10
10.360474
20
15.783554
0
VERTEX
8
1
10
10.366867
20
15.776772
42
-0.113732
0
VERTEX
8
1
10
10.544807
20
15.720978
42
-0.275790
0
VERTEX
8
1
10
10.571083
20
15.650818
0
VERTEX
8
1
10
10.521797
20
15.472626
0
VERTEX
8
1
10
10.530861
20
15.446701
42
0.003472
0
VERTEX
8
1
10
10.795792
20
14.930969
0
VERTEX
8
1
10
10.803017
20
14.929863
42
0.049739
0
VERTEX
8
1
10
10.990524
20
15.034126
42
-0.174281
0
VERTEX
8
1
10
11.290771
20
15.077019
42
-0.088959
0
VERTEX
8
1
10
11.721542
20
14.898422
42
-0.012320
0
VERTEX
8
1
10
11.869614
20
14.806030
0
VERTEX
8
1
10
11.896141
20
14.801643
42
-0.045876
0
VERTEX
8
1
10
11.757820
20
15.307610
42
-0.100802
0
VERTEX
8
1
10
11.767059
20
15.634094
42
-0.124218
0
VERTEX
8
1
10
11.879410
20
15.841591
42
0.038402
0
VERTEX
8
1
10
11.972221
20
15.977493
0
VERTEX
8
1
10
11.949493
20
16.000198
42
0.002272
0
VERTEX
8
1
10
10.488129
20
17.280487
42
-0.003057
0
SEQEND
0
POLYLINE
8
1
66
1
70
1
0
VERTEX
8
1
10
9.869682
20
15.588997
42
-0.095108
0
VERTEX
8
1
10
9.888100
20
15.759979
0
VERTEX
8
1
10
9.894577
20
15.769409
0
VERTEX
8
1
10
9.902649
20
15.777519
0
VERTEX
8
1
10
10.044182
20
15.786057
0
VERTEX
8
1
10
10.048828
20
15.787628
0
VERTEX
8
1
10
9.632675
20
16.609306
0
VERTEX
8
1
10
9.632675
20
12.769829
0
VERTEX
8
1
10
9.716263
20
13.185844
0
VERTEX
8
1
10
9.723297
20
13.230148
42
0.014488
0
VERTEX
8
1
10
9.899712
20
15.007156
42
0.061504
0
VERTEX
8
1
10
9.891418
20
15.293198
42
-0.014240
0
SEQEND
0
POLYLINE
8
1
66
1
70
1
0
VERTEX
8
1
10
8.929535
20
18.335083
42
-0.150814
0
VERTEX
8
1
10
8.977943
20
18.484589
42
-0.167841
0
VERTEX
8
1
10
9.081833
20
18.550209
0
VERTEX
8
1
10
9.132240
20
18.558815
0
VERTEX
8
1
10
9.191437
20
18.559410
42
-0.086516
0
VERTEX
8
1
10
9.524628
20
18.464828
0
VERTEX
8
1
10
9.786385
20
18.344482
42
0.063975
0
VERTEX
8
1
10
10.039360
20
18.266907
42
0.207588
0
VERTEX
8
1
10
10.337242
20
18.346031
42
0.127198
0
VERTEX
8
1
10
10.412804
20
18.471115
42
-0.014924
0
VERTEX
8
1
10
10.499199
20
18.678215
0
VERTEX
8
1
10
10.517830
20
18.709488
42
-0.195062
0
VERTEX
8
1
10
10.712669
20
18.865974
42
0.025451
0
VERTEX
8
1
10
10.729080
20
18.865959
0
VERTEX
8
1
10
10.717094
20
18.870972
42
0.029251
0
VERTEX
8
1
10
10.729668
20
18.875519
0
VERTEX
8
1
10
10.706963
20
18.874557
42
-0.198331
0
VERTEX
8
1
10
10.500916
20
19.072601
42
-0.044072
0
VERTEX
8
1
10
10.419823
20
19.278137
42
0.065731
0
VERTEX
8
1
10
10.351166
20
19.413956
0
VERTEX
8
1
10
10.293816
20
19.457344
42
0.173480
0
VERTEX
8
1
10
10.054459
20
19.511375
0
VERTEX
8
1
10
9.992447
20
19.501305
42
0.056297
0
VERTEX
8
1
10
9.672356
20
19.372406
42
-0.045555
0
VERTEX
8
1
10
9.329369
20
19.224663
42
-0.072534
0
VERTEX
8
1
10
9.145882
20
19.199615
0
VERTEX
8
1
10
9.093384
20
19.206741
42
-0.312322
0
VERTEX
8
1
10
8.938385
20
19.370766
0
VERTEX
8
1
10
8.933105
20
19.399841
42
-0.158479
0
VERTEX
8
1
10
9.023659
20
19.788971
42
0.143349
0
VERTEX
8
1
10
9.203690
20
20.238106
42
0.162383
0
VERTEX
8
1
10
9.090935
20
20.869141
0
VERTEX
8
1
10
9.052650
20
20.925774
42
0.279394
0
VERTEX
8
1
10
8.587730
20
21.117165
42
0.194238
0
VERTEX
8
1
10
8.277245
20
20.938316
42
0.106009
0
VERTEX
8
1
10
8.143280
20
20.659523
42
0.177250
0
VERTEX
8
1
10
8.208923
20
19.924095
42
0.048844
0
VERTEX
8
1
10
8.292358
20
19.794777
42
-0.167554
0
VERTEX
8
1
10
8.385262
20
19.386726
42
-0.297364
0
VERTEX
8
1
10
8.238304
20
19.209732
0
VERTEX
8
1
10
8.187920
20
19.200600
42
-0.103702
0
VERTEX
8
1
10
7.940582
20
19.241013
42
-0.041904
0
VERTEX
8
1
10
7.665321
20
19.364250
42
0.030040
0
VERTEX
8
1
10
7.395683
20
19.482506
0
VERTEX
8
1
10
7.357841
20
19.493378
42
0.205680
0
VERTEX
8
1
10
7.040543
20
19.465973
0
VERTEX
8
1
10
6.982925
20
19.425964
42
0.124315
0
VERTEX
8
1
10
6.907181
20
19.293282
42
-0.014364
0
VERTEX
8
1
10
6.820793
20
19.074089
0
VERTEX
8
1
10
6.802116
20
19.040955
42
-0.182599
0
VERTEX
8
1
10
6.611900
20
18.874603
42
0.033878
0
VERTEX
8
1
10
6.590958
20
18.874931
0
VERTEX
8
1
10
6.602943
20
18.870155
0
VERTEX
8
1
10
6.589134
20
18.865273
0
VERTEX
8
1
10
6.614052
20
18.866394
42
-0.196467
0
VERTEX
8
1
10
6.819260
20
18.679474
42
-0.045650
0
VERTEX
8
1
10
6.900307
20
18.485321
42
0.067661
0
VERTEX
8
1
10
6.968735
20
18.357384
42
0.211443
0
VERTEX
8
1
10
7.265427
20
18.265228
42
0.078022
0
VERTEX
8
1
10
7.582390
20
18.366173
42
-0.028226
0
VERTEX
8
1
10
7.943939
20
18.522141
42
-0.086323
0
VERTEX
8
1
10
8.174026
20
18.559738
0
VERTEX
8
1
10
8.226547
20
18.553032
42
-0.313709
0
VERTEX
8
1
10
8.381622
20
18.398232
0
VERTEX
8
1
10
8.386909
20
18.370789
42
-0.167476
0
VERTEX
8
1
10
8.296410
20
18.003052
42
0.154886
0
VERTEX
8
1
10
8.113289
20
17.554329
42
0.118138
0
VERTEX
8
1
10
8.163185
20
17.118668
0
VERTEX
8
1
10
8.194031
20
17.045631
0
VERTEX
8
1
10
8.229034
20
16.982742
42
0.288018
0
VERTEX
8
1
10
8.701263
20
16.745316
42
0.236828
0
VERTEX
8
1
10
9.081696
20
16.968513
0
VERTEX
8
1
10
9.117615
20
17.028984
42
0.131891
0
VERTEX
8
1
10
9.211319
20
17.506294
42
0.131606
0
VERTEX
8
1
10
9.072357
20
17.938751
0
VERTEX
8
1
10
9.050758
20
17.968689
0
VERTEX
8
1
10
9.027687
20
17.997505
42
-0.149237
0
SEQEND
0
POLYLINE
8
1
66
1
70
1
0
VERTEX
8
1
10
8.427292
20
8.750778
0
VERTEX
8
1
10
8.433807
20
8.745445
0
VERTEX
8
1
10
8.437355
20
8.748489
0
VERTEX
8
1
10
8.437347
20
16.510582
42
-0.213727
0
VERTEX
8
1
10
8.070618
20
16.757988
42
-0.092530
0
VERTEX
8
1
10
7.937355
20
17.069405
0
VERTEX
8
1
10
7.937355
20
13.809364
42
-0.103539
0
VERTEX
8
1
10
8.219261
20
13.698517
42
-0.226644
0
VERTEX
8
1
10
8.310310
20
13.538681
42
-0.134215
0
VERTEX
8
1
10
8.273003
20
13.419693
42
0.031449
0
VERTEX
8
1
10
8.085770
20
12.982132
42
0.005929
0
VERTEX
8
1
10
7.937355
20
12.585991
0
VERTEX
8
1
10
7.938187
20
11.149925
42
-0.029739
0
VERTEX
8
1
10
8.127296
20
10.928558
42
-0.143102
0
VERTEX
8
1
10
8.209930
20
10.643311
42
-0.046352
0
VERTEX
8
1
10
8.193024
20
10.314980
42
0.033866
0
VERTEX
8
1
10
8.209587
20
9.511703
42
0.009068
0
VERTEX
8
1
10
8.256264
20
8.983047
42
0.102705
0
SEQEND
0
POLYLINE
8
1
66
1
70
1
0
VERTEX
8
1
10
8.061089
20
24.704704
42
-0.136968
0
VERTEX
8
1
10
8.154305
20
24.277214
42
-0.075013
0
VERTEX
8
1
10
8.344864
20
24.635193
42
-0.069044
0
VERTEX
8
1
10
8.470535
20
24.752007
42
0.153504
0
VERTEX
8
1
10
8.718063
20
25.109848
42
0.181529
0
VERTEX
8
1
10
8.708336
20
25.263268
0
VERTEX
8
1
10
8.699280
20
25.278816
0
VERTEX
8
1
10
8.679764
20
25.301445
0
VERTEX
8
1
10
8.633919
20
25.316483
0
VERTEX
8
1
10
8.608192
20
25.323112
42
0.326622
0
VERTEX
8
1
10
8.285538
20
25.195580
42
0.237750
0
VERTEX
8
1
10
8.152031
20
25.319527
0
VERTEX
8
1
10
8.127625
20
25.327187
0
VERTEX
8
1
10
8.102661
20
25.332733
42
0.316484
0
VERTEX
8
1
10
7.906967
20
25.251236
42
0.320321
0
VERTEX
8
1
10
7.892868
20
24.896164
42
0.084723
0
VERTEX
8
1
10
7.947548
20
24.841316
42
-0.088811
0
SEQEND
0
POLYLINE
8
1
66
1
70
1
0
VERTEX
8
1
10
9.097298
20
23.317513
42
-0.135783
0
VERTEX
8
1
10
9.279640
20
23.555389
0
VERTEX
8
1
10
9.295296
20
23.573853
42
0.427754
0
VERTEX
8
1
10
9.213127
20
24.003052
42
0.198123
0
VERTEX
8
1
10
9.074661
20
24.014565
42
0.263885
0
VERTEX
8
1
10
8.908424
20
23.880882
42
0.321878
0
VERTEX
8
1
10
8.593231
20
24.009880
42
0.081232
0
VERTEX
8
1
10
8.507126
20
23.979691
0
VERTEX
8
1
10
8.495903
20
23.965851
0
VERTEX
8
1
10
8.486427
20
23.950760
42
0.202418
0
VERTEX
8
1
10
8.484650
20
23.765579
42
0.154697
0
VERTEX
8
1
10
8.764359
20
23.406708
42
-0.100210
0
VERTEX
8
1
10
8.946220
20
23.170738
42
-0.037661
0
VERTEX
8
1
10
9.039825
20
22.962288
42
-0.106602
0
SEQEND
0
POLYLINE
8
1
66
1
70
1
0
VERTEX
8
1
10
13.400208
20
20.732101
42
0.003810
0
VERTEX
8
1
10
10.245964
20
19.773026
42
-0.295708
0
VERTEX
8
1
10
10.645943
20
19.382790
0
VERTEX
8
1
10
10.671211
20
19.352547
42
-0.006702
0
VERTEX
8
1
10
14.325417
20
20.439598
0
VERTEX
8
1
10
14.436714
20
20.469582
0
VERTEX
8
1
10
14.492500
20
20.482704
42
-0.032689
0
VERTEX
8
1
10
14.551826
20
20.049530
42
0.174188
0
VERTEX
8
1
10
14.924065
20
19.327827
42
0.057259
0
VERTEX
8
1
10
15.270729
20
19.060013
42
0.017673
0
VERTEX
8
1
10
15.514542
20
18.917038
0
VERTEX
8
1
10
15.535591
20
18.892723
42
0.044171
0
VERTEX
8
1
10
15.029732
20
18.566414
42
0.106455
0
VERTEX
8
1
10
14.659225
20
18.109909
42
0.094122
0
VERTEX
8
1
10
14.544746
20
17.680428
42
-0.032112
0
VERTEX
8
1
10
14.493408
20
17.319496
0
VERTEX
8
1
10
14.468803
20
17.319969
42
-0.008688
0
VERTEX
8
1
10
13.213699
20
17.679398
42
-0.003415
0
VERTEX
8
1
10
10.720589
20
18.436356
42
0.109110
0
VERTEX
8
1
10
10.633286
20
18.332687
42
0.022989
0
VERTEX
8
1
10
10.549095
20
18.176270
42
-0.279511
0
VERTEX
8
1
10
10.313324
20
18.041603
42
-0.051312
0
VERTEX
8
1
10
10.179352
20
18.048035
0
VERTEX
8
1
10
10.255981
20
18.021355
42
0.005255
0
VERTEX
8
1
10
13.973106
20
16.900528
0
VERTEX
8
1
10
14.196556
20
16.839081
42
0.024213
0
VERTEX
8
1
10
14.602463
20
16.738899
42
0.166111
0
VERTEX
8
1
10
14.783722
20
16.777504
42
0.128211
0
VERTEX
8
1
10
14.874298
20
16.888405
42
0.072283
0
VERTEX
8
1
10
14.966034
20
17.140068
42
0.043969
0
VERTEX
8
1
10
15.046249
20
17.665649
42
-0.167279
0
VERTEX
8
1
10
15.242683
20
18.054558
42
-0.073389
0
VERTEX
8
1
10
15.589714
20
18.314484
0
VERTEX
8
1
10
15.685593
20
18.370766
0
VERTEX
8
1
10
15.782417
20
18.425392
42
0.042267
0
VERTEX
8
1
10
16.239456
20
18.706062
42
0.114762
0
VERTEX
8
1
10
16.398567
20
18.895142
0
VERTEX
8
1
10
16.393753
20
18.913719
42
0.118099
0
VERTEX
8
1
10
16.235992
20
19.093109
42
0.048356
0
VERTEX
8
1
10
15.904312
20
19.305771
42
-0.007806
0
VERTEX
8
1
10
15.512383
20
19.529823
42
-0.059833
0
VERTEX
8
1
10
15.222122
20
19.763908
42
-0.163398
0
VERTEX
8
1
10
15.043518
20
20.157043
42
0.051223
0
VERTEX
8
1
10
14.942146
20
20.746994
0
VERTEX
8
1
10
14.927795
20
20.788696
0
VERTEX
8
1
10
14.911758
20
20.829781
42
0.107888
0
VERTEX
8
1
10
14.804291
20
21.005318
0
VERTEX
8
1
10
14.789040
20
21.017487
42
0.201569
0
VERTEX
8
1
10
14.577698
20
21.054939
0
VERTEX
8
1
10
14.521774
20
21.043144
0
VERTEX
8
1
10
14.449448
20
21.025948
42
0.009025
0
SEQEND
0
POLYLINE
8
1
66
1
70
1
0
VERTEX
8
1
10
12.819519
20
18.731461
42
-0.135768
0
VERTEX
8
1
10
13.001862
20
18.969330
0
VERTEX
8
1
10
13.017517
20
18.987793
42
0.427769
0
VERTEX
8
1
10
12.935341
20
19.416992
42
0.198125
0
VERTEX
8
1
10
12.796883
20
19.428505
42
0.263869
0
VERTEX
8
1
10
12.630653
20
19.294823
42
0.321901
0
VERTEX
8
1
10
12.315453
20
19.423828
42
0.081285
0
VERTEX
8
1
10
12.229347
20
19.393631
0
VERTEX
8
1
10
12.218124
20
19.379791
0
VERTEX
8
1
10
12.208649
20
19.364700
42
0.202339
0
VERTEX
8
1
10
12.206871
20
19.179527
42
0.154705
0
VERTEX
8
1
10
12.486580
20
18.820648
42
-0.100210
0
VERTEX
8
1
10
12.668442
20
18.584679
42
-0.037661
0
VERTEX
8
1
10
12.762047
20
18.376228
42
-0.106597
0
SEQEND
0
POLYLINE
8
1
66
1
70
1
0
VERTEX
8
1
10
14.203072
20
18.242882
42
-0.131140
0
VERTEX
8
1
10
14.399460
20
18.507149
0
VERTEX
8
1
10
14.433189
20
18.541359
42
0.338710
0
VERTEX
8
1
10
14.431122
20
18.972183
0
VERTEX
8
1
10
14.413589
20
18.994209
42
0.313096
0
VERTEX
8
1
10
14.180717
20
19.069382
42
0.257908
0
VERTEX
8
1
10
13.979713
20
18.910797
42
0.326068
0
VERTEX
8
1
10
13.600487
20
19.061554
42
0.076823
0
VERTEX
8
1
10
13.505844
20
19.027878
42
0.218115
0
VERTEX
8
1
10
13.458626
20
18.869850
42
0.123610
0
VERTEX
8
1
10
13.560165
20
18.607758
42
0.099644
0
VERTEX
8
1
10
13.823837
20
18.337547
42
-0.089461
0
VERTEX
8
1
10
14.018105
20
18.082153
42
-0.039675
0
VERTEX
8
1
10
14.135445
20
17.823509
42
-0.106427
0
SEQEND
0
POLYLINE
8
1
66
1
70
1
0
VERTEX
8
1
10
9.648743
20
20.541000
0
VERTEX
8
1
10
9.621117
20
20.484810
42
0.025856
0
VERTEX
8
1
10
9.632790
20
19.974617
0
VERTEX
8
1
10
9.748108
20
19.974617
42
-0.009337
0
VERTEX
8
1
10
11.221886
20
21.140144
42
0.002545
0
VERTEX
8
1
10
12.229874
20
21.927475
42
0.044804
0
VERTEX
8
1
10
12.103249
20
22.127007
42
-0.138229
0
VERTEX
8
1
10
12.031143
20
22.392342
42
-0.074946
0
VERTEX
8
1
10
12.064507
20
22.668106
42
-0.043978
0
VERTEX
8
1
10
12.212021
20
23.097313
0
VERTEX
8
1
10
12.207001
20
23.115585
42
-0.059885
0
VERTEX
8
1
10
11.734810
20
22.897560
42
-0.127669
0
VERTEX
8
1
10
11.422737
20
22.880020
42
-0.113944
0
VERTEX
8
1
10
11.248703
20
22.967430
42
0.046749
0
VERTEX
8
1
10
11.113373
20
23.048965
0
VERTEX
8
1
10
11.097420
20
23.024628
42
0.001251
0
VERTEX
8
1
10
9.980469
20
21.100189
0
VERTEX
8
1
10
9.815239
20
20.820221
0
SEQEND
0
POLYLINE
8
1
66
1
70
1
0
VERTEX
8
1
10
7.653625
20
22.278351
42
-0.018833
0
VERTEX
8
1
10
7.907036
20
21.174011
42
-0.037550
0
VERTEX
8
1
10
7.939651
20
20.858818
42
-0.090085
0
VERTEX
8
1
10
8.110779
20
21.272171
42
-0.146972
0
VERTEX
8
1
10
8.299232
20
21.427322
0
VERTEX
8
1
10
8.321335
20
21.434067
0
VERTEX
8
1
10
8.343903
20
21.439079
0
VERTEX
8
1
10
8.362038
20
21.467117
42
0.014654
0
VERTEX
8
1
10
8.068016
20
22.679283
42
0.002263
0
VERTEX
8
1
10
7.357750
20
25.237961
0
VERTEX
8
1
10
7.288857
20
25.492706
0
VERTEX
8
1
10
7.221291
20
25.747810
0
VERTEX
8
1
10
7.228508
20
25.752937
42
-0.036209
0
VERTEX
8
1
10
7.597862
20
25.810593
42
0.165647
0
VERTEX
8
1
10
8.189453
20
26.106728
42
0.070029
0
VERTEX
8
1
10
8.474686
20
26.476982
42
0.026959
0
VERTEX
8
1
10
8.647614
20
26.800911
0
VERTEX
8
1
10
8.671478
20
26.802872
42
0.054680
0
VERTEX
8
1
10
8.999199
20
26.252060
0
VERTEX
8
1
10
9.037354
20
26.206268
0
VERTEX
8
1
10
9.077118
20
26.161873
0
VERTEX
8
1
10
9.118439
20
26.118919
42
0.184561
0
VERTEX
8
1
10
9.782364
20
25.803963
42
-0.041729
0
VERTEX
8
1
10
10.099136
20
25.749290
42
-0.005458
0
VERTEX
8
1
10
9.610420
20
23.985214
42
0.007060
0
VERTEX
8
1
10
9.075653
20
21.992645
42
0.008649
0
VERTEX
8
1
10
8.953552
20
21.442024
42
-0.188703
0
VERTEX
8
1
10
9.192329
20
21.326797
42
-0.127865
0
VERTEX
8
1
10
9.361305
20
21.012146
0
VERTEX
8
1
10
9.375275
20
20.956787
0
VERTEX
8
1
10
9.383865
20
20.940681
42
-0.036357
0
VERTEX
8
1
10
9.493370
20
21.573700
42
-0.012201
0
VERTEX
8
1
10
9.962524
20
23.370407
42
0.000065
0
VERTEX
8
1
10
10.492897
20
25.271965
42
0.005031
0
VERTEX
8
1
10
10.621048
20
25.769386
0
VERTEX
8
1
10
10.629112
20
25.806915
42
0.184637
0
VERTEX
8
1
10
10.607300
20
26.059250
42
0.134954
0
VERTEX
8
1
10
10.499802
20
26.161583
42
0.074545
0
VERTEX
8
1
10
10.279602
20
26.255630
42
0.039196
0
VERTEX
8
1
10
9.979813
20
26.320358
0
VERTEX
8
1
10
9.784470
20
26.344353
42
-0.177797
0
VERTEX
8
1
10
9.432953
20
26.539673
42
-0.065287
0
VERTEX
8
1
10
9.228745
20
26.829849
42
-0.009555
0
VERTEX
8
1
10
8.949539
20
27.393219
42
0.031899
0
VERTEX
8
1
10
8.795677
20
27.651356
42
0.092951
0
VERTEX
8
1
10
8.658531
20
27.785564
42
0.108603
0
VERTEX
8
1
10
8.492241
20
27.603203
42
0.035258
0
VERTEX
8
1
10
8.344376
20
27.340828
0
VERTEX
8
1
10
8.154861
20
26.949562
42
-0.059078
0
VERTEX
8
1
10
7.911079
20
26.564980
42
-0.128361
0
VERTEX
8
1
10
7.629723
20
26.366524
42
-0.069593
0
VERTEX
8
1
10
7.450043
20
26.335571
42
0.049047
0
VERTEX
8
1
10
6.977898
20
26.236298
42
0.075389
0
VERTEX
8
1
10
6.776443
20
26.131111
42
0.231281
0
VERTEX
8
1
10
6.679932
20
25.943344
42
0.108865
0
VERTEX
8
1
10
6.692062
20
25.801643
42
0.008215
0
VERTEX
8
1
10
6.733025
20
25.629791
42
0.005917
0
VERTEX
8
1
10
7.256004
20
23.739777
42
-0.003567
0
SEQEND
0
POLYLINE
8
1
66
1
70
1
0
VERTEX
8
1
10
7.358864
20
20.149956
0
VERTEX
8
1
10
7.572830
20
19.974617
0
VERTEX
8
1
10
7.687378
20
19.974747
42
0.025196
0
VERTEX
8
1
10
7.699348
20
20.249390
0
VERTEX
8
1
10
7.699059
20
20.474091
0
VERTEX
8
1
10
7.678230
20
20.529510
42
-0.004302
0
VERTEX
8
1
10
6.421425
20
22.686310
0
VERTEX
8
1
10
6.314911
20
22.868080
0
VERTEX
8
1
10
6.207741
20
23.049461
42
0.049739
0
VERTEX
8
1
10
6.017899
20
22.929626
42
-0.170763
0
VERTEX
8
1
10
5.728271
20
22.869751
42
-0.075191
0
VERTEX
8
1
10
5.446770
20
22.946823
42
-0.040256
0
VERTEX
8
1
10
5.121445
20
23.110771
0
VERTEX
8
1
10
5.104134
20
23.106644
42
-0.046087
0
VERTEX
8
1
10
5.268860
20
22.612793
42
-0.080268
0
VERTEX
8
1
10
5.282639
20
22.313797
42
-0.139604
0
VERTEX
8
1
10
5.175644
20
22.068207
42
0.043622
0
VERTEX
8
1
10
5.090698
20
21.928604
0
VERTEX
8
1
10
5.112175
20
21.909798
42
0.001549
0
VERTEX
8
1
10
6.792221
20
20.600983
0
VERTEX
8
1
10
7.076126
20
20.376205
0
SEQEND
0
POLYLINE
8
1
66
1
70
1
0
VERTEX
8
1
10
3.911728
20
17.063408
42
0.003741
0
VERTEX
8
1
10
7.047653
20
18.016243
42
-0.124442
0
VERTEX
8
1
10
6.913651
20
18.039619
42
-0.145699
0
VERTEX
8
1
10
6.844688
20
18.116020
0
VERTEX
8
1
10
6.826668
20
18.146751
0
VERTEX
8
1
10
6.810242
20
18.178375
42
0.134363
0
VERTEX
8
1
10
6.610489
20
18.440147
42
-0.005575
0
VERTEX
8
1
10
3.149284
20
17.400993
0
VERTEX
8
1
10
2.988708
20
17.356956
0
VERTEX
8
1
10
2.827866
20
17.313927
42
-0.033712
0
VERTEX
8
1
10
2.774788
20
17.686264
42
0.179451
0
VERTEX
8
1
10
2.426857
20
18.439186
42
0.062324
0
VERTEX
8
1
10
2.079254
20
18.718529
42
0.021232
0
VERTEX
8
1
10
1.772987
20
18.899086
42
0.047334
0
VERTEX
8
1
10
2.296165
20
19.236794
42
0.106398
0
VERTEX
8
1
10
2.658096
20
19.682571
42
0.094027
0
VERTEX
8
1
10
2.774788
20
20.111938
42
-0.033320
0
VERTEX
8
1
10
2.827881
20
20.484055
42
-0.008477
0
VERTEX
8
1
10
4.743423
20
19.928772
42
-0.002222
0
VERTEX
8
1
10
6.592438
20
19.363586
42
0.325574
0
VERTEX
8
1
10
6.726784
20
19.425865
42
0.030627
0
VERTEX
8
1
10
6.795280
20
19.583191
42
-0.081077
0
VERTEX
8
1
10
6.890388
20
19.704086
42
-0.036064
0
VERTEX
8
1
10
6.996475
20
19.797813
42
0.005163
0
VERTEX
8
1
10
3.328033
20
20.902779
42
0.005391
0
VERTEX
8
1
10
2.832314
20
21.035431
42
0.046996
0
VERTEX
8
1
10
2.679596
20
21.061211
0
VERTEX
8
1
10
2.655342
20
21.059639
42
0.255454
0
VERTEX
8
1
10
2.469536
20
20.949730
42
0.082578
0
VERTEX
8
1
10
2.364594
20
20.698700
42
0.038571
0
VERTEX
8
1
10
2.299385
20
20.367813
0
VERTEX
8
1
10
2.271721
20
20.117844
42
-0.172488
0
VERTEX
8
1
10
2.051315
20
19.717522
42
-0.067252
0
VERTEX
8
1
10
1.728348
20
19.482544
0
VERTEX
8
1
10
1.629845
20
19.424774
0
VERTEX
8
1
10
1.530380
20
19.368683
42
0.042065
0
VERTEX
8
1
10
1.084045
20
19.094925
42
0.119132
0
VERTEX
8
1
10
0.919853
20
18.899063
42
0.134783
0
VERTEX
8
1
10
1.096718
20
18.695015
42
0.039749
0
VERTEX
8
1
10
1.346771
20
18.530869
0
VERTEX
8
1
10
1.711197
20
18.326668
42
-0.058907
0
VERTEX
8
1
10
2.061279
20
18.072586
42
-0.148904
0
VERTEX
8
1
10
2.267006
20
17.707649
0
VERTEX
8
1
10
2.272972
20
17.672249
42
0.047771
0
VERTEX
8
1
10
2.374374
20
17.062256
42
0.077289
0
VERTEX
8
1
10
2.482872
20
16.829361
42
0.236538
0
VERTEX
8
1
10
2.658043
20
16.738937
0
VERTEX
8
1
10
2.703896
20
16.737114
42
0.032844
0
VERTEX
8
1
10
2.868553
20
16.771629
42
0.009114
0
SEQEND
0
POLYLINE
8
1
66
1
70
1
0
VERTEX
8
1
10
4.422195
20
18.804070
42
-0.136992
0
VERTEX
8
1
10
4.515419
20
18.376579
42
-0.074369
0
VERTEX
8
1
10
4.706871
20
18.736351
42
-0.072495
0
VERTEX
8
1
10
4.833092
20
18.852188
42
0.152243
0
VERTEX
8
1
10
5.079170
20
19.209221
42
0.181557
0
VERTEX
8
1
10
5.069443
20
19.362625
0
VERTEX
8
1
10
5.060387
20
19.378174
0
VERTEX
8
1
10
5.040871
20
19.400818
0
VERTEX
8
1
10
4.995026
20
19.415855
0
VERTEX
8
1
10
4.969299
20
19.422485
42
0.326579
0
VERTEX
8
1
10
4.646652
20
19.294952
42
0.237799
0
VERTEX
8
1
10
4.513138
20
19.418892
0
VERTEX
8
1
10
4.488739
20
19.426552
0
VERTEX
8
1
10
4.463776
20
19.432098
42
0.316455
0
VERTEX
8
1
10
4.268082
20
19.350609
42
0.320321
0
VERTEX
8
1
10
4.253983
20
18.995537
42
0.084723
0
VERTEX
8
1
10
4.308662
20
18.940689
42
-0.088816
0
SEQEND
0
POLYLINE
8
1
66
1
70
1
0
VERTEX
8
1
10
3.022339
20
18.345497
42
-0.133758
0
VERTEX
8
1
10
3.143234
20
17.867241
0
VERTEX
8
1
10
3.141907
20
17.823616
42
-0.077093
0
VERTEX
8
1
10
3.377441
20
18.260223
42
-0.068951
0
VERTEX
8
1
10
3.515839
20
18.385017
42
0.134527
0
VERTEX
8
1
10
3.796059
20
18.764740
42
0.149919
0
VERTEX
8
1
10
3.809540
20
18.961479
42
0.100184
0
VERTEX
8
1
10
3.775169
20
19.023834
0
VERTEX
8
1
10
3.738243
20
19.044754
0
VERTEX
8
1
10
3.689682
20
19.058525
0
VERTEX
8
1
10
3.661842
20
19.064529
42
0.315518
0
VERTEX
8
1
10
3.297310
20
18.910423
42
0.245707
0
VERTEX
8
1
10
3.127701
20
19.061150
0
VERTEX
8
1
10
3.103989
20
19.067810
0
VERTEX
8
1
10
3.079857
20
19.072746
42
0.292459
0
VERTEX
8
1
10
2.862144
20
18.993141
42
0.298235
0
VERTEX
8
1
10
2.810585
20
18.591858
42
0.114079
0
VERTEX
8
1
10
2.895432
20
18.493027
42
-0.082760
0
SEQEND
0
POLYLINE
8
1
66
1
70
1
0
VERTEX
8
1
10
7.682007
20
17.203407
0
VERTEX
8
1
10
7.687355
20
17.216240
0
VERTEX
8
1
10
7.686775
20
17.823502
0
VERTEX
8
1
10
7.442314
20
17.823502
42
-0.003250
0
VERTEX
8
1
10
5.622063
20
16.223450
0
VERTEX
8
1
10
5.484306
20
16.101463
0
VERTEX
8
1
10
5.347008
20
15.978958
42
0.050119
0
VERTEX
8
1
10
5.477333
20
15.797180
42
-0.144468
0
VERTEX
8
1
10
5.569931
20
15.531754
42
-0.081872
0
VERTEX
8
1
10
5.542244
20
15.201027
42
-0.036114
0
VERTEX
8
1
10
5.424805
20
14.804214
0
VERTEX
8
1
10
5.442795
20
14.801056
42
-0.053846
0
VERTEX
8
1
10
5.875801
20
15.035034
42
-0.123833
0
VERTEX
8
1
10
6.190132
20
15.079910
42
-0.125493
0
VERTEX
8
1
10
6.380783
20
15.001999
42
0.045936
0
VERTEX
8
1
10
6.517929
20
14.929504
0
VERTEX
8
1
10
6.525925
20
14.934143
42
0.001084
0
VERTEX
8
1
10
7.577209
20
17.000282
0
SEQEND
0
POLYLINE
8
1
66
1
70
1
0
VERTEX
8
1
10
7.433662
20
10.933609
42
-0.036802
0
VERTEX
8
1
10
7.687355
20
11.153214
0
VERTEX
8
1
10
7.687347
20
11.898941
0
VERTEX
8
1
10
7.678635
20
11.877098
42
-0.004750
0
VERTEX
8
1
10
7.332832
20
10.930702
0
VERTEX
8
1
10
7.284927
20
10.813110
42
0.050918
0
SEQEND
0
POLYLINE
8
1
66
1
70
1
0
VERTEX
8
1
10
10.336929
20
2.239716
42
0.004724
0
VERTEX
8
1
10
9.382721
20
4.479553
0
VERTEX
8
1
10
9.382683
20
7.968605
42
-0.182129
0
VERTEX
8
1
10
9.244446
20
8.287003
42
-0.075216
0
VERTEX
8
1
10
9.255363
20
8.509415
42
-0.169846
0
VERTEX
8
1
10
9.379959
20
8.684738
0
VERTEX
8
1
10
9.382683
20
8.698792
0
VERTEX
8
1
10
9.382668
20
17.048561
0
VERTEX
8
1
10
8.883049
20
16.511223
0
VERTEX
8
1
10
8.882912
20
4.357285
42
-0.006250
0
VERTEX
8
1
10
9.952950
20
1.842743
0
VERTEX
8
1
10
9.952019
20
1.833694
0
VERTEX
8
1
10
9.769768
20
1.819885
42
0.167877
0
VERTEX
8
1
10
9.062759
20
1.508690
42
0.048875
0
VERTEX
8
1
10
8.798187
20
1.229568
0
VERTEX
8
1
10
8.659721
20
1.052612
0
VERTEX
8
1
10
8.617279
20
1.107224
0
VERTEX
8
1
10
8.574623
20
1.161667
0
VERTEX
8
1
10
8.531754
20
1.215942
42
0.096735
0
VERTEX
8
1
10
8.026489
20
1.674789
42
0.120908
0
VERTEX
8
1
10
7.495674
20
1.823486
0
VERTEX
8
1
10
7.366165
20
1.833870
0
VERTEX
8
1
10
7.375916
20
1.864487
42
-0.006579
0
VERTEX
8
1
10
8.436729
20
4.356400
0
VERTEX
8
1
10
8.437355
20
8.327957
42
-0.004823
0
VERTEX
8
1
10
8.129990
20
8.569412
42
-0.097107
0
VERTEX
8
1
10
8.078354
20
8.690353
0
VERTEX
8
1
10
8.064293
20
8.750740
0
VERTEX
8
1
10
8.052612
20
8.811638
42
-0.024509
0
VERTEX
8
1
10
8.005646
20
9.368103
42
-0.009310
0
VERTEX
8
1
10
7.976425
20
10.650238
42
0.029750
0
VERTEX
8
1
10
7.938370
20
10.709671
0
VERTEX
8
1
10
7.937355
20
10.703735
0
VERTEX
8
1
10
7.936661
20
4.478027
42
0.006499
0
VERTEX
8
1
10
6.825371
20
1.850777
42
0.009665
0
VERTEX
8
1
10
6.685555
20
1.473579
0
VERTEX
8
1
10
6.681038
20
1.453896
42
0.107618
0
VERTEX
8
1
10
6.821800
20
1.386742
42
0.050172
0
VERTEX
8
1
10
7.132843
20
1.320686
42
0.022311
0
VERTEX
8
1
10
7.532234
20
1.281914
42
-0.163846
0
VERTEX
8
1
10
7.945702
20
1.090141
42
-0.057391
0
VERTEX
8
1
10
8.210754
20
0.790947
42
0.022862
0
VERTEX
8
1
10
8.426102
20
0.531487
42
0.102313
0
VERTEX
8
1
10
8.628998
20
0.393761
0
VERTEX
8
1
10
8.654434
20
0.385490
0
VERTEX
8
1
10
8.671669
20
0.387276
42
0.137898
0
VERTEX
8
1
10
8.913330
20
0.553185
42
0.034712
0
VERTEX
8
1
10
9.117912
20
0.804581
42
-0.032293
0
VERTEX
8
1
10
9.346413
20
1.066711
42
-0.142168
0
VERTEX
8
1
10
9.735687
20
1.274940
0
VERTEX
8
1
10
9.774025
20
1.280952
42
0.040363
0
VERTEX
8
1
10
10.415184
20
1.362122
42
0.082044
0
VERTEX
8
1
10
10.629478
20
1.446312
0
VERTEX
8
1
10
10.640053
20
1.454865
0
VERTEX
8
1
10
10.630676
20
1.485672
0
VERTEX
8
1
10
10.617928
20
1.523865
42
0.011840
0
SEQEND
0
POLYLINE
8
1
66
1
70
1
0
VERTEX
8
1
10
11.057678
20
4.798141
42
0.466248
0
VERTEX
8
1
10
11.035965
20
4.568855
0
VERTEX
8
1
10
11.048874
20
4.555092
42
0.077336
0
VERTEX
8
1
10
11.402695
20
4.346497
42
0.098068
0
VERTEX
8
1
10
11.519737
20
4.330544
42
0.270804
0
VERTEX
8
1
10
11.598091
20
4.391556
42
0.205881
0
VERTEX
8
1
10
11.597595
20
4.523369
0
VERTEX
8
1
10
11.587280
20
4.544594
42
0.110074
0
VERTEX
8
1
10
11.415359
20
4.709641
42
0.042379
0
VERTEX
8
1
10
11.179176
20
4.835609
42
0.141858
0
SEQEND
0
POLYLINE
8
1
66
1
70
1
0
VERTEX
8
1
10
10.290642
20
5.618614
42
-0.036927
0
VERTEX
8
1
10
9.884987
20
5.762230
42
-0.124914
0
VERTEX
8
1
10
9.637299
20
5.972252
0
VERTEX
8
1
10
9.632675
20
5.976273
0
VERTEX
8
1
10
9.633522
20
4.537720
0
VERTEX
8
1
10
9.662148
20
4.472054
42
-0.092534
0
VERTEX
8
1
10
9.747688
20
4.938568
42
-0.077012
0
VERTEX
8
1
10
9.844086
20
5.090843
0
VERTEX
8
1
10
9.882729
20
5.119644
42
-0.106211
0
VERTEX
8
1
10
10.279816
20
5.236984
42
-0.057353
0
VERTEX
8
1
10
10.902115
20
5.223801
0
VERTEX
8
1
10
11.034195
20
5.434631
42
-0.016837
0
SEQEND
0
POLYLINE
8
1
66
1
70
1
0
VERTEX
8
1
10
11.284042
20
7.696396
42
0.201911
0
VERTEX
8
1
10
11.321724
20
7.709709
42
0.084490
0
VERTEX
8
1
10
11.549644
20
7.952179
42
0.179069
0
VERTEX
8
1
10
11.588791
20
8.129211
0
VERTEX
8
1
10
11.575287
20
8.168198
42
0.129881
0
VERTEX
8
1
10
11.499634
20
8.254257
42
0.105317
0
VERTEX
8
1
10
11.215988
20
8.000084
42
0.067462
0
VERTEX
8
1
10
11.161385
20
7.884209
42
0.271833
0
VERTEX
8
1
10
11.210999
20
7.723915
42
0.155630
0
SEQEND
0
POLYLINE
8
1
66
1
70
1
0
VERTEX
8
1
10
11.260559
20
6.951988
0
VERTEX
8
1
10
11.238876
20
6.984772
42
-0.052228
0
VERTEX
8
1
10
11.021172
20
7.476944
42
-0.028006
0
VERTEX
8
1
10
10.078758
20
7.636253
42
-0.031300
0
VERTEX
8
1
10
9.763351
20
7.735413
0
VERTEX
8
1
10
9.635574
20
7.798500
0
VERTEX
8
1
10
9.632675
20
7.797989
0
VERTEX
8
1
10
9.632675
20
6.509193
42
-0.064528
0
VERTEX
8
1
10
10.057457
20
6.597015
42
-0.027718
0
VERTEX
8
1
10
10.776329
20
6.619461
42
-0.013416
0
VERTEX
8
1
10
11.433182
20
6.594414
42
0.356063
0
VERTEX
8
1
10
11.379410
20
6.831871
42
-0.093094
0
SEQEND
0
POLYLINE
8
1
66
1
70
1
0
VERTEX
8
1
10
10.454491
20
8.465088
42
0.074319
0
VERTEX
8
1
10
9.998260
20
8.452248
42
0.054110
0
VERTEX
8
1
10
9.677376
20
8.373085
42
0.124575
0
VERTEX
8
1
10
9.544571
20
8.285332
42
0.308819
0
VERTEX
8
1
10
9.534897
20
8.132164
42
0.114538
0
VERTEX
8
1
10
9.585236
20
8.071846
42
0.077795
0
VERTEX
8
1
10
9.851089
20
7.945244
42
0.048563
0
VERTEX
8
1
10
10.822487
20
7.750420
0
VERTEX
8
1
10
10.883438
20
7.747063
0
VERTEX
8
1
10
10.899117
20
7.750015
42
0.303665
0
VERTEX
8
1
10
10.920227
20
7.812111
42
-0.027918
0
VERTEX
8
1
10
10.881836
20
7.988007
42
-0.155710
0
VERTEX
8
1
10
10.947968
20
8.259758
42
-0.040351
0
VERTEX
8
1
10
11.014725
20
8.362808
42
0.034452
0
SEQEND
0
POLYLINE
8
1
66
1
70
1
0
VERTEX
8
1
10
10.519524
20
8.947762
42
0.039520
0
VERTEX
8
1
10
9.993958
20
9.363205
42
-0.002261
0
VERTEX
8
1
10
9.632675
20
9.624878
0
VERTEX
8
1
10
9.632675
20
8.798889
42
-0.062229
0
VERTEX
8
1
10
10.110458
20
8.855896
42
-0.039452
0
VERTEX
8
1
10
10.618034
20
8.826920
42
0.064637
0
SEQEND
0
POLYLINE
8
1
66
1
70
1
0
VERTEX
8
1
10
13.234138
20
13.778023
42
0.117328
0
VERTEX
8
1
10
13.171394
20
13.764862
42
0.066890
0
VERTEX
8
1
10
12.907211
20
13.597298
42
0.019317
0
VERTEX
8
1
10
12.756401
20
13.469551
42
-0.050890
0
VERTEX
8
1
10
12.502632
20
12.910545
42
-0.023683
0
VERTEX
8
1
10
12.160889
20
12.355164
42
-0.209315
0
VERTEX
8
1
10
11.991310
20
12.270844
42
-0.092337
0
VERTEX
8
1
10
11.701675
20
12.303741
42
-0.018934
0
VERTEX
8
1
10
11.548103
20
12.349350
0
VERTEX
8
1
10
11.514656
20
12.367332
0
VERTEX
8
1
10
11.484886
20
12.391731
0
VERTEX
8
1
10
11.458694
20
12.422104
42
-0.131173
0
VERTEX
8
1
10
11.371819
20
12.701721
0
VERTEX
8
1
10
11.367813
20
12.755447
42
-0.118509
0
VERTEX
8
1
10
11.557487
20
13.667389
42
-0.196020
0
VERTEX
8
1
10
11.915352
20
13.952446
42
-0.052178
0
VERTEX
8
1
10
12.069290
20
13.985779
0
VERTEX
8
1
10
12.084450
20
14.022110
42
0.048929
0
VERTEX
8
1
10
12.164520
20
14.163269
0
VERTEX
8
1
10
12.204796
20
14.235077
42
-0.079035
0
VERTEX
8
1
10
12.031914
20
14.334709
42
0.042528
0
VERTEX
8
1
10
11.559776
20
14.634979
0
VERTEX
8
1
10
11.515221
20
14.655174
42
0.151133
0
VERTEX
8
1
10
11.277542
20
14.698586
42
0.124491
0
VERTEX
8
1
10
11.167419
20
14.645035
42
-0.093225
0
VERTEX
8
1
10
10.885887
20
14.528168
0
VERTEX
8
1
10
10.863098
20
14.526093
42
-0.260158
0
VERTEX
8
1
10
10.674240
20
14.605118
42
-0.077734
0
VERTEX
8
1
10
10.612091
20
14.692650
42
-0.008430
0
VERTEX
8
1
10
10.416260
20
15.063545
42
0.015322
0
VERTEX
8
1
10
10.127716
20
13.783936
0
VERTEX
8
1
10
10.115005
20
13.701988
42
0.071794
0
VERTEX
8
1
10
10.102707
20
13.519417
0
VERTEX
8
1
10
10.108711
20
13.506203
0
VERTEX
8
1
10
10.118263
20
13.504318
0
VERTEX
8
1
10
10.131569
20
13.514465
42
-0.000842
0
VERTEX
8
1
10
10.388901
20
13.823952
42
-0.084697
0
VERTEX
8
1
10
10.606293
20
14.000015
42
-0.209592
0
VERTEX
8
1
10
10.864990
20
14.018913
42
-0.069471
0
VERTEX
8
1
10
11.085594
20
13.930702
42
-0.222231
0
VERTEX
8
1
10
11.194885
20
13.779366
42
-0.133438
0
VERTEX
8
1
10
11.173180
20
13.648903
0
VERTEX
8
1
10
11.162560
20
13.615311
42
0.034832
0
VERTEX
8
1
10
11.126022
20
13.356659
42
0.036195
0
VERTEX
8
1
10
11.112587
20
12.008011
42
0.050243
0
VERTEX
8
1
10
11.157806
20
11.716324
0
VERTEX
8
1
10
11.173180
20
11.677139
42
-0.396324
0
VERTEX
8
1
10
10.740013
20
11.640060
42
-0.244444
0
VERTEX
8
1
10
10.694611
20
11.775375
42
-0.011692
0
VERTEX
8
1
10
10.824196
20
13.569107
0
VERTEX
8
1
10
10.831429
20
13.620293
0
VERTEX
8
1
10
10.839851
20
13.671288
42
0.072759
0
VERTEX
8
1
10
10.553886
20
13.421471
42
0.056295
0
VERTEX
8
1
10
10.089912
20
12.775070
42
0.054214
0
VERTEX
8
1
10
9.954384
20
12.250328
42
0.021311
0
VERTEX
8
1
10
9.902405
20
11.833984
0
VERTEX
8
1
10
9.632675
20
11.979034
0
VERTEX
8
1
10
9.632675
20
10.262154
42
-0.140662
0
VERTEX
8
1
10
10.021713
20
10.409561
42
-0.043503
0
VERTEX
8
1
10
10.466110
20
10.415596
42
-0.035417
0
VERTEX
8
1
10
11.399666
20
10.292282
42
-0.021605
0
VERTEX
8
1
10
12.719307
20
9.980034
42
-0.019329
0
VERTEX
8
1
10
12.928001
20
11.313866
0
VERTEX
8
1
10
12.943916
20
11.385857
42
0.037555
0
VERTEX
8
1
10
13.055824
20
11.947754
42
0.010369
0
VERTEX
8
1
10
13.248817
20
13.677887
0
VERTEX
8
1
10
13.257607
20
13.751770
42
0.425491
0
SEQEND
0
POLYLINE
8
1
66
1
70
1
0
VERTEX
8
1
10
13.984985
20
13.308006
42
0.113158
0
VERTEX
8
1
10
13.963692
20
13.473228
42
0.481916
0
VERTEX
8
1
10
13.892265
20
13.498024
42
0.021256
0
VERTEX
8
1
10
13.548058
20
13.312805
42
0.024869
0
VERTEX
8
1
10
13.450790
20
12.575348
42
0.080824
0
VERTEX
8
1
10
13.460327
20
12.404099
42
0.458043
0
VERTEX
8
1
10
13.507141
20
12.376808
42
0.124671
0
VERTEX
8
1
10
13.618774
20
12.446243
42
0.108591
0
VERTEX
8
1
10
13.902199
20
12.864677
42
0.061257
0
SEQEND
0
POLYLINE
8
1
66
1
70
1
0
VERTEX
8
1
10
14.801987
20
13.408157
42
0.161116
0
VERTEX
8
1
10
14.812485
20
13.266914
42
0.417599
0
VERTEX
8
1
10
14.907021
20
13.247749
42
0.089191
0
VERTEX
8
1
10
15.285980
20
13.549232
42
0.084732
0
VERTEX
8
1
10
15.359062
20
13.674370
42
0.199193
0
VERTEX
8
1
10
15.353218
20
13.776619
42
0.066254
0
VERTEX
8
1
10
15.269936
20
13.934242
42
0.240448
0
VERTEX
8
1
10
15.201393
20
13.955803
42
0.201575
0
VERTEX
8
1
10
15.026329
20
13.866608
42
0.083212
0
VERTEX
8
1
10
14.881325
20
13.626488
42
0.066370
0
SEQEND
0
ENDSEC
0
EOF
