  0
SECTION
  2
HEADER
  9
$ACADVER
  1
AC1021
  9
$ACADMAINTVER
 70
    25
  9
$DWGCODEPAGE
  3
ANSI_1252
  9
$INSBASE
 10
0.0
 20
0.0
 30
0.0
  9
$EXTMIN
 10
-13.33488188976378
 20
-12.00347244094488
 30
0.0
  9
$EXTMAX
 10
13.33494881889764
 20
12.00346850393701
 30
0.0
  9
$LIMMIN
 10
0.0
 20
0.0
  9
$LIMMAX
 10
12.0
 20
9.0
  9
$ORTHOMODE
 70
     0
  9
$REGENMODE
 70
     1
  9
$FILLMODE
 70
     1
  9
$QTEXTMODE
 70
     0
  9
$MIRRTEXT
 70
     1
  9
$LTSCALE
 40
1.0
  9
$ATTMODE
 70
     1
  9
$TEXTSIZE
 40
0.2
  9
$TRACEWID
 40
0.05
  9
$TEXTSTYLE
  7
Standard
  9
$CLAYER
  8
0
  9
$CELTYPE
  6
ByLayer
  9
$CECOLOR
 62
   256
  9
$CELTSCALE
 40
1.0
  9
$DISPSILH
 70
     0
  9
$DIMSCALE
 40
1.0
  9
$DIMASZ
 40
0.18
  9
$DIMEXO
 40
0.0625
  9
$DIMDLI
 40
0.38
  9
$DIMRND
 40
0.0
  9
$DIMDLE
 40
0.0
  9
$DIMEXE
 40
0.18
  9
$DIMTP
 40
0.0
  9
$DIMTM
 40
0.0
  9
$DIMTXT
 40
0.18
  9
$DIMCEN
 40
0.09
  9
$DIMTSZ
 40
0.0
  9
$DIMTOL
 70
     0
  9
$DIMLIM
 70
     0
  9
$DIMTIH
 70
     1
  9
$DIMTOH
 70
     1
  9
$DIMSE1
 70
     0
  9
$DIMSE2
 70
     0
  9
$DIMTAD
 70
     0
  9
$DIMZIN
 70
     0
  9
$DIMBLK
  1

  9
$DIMASO
 70
     1
  9
$DIMSHO
 70
     1
  9
$DIMPOST
  1

  9
$DIMAPOST
  1

  9
$DIMALT
 70
     0
  9
$DIMALTD
 70
     2
  9
$DIMALTF
 40
25.4
  9
$DIMLFAC
 40
1.0
  9
$DIMTOFL
 70
     0
  9
$DIMTVP
 40
0.0
  9
$DIMTIX
 70
     0
  9
$DIMSOXD
 70
     0
  9
$DIMSAH
 70
     0
  9
$DIMBLK1
  1

  9
$DIMBLK2
  1

  9
$DIMSTYLE
  2
Standard
  9
$DIMCLRD
 70
     0
  9
$DIMCLRE
 70
     0
  9
$DIMCLRT
 70
     0
  9
$DIMTFAC
 40
1.0
  9
$DIMGAP
 40
0.09
  9
$DIMJUST
 70
     0
  9
$DIMSD1
 70
     0
  9
$DIMSD2
 70
     0
  9
$DIMTOLJ
 70
     1
  9
$DIMTZIN
 70
     0
  9
$DIMALTZ
 70
     0
  9
$DIMALTTZ
 70
     0
  9
$DIMUPT
 70
     0
  9
$DIMDEC
 70
     4
  9
$DIMTDEC
 70
     4
  9
$DIMALTU
 70
     2
  9
$DIMALTTD
 70
     2
  9
$DIMTXSTY
  7
Standard
  9
$DIMAUNIT
 70
     0
  9
$DIMADEC
 70
     0
  9
$DIMALTRND
 40
0.0
  9
$DIMAZIN
 70
     0
  9
$DIMDSEP
 70
    46
  9
$DIMATFIT
 70
     3
  9
$DIMFRAC
 70
     0
  9
$DIMLDRBLK
  1

  9
$DIMLUNIT
 70
     2
  9
$DIMLWD
 70
    -2
  9
$DIMLWE
 70
    -2
  9
$DIMTMOVE
 70
     0
  9
$DIMFXL
 40
1.0
  9
$DIMFXLON
 70
     0
  9
$DIMJOGANG
 40
0.7853981633974483
  9
$DIMTFILL
 70
     0
  9
$DIMTFILLCLR
 70
     0
  9
$DIMARCSYM
 70
     0
  9
$DIMLTYPE
  6

  9
$DIMLTEX1
  6

  9
$DIMLTEX2
  6

  9
$LUNITS
 70
     2
  9
$LUPREC
 70
     4
  9
$SKETCHINC
 40
0.1
  9
$FILLETRAD
 40
0.5
  9
$AUNITS
 70
     0
  9
$AUPREC
 70
     0
  9
$MENU
  1
.
  9
$ELEVATION
 40
0.0
  9
$PELEVATION
 40
0.0
  9
$THICKNESS
 40
0.0
  9
$LIMCHECK
 70
     0
  9
$CHAMFERA
 40
0.0
  9
$CHAMFERB
 40
0.0
  9
$CHAMFERC
 40
0.0
  9
$CHAMFERD
 40
0.0
  9
$SKPOLY
 70
     0
  9
$TDCREATE
 40
2457856.387431991
  9
$TDUCREATE
 40
2457856.554098657
  9
$TDUPDATE
 40
2457856.387432025
  9
$TDUUPDATE
 40
2457856.554098692
  9
$TDINDWG
 40
0.0000000116
  9
$TDUSRTIMER
 40
0.0000000116
  9
$USRTIMER
 70
     1
  9
$ANGBASE
 50
0.0
  9
$ANGDIR
 70
     0
  9
$PDMODE
 70
     0
  9
$PDSIZE
 40
0.0
  9
$PLINEWID
 40
0.0
  9
$SPLFRAME
 70
     0
  9
$SPLINETYPE
 70
     6
  9
$SPLINESEGS
 70
     8
  9
$HANDSEED
  5
E7
  9
$SURFTAB1
 70
     6
  9
$SURFTAB2
 70
     6
  9
$SURFTYPE
 70
     6
  9
$SURFU
 70
     6
  9
$SURFV
 70
     6
  9
$UCSBASE
  2

  9
$UCSNAME
  2

  9
$UCSORG
 10
0.0
 20
0.0
 30
0.0
  9
$UCSXDIR
 10
1.0
 20
0.0
 30
0.0
  9
$UCSYDIR
 10
0.0
 20
1.0
 30
0.0
  9
$UCSORTHOREF
  2

  9
$UCSORTHOVIEW
 70
     0
  9
$UCSORGTOP
 10
0.0
 20
0.0
 30
0.0
  9
$UCSORGBOTTOM
 10
0.0
 20
0.0
 30
0.0
  9
$UCSORGLEFT
 10
0.0
 20
0.0
 30
0.0
  9
$UCSORGRIGHT
 10
0.0
 20
0.0
 30
0.0
  9
$UCSORGFRONT
 10
0.0
 20
0.0
 30
0.0
  9
$UCSORGBACK
 10
0.0
 20
0.0
 30
0.0
  9
$PUCSBASE
  2

  9
$PUCSNAME
  2

  9
$PUCSORG
 10
0.0
 20
0.0
 30
0.0
  9
$PUCSXDIR
 10
1.0
 20
0.0
 30
0.0
  9
$PUCSYDIR
 10
0.0
 20
1.0
 30
0.0
  9
$PUCSORTHOREF
  2

  9
$PUCSORTHOVIEW
 70
     0
  9
$PUCSORGTOP
 10
0.0
 20
0.0
 30
0.0
  9
$PUCSORGBOTTOM
 10
0.0
 20
0.0
 30
0.0
  9
$PUCSORGLEFT
 10
0.0
 20
0.0
 30
0.0
  9
$PUCSORGRIGHT
 10
0.0
 20
0.0
 30
0.0
  9
$PUCSORGFRONT
 10
0.0
 20
0.0
 30
0.0
  9
$PUCSORGBACK
 10
0.0
 20
0.0
 30
0.0
  9
$USERI1
 70
     0
  9
$USERI2
 70
     0
  9
$USERI3
 70
     0
  9
$USERI4
 70
     0
  9
$USERI5
 70
     0
  9
$USERR1
 40
0.0
  9
$USERR2
 40
0.0
  9
$USERR3
 40
0.0
  9
$USERR4
 40
0.0
  9
$USERR5
 40
0.0
  9
$WORLDVIEW
 70
     1
  9
$SHADEDGE
 70
     3
  9
$SHADEDIF
 70
    70
  9
$TILEMODE
 70
     1
  9
$MAXACTVP
 70
    64
  9
$PINSBASE
 10
0.0
 20
0.0
 30
0.0
  9
$PLIMCHECK
 70
     0
  9
$PEXTMIN
 10
1.000000000000000E+20
 20
1.000000000000000E+20
 30
1.000000000000000E+20
  9
$PEXTMAX
 10
-1.000000000000000E+20
 20
-1.000000000000000E+20
 30
-1.000000000000000E+20
  9
$PLIMMIN
 10
0.0
 20
0.0
  9
$PLIMMAX
 10
12.0
 20
9.0
  9
$UNITMODE
 70
     0
  9
$VISRETAIN
 70
     1
  9
$PLINEGEN
 70
     0
  9
$PSLTSCALE
 70
     1
  9
$TREEDEPTH
 70
  3020
  9
$CMLSTYLE
  2
Standard
  9
$CMLJUST
 70
     0
  9
$CMLSCALE
 40
1.0
  9
$PROXYGRAPHICS
 70
     1
  9
$MEASUREMENT
 70
     0
  9
$CELWEIGHT
370
    -1
  9
$ENDCAPS
280
     0
  9
$JOINSTYLE
280
     0
  9
$LWDISPLAY
290
     0
  9
$INSUNITS
 70
     1
  9
$HYPERLINKBASE
  1

  9
$STYLESHEET
  1

  9
$XEDIT
290
     1
  9
$CEPSNTYPE
380
     0
  9
$PSTYLEMODE
290
     1
  9
$FINGERPRINTGUID
  2
{FFE8A0AF-28B9-4523-943A-10CC71AC9078}
  9
$VERSIONGUID
  2
{FAEB1C32-E019-11D5-929B-00C0DF256EC4}
  9
$EXTNAMES
290
     1
  9
$PSVPSCALE
 40
0.0
  9
$OLESTARTUP
290
     0
  9
$SORTENTS
280
   127
  9
$INDEXCTL
280
     0
  9
$HIDETEXT
280
     1
  9
$XCLIPFRAME
290
     0
  9
$HALOGAP
280
     0
  9
$OBSCOLOR
 70
   257
  9
$OBSLTYPE
280
     0
  9
$INTERSECTIONDISPLAY
280
     0
  9
$INTERSECTIONCOLOR
 70
   257
  9
$DIMASSOC
280
     2
  9
$PROJECTNAME
  1

  9
$CAMERADISPLAY
290
     0
  9
$LENSLENGTH
 40
50.0
  9
$CAMERAHEIGHT
 40
0.0
  9
$STEPSPERSEC
 40
2.0
  9
$STEPSIZE
 40
6.0
  9
$3DDWFPREC
 40
2.0
  9
$PSOLWIDTH
 40
0.25
  9
$PSOLHEIGHT
 40
4.0
  9
$LOFTANG1
 40
1.570796326794897
  9
$LOFTANG2
 40
1.570796326794897
  9
$LOFTMAG1
 40
0.0
  9
$LOFTMAG2
 40
0.0
  9
$LOFTPARAM
 70
     7
  9
$LOFTNORMALS
280
     1
  9
$LATITUDE
 40
37.795
  9
$LONGITUDE
 40
-122.394
  9
$NORTHDIRECTION
 40
0.0
  9
$TIMEZONE
 70
 -8000
  9
$LIGHTGLYPHDISPLAY
280
     1
  9
$TILEMODELIGHTSYNCH
280
     1
  9
$CMATERIAL
347
44
  9
$SOLIDHIST
280
     0
  9
$SHOWHIST
280
     1
  9
$DWFFRAME
280
     2
  9
$DGNFRAME
280
     2
  9
$REALWORLDSCALE
290
     1
  9
$INTERFERECOLOR
 62
   256
  9
$CSHADOW
280
     0
  9
$SHADOWPLANELOCATION
 40
0.0
  0
ENDSEC
  0
SECTION
  2
CLASSES
  0
CLASS
  1
ACDBDICTIONARYWDFLT
  2
AcDbDictionaryWithDefault
  3
ObjectDBX Classes
 90
        0
 91
        4
280
     0
281
     0
  0
CLASS
  1
VISUALSTYLE
  2
AcDbVisualStyle
  3
ObjectDBX Classes
 90
     4095
 91
        4
280
     0
281
     0
  0
CLASS
  1
MATERIAL
  2
AcDbMaterial
  3
ObjectDBX Classes
 90
     1153
 91
        4
280
     0
281
     0
  0
CLASS
  1
SCALE
  2
AcDbScale
  3
ObjectDBX Classes
 90
     1153
 91
        4
280
     0
281
     0
  0
CLASS
  1
TABLESTYLE
  2
AcDbTableStyle
  3
ObjectDBX Classes
 90
     4095
 91
        4
280
     0
281
     0
  0
CLASS
  1
MLEADERSTYLE
  2
AcDbMLeaderStyle
  3
ACDB_MLEADERSTYLE_CLASS
 90
     4095
 91
        4
280
     0
281
     0
  0
CLASS
  1
SUN
  2
AcDbSun
  3
SCENEOE
 90
     1153
 91
        4
280
     0
281
     0
  0
CLASS
  1
DICTIONARYVAR
  2
AcDbDictionaryVar
  3
ObjectDBX Classes
 90
        0
 91
        4
280
     0
281
     0
  0
CLASS
  1
CELLSTYLEMAP
  2
AcDbCellStyleMap
  3
ObjectDBX Classes
 90
     1152
 91
        4
280
     0
281
     0
  0
ENDSEC
  0
SECTION
  2
TABLES
  0
TABLE
  2
VPORT
  5
8
330
0
100
AcDbSymbolTable
 70
     1
  0
VPORT
  5
29
330
8
100
AcDbSymbolTableRecord
100
AcDbViewportTableRecord
  2
*Active
 70
     0
 10
0.0
 20
0.0
 11
1.0
 21
1.0
 12
10.42990654205607
 22
4.5
 13
0.0
 23
0.0
 14
0.5
 24
0.5
 15
0.5
 25
0.5
 16
0.0
 26
0.0
 36
1.0
 17
0.0
 27
0.0
 37
0.0
 40
9.0
 41
1.972972972850329
 42
50.0
 43
0.0
 44
0.0
 50
0.0
 51
0.0
 71
     0
 72
   100
 73
     1
 74
     3
 75
     0
 76
     0
 77
     0
 78
     0
281
     0
 65
     1
110
0.0
120
0.0
130
0.0
111
1.0
121
0.0
131
0.0
112
0.0
122
1.0
132
0.0
 79
     0
146
0.0
 60
     3
 61
     5
292
     1
282
     1
141
0.0
142
0.0
 63
   250
361
6D
  0
ENDTAB
  0
TABLE
  2
LTYPE
  5
5
330
0
100
AcDbSymbolTable
 70
     1
  0
LTYPE
  5
14
330
5
100
AcDbSymbolTableRecord
100
AcDbLinetypeTableRecord
  2
ByBlock
 70
     0
  3

 72
    65
 73
     0
 40
0.0
  0
LTYPE
  5
15
330
5
100
AcDbSymbolTableRecord
100
AcDbLinetypeTableRecord
  2
ByLayer
 70
     0
  3

 72
    65
 73
     0
 40
0.0
  0
LTYPE
  5
16
330
5
100
AcDbSymbolTableRecord
100
AcDbLinetypeTableRecord
  2
Continuous
 70
     0
  3
Solid line
 72
    65
 73
     0
 40
0.0
  0
ENDTAB
  0
TABLE
  2
LAYER
  5
2
330
0
100
AcDbSymbolTable
 70
     2
  0
LAYER
  5
10
330
2
100
AcDbSymbolTableRecord
100
AcDbLayerTableRecord
  2
0
 70
     0
 62
     7
  6
Continuous
370
    -3
390
F
347
46
  0
LAYER
  5
6F
330
2
100
AcDbSymbolTableRecord
100
AcDbLayerTableRecord
  2
Layer 1
 70
     0
 62
     7
  6
Continuous
370
    -3
390
F
347
46
  0
ENDTAB
  0
TABLE
  2
STYLE
  5
3
330
0
100
AcDbSymbolTable
 70
     1
  0
STYLE
  5
11
330
3
100
AcDbSymbolTableRecord
100
AcDbTextStyleTableRecord
  2
Standard
 70
     0
 40
0.0
 41
1.0
 50
0.0
 71
     0
 42
0.2
  3
txt
  4

  0
ENDTAB
  0
TABLE
  2
VIEW
  5
6
330
0
100
AcDbSymbolTable
 70
     0
  0
ENDTAB
  0
TABLE
  2
UCS
  5
7
330
0
100
AcDbSymbolTable
 70
     0
  0
ENDTAB
  0
TABLE
  2
APPID
  5
9
330
0
100
AcDbSymbolTable
 70
     3
  0
APPID
  5
12
330
9
100
AcDbSymbolTableRecord
100
AcDbRegAppTableRecord
  2
ACAD
 70
     0
  0
APPID
  5
6E
330
9
100
AcDbSymbolTableRecord
100
AcDbRegAppTableRecord
  2
ODA
 70
     0
  0
APPID
  5
DF
330
9
100
AcDbSymbolTableRecord
100
AcDbRegAppTableRecord
  2
ACAD_MLEADERVER
 70
     0
  0
ENDTAB
  0
TABLE
  2
DIMSTYLE
  5
A
330
0
100
AcDbSymbolTable
 70
     1
100
AcDbDimStyleTable
  0
DIMSTYLE
105
27
330
A
100
AcDbSymbolTableRecord
100
AcDbDimStyleTableRecord
  2
Standard
 70
     0
178
     0
340
11
  0
ENDTAB
  0
TABLE
  2
BLOCK_RECORD
  5
1
330
0
100
AcDbSymbolTable
 70
     1
  0
BLOCK_RECORD
  5
1F
330
1
100
AcDbSymbolTableRecord
100
AcDbBlockTableRecord
  2
*Model_Space
340
22
 70
     0
280
     1
281
     0
  0
BLOCK_RECORD
  5
1B
330
1
100
AcDbSymbolTableRecord
100
AcDbBlockTableRecord
  2
*Paper_Space
340
1E
 70
     0
280
     1
281
     0
  0
BLOCK_RECORD
  5
23
330
1
100
AcDbSymbolTableRecord
100
AcDbBlockTableRecord
  2
*Paper_Space0
340
26
 70
     0
280
     1
281
     0
  0
ENDTAB
  0
ENDSEC
  0
SECTION
  2
BLOCKS
  0
BLOCK
  5
20
330
1F
100
AcDbEntity
  8
0
100
AcDbBlockBegin
  2
*Model_Space
 70
     0
 10
0.0
 20
0.0
 30
0.0
  3
*Model_Space
  1
*Model_Space
  0
ENDBLK
  5
21
330
1F
100
AcDbEntity
  8
0
100
AcDbBlockEnd
  0
BLOCK
  5
1C
330
1B
100
AcDbEntity
 67
     1
  8
0
100
AcDbBlockBegin
  2
*Paper_Space
 70
     0
 10
0.0
 20
0.0
 30
0.0
  3
*Paper_Space
  1
*Paper_Space
  0
ENDBLK
  5
1D
330
1B
100
AcDbEntity
 67
     1
  8
0
100
AcDbBlockEnd
  0
BLOCK
  5
24
330
23
100
AcDbEntity
  8
0
100
AcDbBlockBegin
  2
*Paper_Space0
 70
     0
 10
0.0
 20
0.0
 30
0.0
  3
*Paper_Space0
  1
*Paper_Space0
  0
ENDBLK
  5
25
330
23
100
AcDbEntity
  8
0
100
AcDbBlockEnd
  0
ENDSEC
  0
SECTION
  2
ENTITIES
  0
SPLINE
  5
70
330
1F
100
AcDbEntity
  8
Layer 1
 62
   250
370
    18
100
AcDbSpline
210
0.0
220
0.0
230
1.0
 70
    11
 71
     3
 72
   644
 73
   640
 74
     0
 42
0.000000001
 43
0.0000000001
 40
0.0
 40
0.0
 40
0.0
 40
0.0
 40
0.0062111801242236
 40
0.0062111801242236
 40
0.0062111801242236
 40
0.0062111801242236
 40
0.0124223602484472
 40
0.0124223602484472
 40
0.0124223602484472
 40
0.0124223602484472
 40
0.0186335403726708
 40
0.0186335403726708
 40
0.0186335403726708
 40
0.0186335403726708
 40
0.0248447204968944
 40
0.0248447204968944
 40
0.0248447204968944
 40
0.0248447204968944
 40
0.031055900621118
 40
0.031055900621118
 40
0.031055900621118
 40
0.031055900621118
 40
0.0372670807453416
 40
0.0372670807453416
 40
0.0372670807453416
 40
0.0372670807453416
 40
0.0434782608695652
 40
0.0434782608695652
 40
0.0434782608695652
 40
0.0434782608695652
 40
0.0496894409937888
 40
0.0496894409937888
 40
0.0496894409937888
 40
0.0496894409937888
 40
0.0559006211180124
 40
0.0559006211180124
 40
0.0559006211180124
 40
0.0559006211180124
 40
0.062111801242236
 40
0.062111801242236
 40
0.062111801242236
 40
0.062111801242236
 40
0.0683229813664596
 40
0.0683229813664596
 40
0.0683229813664596
 40
0.0683229813664596
 40
0.0745341614906832
 40
0.0745341614906832
 40
0.0745341614906832
 40
0.0745341614906832
 40
0.0807453416149068
 40
0.0807453416149068
 40
0.0807453416149068
 40
0.0807453416149068
 40
0.0869565217391304
 40
0.0869565217391304
 40
0.0869565217391304
 40
0.0869565217391304
 40
0.093167701863354
 40
0.093167701863354
 40
0.093167701863354
 40
0.093167701863354
 40
0.0993788819875776
 40
0.0993788819875776
 40
0.0993788819875776
 40
0.0993788819875776
 40
0.1055900621118012
 40
0.1055900621118012
 40
0.1055900621118012
 40
0.1055900621118012
 40
0.1118012422360248
 40
0.1118012422360248
 40
0.1118012422360248
 40
0.1118012422360248
 40
0.1180124223602484
 40
0.1180124223602484
 40
0.1180124223602484
 40
0.1180124223602484
 40
0.124223602484472
 40
0.124223602484472
 40
0.124223602484472
 40
0.124223602484472
 40
0.1304347826086956
 40
0.1304347826086956
 40
0.1304347826086956
 40
0.1304347826086956
 40
0.1366459627329193
 40
0.1366459627329193
 40
0.1366459627329193
 40
0.1366459627329193
 40
0.1428571428571428
 40
0.1428571428571428
 40
0.1428571428571428
 40
0.1428571428571428
 40
0.1490683229813665
 40
0.1490683229813665
 40
0.1490683229813665
 40
0.1490683229813665
 40
0.15527950310559
 40
0.15527950310559
 40
0.15527950310559
 40
0.15527950310559
 40
0.1614906832298137
 40
0.1614906832298137
 40
0.1614906832298137
 40
0.1614906832298137
 40
0.1677018633540373
 40
0.1677018633540373
 40
0.1677018633540373
 40
0.1677018633540373
 40
0.1739130434782609
 40
0.1739130434782609
 40
0.1739130434782609
 40
0.1739130434782609
 40
0.1801242236024845
 40
0.1801242236024845
 40
0.1801242236024845
 40
0.1801242236024845
 40
0.1863354037267081
 40
0.1863354037267081
 40
0.1863354037267081
 40
0.1863354037267081
 40
0.1925465838509317
 40
0.1925465838509317
 40
0.1925465838509317
 40
0.1925465838509317
 40
0.1987577639751553
 40
0.1987577639751553
 40
0.1987577639751553
 40
0.1987577639751553
 40
0.2049689440993789
 40
0.2049689440993789
 40
0.2049689440993789
 40
0.2049689440993789
 40
0.2111801242236025
 40
0.2111801242236025
 40
0.2111801242236025
 40
0.2111801242236025
 40
0.2173913043478261
 40
0.2173913043478261
 40
0.2173913043478261
 40
0.2173913043478261
 40
0.2236024844720497
 40
0.2236024844720497
 40
0.2236024844720497
 40
0.2236024844720497
 40
0.2298136645962733
 40
0.2298136645962733
 40
0.2298136645962733
 40
0.2298136645962733
 40
0.2360248447204969
 40
0.2360248447204969
 40
0.2360248447204969
 40
0.2360248447204969
 40
0.2422360248447205
 40
0.2422360248447205
 40
0.2422360248447205
 40
0.2422360248447205
 40
0.2484472049689441
 40
0.2484472049689441
 40
0.2484472049689441
 40
0.2484472049689441
 40
0.2546583850931677
 40
0.2546583850931677
 40
0.2546583850931677
 40
0.2546583850931677
 40
0.2608695652173913
 40
0.2608695652173913
 40
0.2608695652173913
 40
0.2608695652173913
 40
0.2670807453416149
 40
0.2670807453416149
 40
0.2670807453416149
 40
0.2670807453416149
 40
0.2732919254658385
 40
0.2732919254658385
 40
0.2732919254658385
 40
0.2732919254658385
 40
0.2795031055900621
 40
0.2795031055900621
 40
0.2795031055900621
 40
0.2795031055900621
 40
0.2857142857142857
 40
0.2857142857142857
 40
0.2857142857142857
 40
0.2857142857142857
 40
0.2919254658385093
 40
0.2919254658385093
 40
0.2919254658385093
 40
0.2919254658385093
 40
0.2981366459627329
 40
0.2981366459627329
 40
0.2981366459627329
 40
0.2981366459627329
 40
0.3043478260869565
 40
0.3043478260869565
 40
0.3043478260869565
 40
0.3043478260869565
 40
0.3105590062111801
 40
0.3105590062111801
 40
0.3105590062111801
 40
0.3105590062111801
 40
0.3167701863354037
 40
0.3167701863354037
 40
0.3167701863354037
 40
0.3167701863354037
 40
0.3229813664596273
 40
0.3229813664596273
 40
0.3229813664596273
 40
0.3229813664596273
 40
0.3291925465838509
 40
0.3291925465838509
 40
0.3291925465838509
 40
0.3291925465838509
 40
0.3354037267080746
 40
0.3354037267080746
 40
0.3354037267080746
 40
0.3354037267080746
 40
0.3416149068322981
 40
0.3416149068322981
 40
0.3416149068322981
 40
0.3416149068322981
 40
0.3478260869565217
 40
0.3478260869565217
 40
0.3478260869565217
 40
0.3478260869565217
 40
0.3540372670807453
 40
0.3540372670807453
 40
0.3540372670807453
 40
0.3540372670807453
 40
0.360248447204969
 40
0.360248447204969
 40
0.360248447204969
 40
0.360248447204969
 40
0.3664596273291926
 40
0.3664596273291926
 40
0.3664596273291926
 40
0.3664596273291926
 40
0.3726708074534161
 40
0.3726708074534161
 40
0.3726708074534161
 40
0.3726708074534161
 40
0.3788819875776397
 40
0.3788819875776397
 40
0.3788819875776397
 40
0.3788819875776397
 40
0.3850931677018634
 40
0.3850931677018634
 40
0.3850931677018634
 40
0.3850931677018634
 40
0.391304347826087
 40
0.391304347826087
 40
0.391304347826087
 40
0.391304347826087
 40
0.3975155279503105
 40
0.3975155279503105
 40
0.3975155279503105
 40
0.3975155279503105
 40
0.4037267080745341
 40
0.4037267080745341
 40
0.4037267080745341
 40
0.4037267080745341
 40
0.4099378881987578
 40
0.4099378881987578
 40
0.4099378881987578
 40
0.4099378881987578
 40
0.4161490683229814
 40
0.4161490683229814
 40
0.4161490683229814
 40
0.4161490683229814
 40
0.422360248447205
 40
0.422360248447205
 40
0.422360248447205
 40
0.422360248447205
 40
0.4285714285714285
 40
0.4285714285714285
 40
0.4285714285714285
 40
0.4285714285714285
 40
0.4347826086956522
 40
0.4347826086956522
 40
0.4347826086956522
 40
0.4347826086956522
 40
0.4409937888198758
 40
0.4409937888198758
 40
0.4409937888198758
 40
0.4409937888198758
 40
0.4472049689440994
 40
0.4472049689440994
 40
0.4472049689440994
 40
0.4472049689440994
 40
0.453416149068323
 40
0.453416149068323
 40
0.453416149068323
 40
0.453416149068323
 40
0.4596273291925466
 40
0.4596273291925466
 40
0.4596273291925466
 40
0.4596273291925466
 40
0.4658385093167702
 40
0.4658385093167702
 40
0.4658385093167702
 40
0.4658385093167702
 40
0.4720496894409938
 40
0.4720496894409938
 40
0.4720496894409938
 40
0.4720496894409938
 40
0.4782608695652174
 40
0.4782608695652174
 40
0.4782608695652174
 40
0.4782608695652174
 40
0.484472049689441
 40
0.484472049689441
 40
0.484472049689441
 40
0.484472049689441
 40
0.4906832298136646
 40
0.4906832298136646
 40
0.4906832298136646
 40
0.4906832298136646
 40
0.4968944099378882
 40
0.4968944099378882
 40
0.4968944099378882
 40
0.4968944099378882
 40
0.5031055900621118
 40
0.5031055900621118
 40
0.5031055900621118
 40
0.5031055900621118
 40
0.5093167701863354
 40
0.5093167701863354
 40
0.5093167701863354
 40
0.5093167701863354
 40
0.515527950310559
 40
0.515527950310559
 40
0.515527950310559
 40
0.515527950310559
 40
0.5217391304347826
 40
0.5217391304347826
 40
0.5217391304347826
 40
0.5217391304347826
 40
0.5279503105590062
 40
0.5279503105590062
 40
0.5279503105590062
 40
0.5279503105590062
 40
0.5341614906832298
 40
0.5341614906832298
 40
0.5341614906832298
 40
0.5341614906832298
 40
0.5403726708074534
 40
0.5403726708074534
 40
0.5403726708074534
 40
0.5403726708074534
 40
0.546583850931677
 40
0.546583850931677
 40
0.546583850931677
 40
0.546583850931677
 40
0.5527950310559007
 40
0.5527950310559007
 40
0.5527950310559007
 40
0.5527950310559007
 40
0.5590062111801242
 40
0.5590062111801242
 40
0.5590062111801242
 40
0.5590062111801242
 40
0.5652173913043478
 40
0.5652173913043478
 40
0.5652173913043478
 40
0.5652173913043478
 40
0.5714285714285714
 40
0.5714285714285714
 40
0.5714285714285714
 40
0.5714285714285714
 40
0.577639751552795
 40
0.577639751552795
 40
0.577639751552795
 40
0.577639751552795
 40
0.5838509316770186
 40
0.5838509316770186
 40
0.5838509316770186
 40
0.5838509316770186
 40
0.5900621118012422
 40
0.5900621118012422
 40
0.5900621118012422
 40
0.5900621118012422
 40
0.5962732919254659
 40
0.5962732919254659
 40
0.5962732919254659
 40
0.5962732919254659
 40
0.6024844720496895
 40
0.6024844720496895
 40
0.6024844720496895
 40
0.6024844720496895
 40
0.6086956521739131
 40
0.6086956521739131
 40
0.6086956521739131
 40
0.6086956521739131
 40
0.6149068322981367
 40
0.6149068322981367
 40
0.6149068322981367
 40
0.6149068322981367
 40
0.6211180124223602
 40
0.6211180124223602
 40
0.6211180124223602
 40
0.6211180124223602
 40
0.6273291925465838
 40
0.6273291925465838
 40
0.6273291925465838
 40
0.6273291925465838
 40
0.6335403726708074
 40
0.6335403726708074
 40
0.6335403726708074
 40
0.6335403726708074
 40
0.639751552795031
 40
0.639751552795031
 40
0.639751552795031
 40
0.639751552795031
 40
0.6459627329192547
 40
0.6459627329192547
 40
0.6459627329192547
 40
0.6459627329192547
 40
0.6521739130434783
 40
0.6521739130434783
 40
0.6521739130434783
 40
0.6521739130434783
 40
0.6583850931677019
 40
0.6583850931677019
 40
0.6583850931677019
 40
0.6583850931677019
 40
0.6645962732919255
 40
0.6645962732919255
 40
0.6645962732919255
 40
0.6645962732919255
 40
0.6708074534161491
 40
0.6708074534161491
 40
0.6708074534161491
 40
0.6708074534161491
 40
0.6770186335403726
 40
0.6770186335403726
 40
0.6770186335403726
 40
0.6770186335403726
 40
0.6832298136645962
 40
0.6832298136645962
 40
0.6832298136645962
 40
0.6832298136645962
 40
0.6894409937888198
 40
0.6894409937888198
 40
0.6894409937888198
 40
0.6894409937888198
 40
0.6956521739130435
 40
0.6956521739130435
 40
0.6956521739130435
 40
0.6956521739130435
 40
0.7018633540372671
 40
0.7018633540372671
 40
0.7018633540372671
 40
0.7018633540372671
 40
0.7080745341614907
 40
0.7080745341614907
 40
0.7080745341614907
 40
0.7080745341614907
 40
0.7142857142857143
 40
0.7142857142857143
 40
0.7142857142857143
 40
0.7142857142857143
 40
0.7204968944099379
 40
0.7204968944099379
 40
0.7204968944099379
 40
0.7204968944099379
 40
0.7267080745341615
 40
0.7267080745341615
 40
0.7267080745341615
 40
0.7267080745341615
 40
0.7329192546583851
 40
0.7329192546583851
 40
0.7329192546583851
 40
0.7329192546583851
 40
0.7391304347826086
 40
0.7391304347826086
 40
0.7391304347826086
 40
0.7391304347826086
 40
0.7453416149068323
 40
0.7453416149068323
 40
0.7453416149068323
 40
0.7453416149068323
 40
0.7515527950310559
 40
0.7515527950310559
 40
0.7515527950310559
 40
0.7515527950310559
 40
0.7577639751552795
 40
0.7577639751552795
 40
0.7577639751552795
 40
0.7577639751552795
 40
0.7639751552795031
 40
0.7639751552795031
 40
0.7639751552795031
 40
0.7639751552795031
 40
0.7701863354037267
 40
0.7701863354037267
 40
0.7701863354037267
 40
0.7701863354037267
 40
0.7763975155279503
 40
0.7763975155279503
 40
0.7763975155279503
 40
0.7763975155279503
 40
0.782608695652174
 40
0.782608695652174
 40
0.782608695652174
 40
0.782608695652174
 40
0.7888198757763976
 40
0.7888198757763976
 40
0.7888198757763976
 40
0.7888198757763976
 40
0.7950310559006211
 40
0.7950310559006211
 40
0.7950310559006211
 40
0.7950310559006211
 40
0.8012422360248447
 40
0.8012422360248447
 40
0.8012422360248447
 40
0.8012422360248447
 40
0.8074534161490683
 40
0.8074534161490683
 40
0.8074534161490683
 40
0.8074534161490683
 40
0.8136645962732919
 40
0.8136645962732919
 40
0.8136645962732919
 40
0.8136645962732919
 40
0.8198757763975155
 40
0.8198757763975155
 40
0.8198757763975155
 40
0.8198757763975155
 40
0.8260869565217391
 40
0.8260869565217391
 40
0.8260869565217391
 40
0.8260869565217391
 40
0.8322981366459627
 40
0.8322981366459627
 40
0.8322981366459627
 40
0.8322981366459627
 40
0.8385093167701864
 40
0.8385093167701864
 40
0.8385093167701864
 40
0.8385093167701864
 40
0.84472049689441
 40
0.84472049689441
 40
0.84472049689441
 40
0.84472049689441
 40
0.8509316770186336
 40
0.8509316770186336
 40
0.8509316770186336
 40
0.8509316770186336
 40
0.8571428571428571
 40
0.8571428571428571
 40
0.8571428571428571
 40
0.8571428571428571
 40
0.8633540372670807
 40
0.8633540372670807
 40
0.8633540372670807
 40
0.8633540372670807
 40
0.8695652173913043
 40
0.8695652173913043
 40
0.8695652173913043
 40
0.8695652173913043
 40
0.8757763975155279
 40
0.8757763975155279
 40
0.8757763975155279
 40
0.8757763975155279
 40
0.8819875776397516
 40
0.8819875776397516
 40
0.8819875776397516
 40
0.8819875776397516
 40
0.8881987577639752
 40
0.8881987577639752
 40
0.8881987577639752
 40
0.8881987577639752
 40
0.8944099378881988
 40
0.8944099378881988
 40
0.8944099378881988
 40
0.8944099378881988
 40
0.9006211180124224
 40
0.9006211180124224
 40
0.9006211180124224
 40
0.9006211180124224
 40
0.906832298136646
 40
0.906832298136646
 40
0.906832298136646
 40
0.906832298136646
 40
0.9130434782608695
 40
0.9130434782608695
 40
0.9130434782608695
 40
0.9130434782608695
 40
0.9192546583850931
 40
0.9192546583850931
 40
0.9192546583850931
 40
0.9192546583850931
 40
0.9254658385093167
 40
0.9254658385093167
 40
0.9254658385093167
 40
0.9254658385093167
 40
0.9316770186335404
 40
0.9316770186335404
 40
0.9316770186335404
 40
0.9316770186335404
 40
0.937888198757764
 40
0.937888198757764
 40
0.937888198757764
 40
0.937888198757764
 40
0.9440993788819876
 40
0.9440993788819876
 40
0.9440993788819876
 40
0.9440993788819876
 40
0.9503105590062112
 40
0.9503105590062112
 40
0.9503105590062112
 40
0.9503105590062112
 40
0.9565217391304348
 40
0.9565217391304348
 40
0.9565217391304348
 40
0.9565217391304348
 40
0.9627329192546584
 40
0.9627329192546584
 40
0.9627329192546584
 40
0.9627329192546584
 40
0.968944099378882
 40
0.968944099378882
 40
0.968944099378882
 40
0.968944099378882
 40
0.9751552795031055
 40
0.9751552795031055
 40
0.9751552795031055
 40
0.9751552795031055
 40
0.9813664596273292
 40
0.9813664596273292
 40
0.9813664596273292
 40
0.9813664596273292
 40
0.9875776397515528
 40
0.9875776397515528
 40
0.9875776397515528
 40
0.9875776397515528
 40
1.0
 40
1.0
 40
1.0
 40
1.0
 10
-4.56
 20
9.806220472440945
 30
0.0
 10
-4.384637795275591
 20
9.943952755905512
 30
0.0
 10
-4.07451968503937
 20
10.14267322834646
 30
0.0
 10
-3.692145669291338
 20
10.40912992125984
 30
0.0
 10
-3.692145669291338
 20
10.40912992125984
 30
0.0
 10
-3.309779527559055
 20
10.67557874015748
 30
0.0
 10
-2.855141732283465
 20
11.00978346456693
 30
0.0
 10
-2.523948818897638
 20
11.25064566929134
 30
0.0
 10
-2.523948818897638
 20
11.25064566929134
 30
0.0
 10
-2.192763779527559
 20
11.49151181102362
 30
0.0
 10
-1.985015748031496
 20
11.63904724409449
 30
0.0
 10
-1.772751968503937
 20
11.74142125984252
 30
0.0
 10
-1.772751968503937
 20
11.74142125984252
 30
0.0
 10
-1.560488188976378
 20
11.84378346456693
 30
0.0
 10
-1.343708661417323
 20
11.9009842519685
 30
0.0
 10
-1.001976377952756
 20
11.91603543307087
 30
0.0
 10
-1.001976377952756
 20
11.91603543307087
 30
0.0
 10
-0.660251968503937
 20
11.9310905511811
 30
0.0
 10
-0.1935826771653543
 20
11.90399606299213
 30
0.0
 10
0.1963228346456693
 20
11.84979921259843
 30
0.0
 10
0.1963228346456693
 20
11.84979921259843
 30
0.0
 10
0.5862244094488189
 20
11.7956062992126
 30
0.0
 10
0.8993464566929134
 20
11.71431496062992
 30
0.0
 10
1.195917322834646
 20
11.62549606299213
 30
0.0
 10
1.195917322834646
 20
11.62549606299213
 30
0.0
 10
1.492476377952756
 20
11.53667716535433
 30
0.0
 10
1.772488188976378
 20
11.44032677165354
 30
0.0
 10
1.975720472440945
 20
11.42527165354331
 30
0.0
 10
1.975720472440945
 20
11.42527165354331
 30
0.0
 10
2.178944881889764
 20
11.41022047244095
 30
0.0
 10
2.305393700787401
 20
11.47646456692913
 30
0.0
 10
2.487555118110236
 20
11.49453149606299
 30
0.0
 10
2.487555118110236
 20
11.49453149606299
 30
0.0
 10
2.669708661417323
 20
11.5125905511811
 30
0.0
 10
2.90755905511811
 20
11.48248031496063
 30
0.0
 10
3.106279527559055
 20
11.47194094488189
 30
0.0
 10
3.106279527559055
 20
11.47194094488189
 30
0.0
 10
3.304988188976378
 20
11.46140157480315
 30
0.0
 10
3.464570866141732
 20
11.47043700787402
 30
0.0
 10
3.560917322834646
 20
11.48549212598425
 30
0.0
 10
3.560917322834646
 20
11.48549212598425
 30
0.0
 10
3.657263779527559
 20
11.50054724409449
 30
0.0
 10
3.690377952755906
 20
11.52162204724409
 30
0.0
 10
3.780708661417323
 20
11.53216141732283
 30
0.0
 10
3.780708661417323
 20
11.53216141732283
 30
0.0
 10
3.871027559055118
 20
11.54270078740158
 30
0.0
 10
4.01855905511811
 20
11.54270078740158
 30
0.0
 10
4.16759842519685
 20
11.49603543307087
 30
0.0
 10
4.16759842519685
 20
11.49603543307087
 30
0.0
 10
4.316625984251968
 20
11.44936614173228
 30
0.0
 10
4.467169291338583
 20
11.35602362204724
 30
0.0
 10
4.578570866141733
 20
11.26268897637795
 30
0.0
 10
4.578570866141733
 20
11.26268897637795
 30
0.0
 10
4.689972440944882
 20
11.16935433070866
 30
0.0
 10
4.762224409448819
 20
11.07601968503937
 30
0.0
 10
4.810405511811024
 20
11.03387007874016
 30
0.0
 10
4.810405511811024
 20
11.03387007874016
 30
0.0
 10
4.858574803149606
 20
10.99171653543307
 30
0.0
 10
4.882665354330709
 20
11.00075590551181
 30
0.0
 10
5.055791338582678
 20
11.07753149606299
 30
0.0
 10
5.055791338582678
 20
11.07753149606299
 30
0.0
 10
5.228905511811024
 20
11.15429921259843
 30
0.0
 10
5.551066929133858
 20
11.29882677165354
 30
0.0
 10
5.943984251968504
 20
11.4523779527559
 30
0.0
 10
5.943984251968504
 20
11.4523779527559
 30
0.0
 10
6.336889763779528
 20
11.60592519685039
 30
0.0
 10
6.800555118110236
 20
11.76850787401575
 30
0.0
 10
7.094110236220472
 20
11.86184251968504
 30
0.0
 10
7.094110236220472
 20
11.86184251968504
 30
0.0
 10
7.387665354330709
 20
11.95517716535433
 30
0.0
 10
7.511102362204724
 20
11.97927165354331
 30
0.0
 10
7.863366141732284
 20
11.99131102362205
 30
0.0
 10
7.863366141732284
 20
11.99131102362205
 30
0.0
 10
8.215633858267717
 20
12.00335433070866
 30
0.0
 10
8.796724409448819
 20
12.00335433070866
 30
0.0
 10
9.188129921259842
 20
11.98829921259843
 30
0.0
 10
9.188129921259842
 20
11.98829921259843
 30
0.0
 10
9.579535433070866
 20
11.97324409448819
 30
0.0
 10
9.781267716535433
 20
11.94314173228346
 30
0.0
 10
10.00557086614173
 20
11.87540551181102
 30
0.0
 10
10.00557086614173
 20
11.87540551181102
 30
0.0
 10
10.22987795275591
 20
11.80765748031496
 30
0.0
 10
10.47676771653543
 20
11.70227165354331
 30
0.0
 10
10.73268503937008
 20
11.54721653543307
 30
0.0
 10
10.73268503937008
 20
11.54721653543307
 30
0.0
 10
10.98860236220473
 20
11.39215748031496
 30
0.0
 10
11.25355905511811
 20
11.18742519685039
 30
0.0
 10
11.49893700787402
 20
11.03236614173228
 30
0.0
 10
11.49893700787402
 20
11.03236614173228
 30
0.0
 10
11.74431496062992
 20
10.87731102362205
 30
0.0
 10
11.97012992125984
 20
10.77192519685039
 30
0.0
 10
12.16281496062992
 20
10.65902362204724
 30
0.0
 10
12.16281496062992
 20
10.65902362204724
 30
0.0
 10
12.35550787401575
 20
10.54611811023622
 30
0.0
 10
12.51508661417323
 20
10.42568503937008
 30
0.0
 10
12.60842125984252
 20
10.31880708661417
 30
0.0
 10
12.60842125984252
 20
10.31880708661417
 30
0.0
 10
12.70175590551181
 20
10.21192125984252
 30
0.0
 10
12.72885433070866
 20
10.11857874015748
 30
0.0
 10
12.76949606299213
 20
10.06288188976378
 30
0.0
 10
12.76949606299213
 20
10.06288188976378
 30
0.0
 10
12.81014566929134
 20
10.00717716535433
 30
0.0
 10
12.86433858267717
 20
9.98911811023622
 30
0.0
 10
12.9335905511811
 20
9.921377952755906
 30
0.0
 10
12.9335905511811
 20
9.921377952755906
 30
0.0
 10
13.00283858267717
 20
9.853629921259843
 30
0.0
 10
13.08714173228346
 20
9.736204724409449
 30
0.0
 10
13.11574409448819
 20
9.642870078740158
 30
0.0
 10
13.11574409448819
 20
9.642870078740158
 30
0.0
 10
13.14435039370079
 20
9.549535433070867
 30
0.0
 10
13.11725196850394
 20
9.480287401574802
 30
0.0
 10
13.09768503937008
 20
9.426090551181103
 30
0.0
 10
13.09768503937008
 20
9.426090551181103
 30
0.0
 10
13.07811417322835
 20
9.371897637795275
 30
0.0
 10
13.06606299212598
 20
9.332755905511812
 30
0.0
 10
13.09542125984252
 20
9.27179527559055
 30
0.0
 10
13.09542125984252
 20
9.27179527559055
 30
0.0
 10
13.12479133858268
 20
9.210822834645668
 30
0.0
 10
13.19555118110236
 20
9.12803937007874
 30
0.0
 10
13.24899212598425
 20
9.045996062992126
 30
0.0
 10
13.24899212598425
 20
9.045996062992126
 30
0.0
 10
13.30244488188976
 20
8.963952755905511
 30
0.0
 10
13.33858267716535
 20
8.882661417322835
 30
0.0
 10
13.33029527559055
 20
8.778035433070865
 30
0.0
 10
13.33029527559055
 20
8.778035433070865
 30
0.0
 10
13.3220157480315
 20
8.673409448818898
 30
0.0
 10
13.26933070866142
 20
8.545452755905512
 30
0.0
 10
13.25276377952756
 20
8.434807086614173
 30
0.0
 10
13.25276377952756
 20
8.434807086614173
 30
0.0
 10
13.23620866141732
 20
8.32415748031496
 30
0.0
 10
13.25577952755905
 20
8.230814960629921
 30
0.0
 10
13.26480708661417
 20
8.153287401574802
 30
0.0
 10
13.26480708661417
 20
8.153287401574802
 30
0.0
 10
13.27384645669291
 20
8.075759842519686
 30
0.0
 10
13.27233464566929
 20
8.014035433070866
 30
0.0
 10
13.26179527559055
 20
7.929732283464567
 30
0.0
 10
13.26179527559055
 20
7.929732283464567
 30
0.0
 10
13.25125590551181
 20
7.845429133858268
 30
0.0
 10
13.23167716535433
 20
7.738551181102363
 30
0.0
 10
13.20533070866142
 20
7.623381889763779
 30
0.0
 10
13.20533070866142
 20
7.623381889763779
 30
0.0
 10
13.1789842519685
 20
7.508216535433071
 30
0.0
 10
13.14586220472441
 20
7.384775590551181
 30
0.0
 10
13.12479133858268
 20
7.226704724409449
 30
0.0
 10
13.12479133858268
 20
7.226704724409449
 30
0.0
 10
13.10371653543307
 20
7.06863779527559
 30
0.0
 10
13.09468110236221
 20
6.87594094488189
 30
0.0
 10
13.06306692913386
 20
6.750996062992126
 30
0.0
 10
13.06306692913386
 20
6.750996062992126
 30
0.0
 10
13.03145669291339
 20
6.626043307086614
 30
0.0
 10
12.97725984251968
 20
6.568842519685039
 30
0.0
 10
12.96822440944882
 20
6.48453937007874
 30
0.0
 10
12.96822440944882
 20
6.48453937007874
 30
0.0
 10
12.95919291338583
 20
6.400232283464567
 30
0.0
 10
12.99532677165354
 20
6.288838582677165
 30
0.0
 10
12.93059448818898
 20
6.132283464566929
 30
0.0
 10
12.93059448818898
 20
6.132283464566929
 30
0.0
 10
12.86585826771654
 20
5.975716535433071
 30
0.0
 10
12.70026377952756
 20
5.773984251968504
 30
0.0
 10
12.44283464566929
 20
5.52257874015748
 30
0.0
 10
12.44283464566929
 20
5.52257874015748
 30
0.0
 10
12.18541338582677
 20
5.271177165354331
 30
0.0
 10
11.83615354330709
 20
4.970094488188977
 30
0.0
 10
11.65098818897638
 20
4.81503937007874
 30
0.0
 10
11.65098818897638
 20
4.81503937007874
 30
0.0
 10
11.46583070866142
 20
4.65998031496063
 30
0.0
 10
11.44474803149606
 20
4.650944881889764
 30
0.0
 10
11.36044488188976
 20
4.687078740157481
 30
0.0
 10
11.36044488188976
 20
4.687078740157481
 30
0.0
 10
11.27614960629921
 20
4.723204724409449
 30
0.0
 10
11.12861023622047
 20
4.804496062992126
 30
0.0
 10
11.06838976377953
 20
4.81653937007874
 30
0.0
 10
11.06838976377953
 20
4.81653937007874
 30
0.0
 10
11.0081811023622
 20
4.828582677165354
 30
0.0
 10
11.03527559055118
 20
4.77138188976378
 30
0.0
 10
11.07742913385827
 20
4.699122047244095
 30
0.0
 10
11.07742913385827
 20
4.699122047244095
 30
0.0
 10
11.11958267716535
 20
4.626858267716536
 30
0.0
 10
11.1767874015748
 20
4.539551181102362
 30
0.0
 10
11.18280708661417
 20
4.453744094488189
 30
0.0
 10
11.18280708661417
 20
4.453744094488189
 30
0.0
 10
11.18883070866142
 20
4.367929133858268
 30
0.0
 10
11.14367322834646
 20
4.283633858267716
 30
0.0
 10
11.00366535433071
 20
4.128574803149606
 30
0.0
 10
11.00366535433071
 20
4.128574803149606
 30
0.0
 10
10.86366535433071
 20
3.97351968503937
 30
0.0
 10
10.6288188976378
 20
3.747704724409449
 30
0.0
 10
10.48730708661417
 20
3.66792125984252
 30
0.0
 10
10.48730708661417
 20
3.66792125984252
 30
0.0
 10
10.3458031496063
 20
3.588133858267716
 30
0.0
 10
10.29762598425197
 20
3.654370078740158
 30
0.0
 10
10.24041732283465
 20
3.705551181102362
 30
0.0
 10
10.24041732283465
 20
3.705551181102362
 30
0.0
 10
10.18322047244095
 20
3.756732283464567
 30
0.0
 10
10.11697244094488
 20
3.792870078740158
 30
0.0
 10
10.07933464566929
 20
3.785342519685039
 30
0.0
 10
10.07933464566929
 20
3.785342519685039
 30
0.0
 10
10.04170866141732
 20
3.777814960629921
 30
0.0
 10
10.03266929133858
 20
3.726622047244094
 30
0.0
 10
10.06277952755906
 20
3.646842519685039
 30
0.0
 10
10.06277952755906
 20
3.646842519685039
 30
0.0
 10
10.09288976377953
 20
3.567051181102362
 30
0.0
 10
10.16213779527559
 20
3.458661417322835
 30
0.0
 10
10.17568503937008
 20
3.345759842519685
 30
0.0
 10
10.17568503937008
 20
3.345759842519685
 30
0.0
 10
10.18923622047244
 20
3.232854330708661
 30
0.0
 10
10.1470905511811
 20
3.115429133858268
 30
0.0
 10
10.00708267716535
 20
2.900161417322835
 30
0.0
 10
10.00708267716535
 20
2.900161417322835
 30
0.0
 10
9.867082677165355
 20
2.684885826771653
 30
0.0
 10
9.629232283464567
 20
2.371759842519685
 30
0.0
 10
9.400409448818898
 20
2.145952755905512
 30
0.0
 10
9.400409448818898
 20
2.145952755905512
 30
0.0
 10
9.171582677165354
 20
1.920133858267717
 30
0.0
 10
8.951791338582677
 20
1.781645669291338
 30
0.0
 10
8.80426377952756
 20
1.700354330708661
 30
0.0
 10
8.80426377952756
 20
1.700354330708661
 30
0.0
 10
8.656732283464567
 20
1.61905905511811
 30
0.0
 10
8.581456692913386
 20
1.594968503937008
 30
0.0
 10
8.476082677165355
 20
1.61905905511811
 30
0.0
 10
8.476082677165355
 20
1.61905905511811
 30
0.0
 10
8.37070472440945
 20
1.643145669291339
 30
0.0
 10
8.235220472440945
 20
1.715397637795276
 30
0.0
 10
8.153929133858268
 20
1.72594094488189
 30
0.0
 10
8.153929133858268
 20
1.72594094488189
 30
0.0
 10
8.072633858267716
 20
1.73648031496063
 30
0.0
 10
8.04553937007874
 20
1.685287401574803
 30
0.0
 10
7.982314960629921
 20
1.578409448818898
 30
0.0
 10
7.982314960629921
 20
1.578409448818898
 30
0.0
 10
7.919082677165354
 20
1.471523622047244
 30
0.0
 10
7.819728346456693
 20
1.30894094488189
 30
0.0
 10
7.684244094488189
 20
1.105712598425197
 30
0.0
 10
7.684244094488189
 20
1.105712598425197
 30
0.0
 10
7.548755905511811
 20
0.902488188976378
 30
0.0
 10
7.377145669291338
 20
0.6586299212598425
 30
0.0
 10
7.292846456692914
 20
0.5156259842519685
 30
0.0
 10
7.292846456692914
 20
0.5156259842519685
 30
0.0
 10
7.208543307086615
 20
0.3726102362204725
 30
0.0
 10
7.211555118110236
 20
0.3304606299212599
 30
0.0
 10
7.179944881889764
 20
0.1468031496062992
 30
0.0
 10
7.179944881889764
 20
0.1468031496062992
 30
0.0
 10
7.148330708661417
 20
-0.0368622047244095
 30
0.0
 10
7.082086614173228
 20
-0.3620275590551181
 30
0.0
 10
7.041444881889764
 20
-0.5998779527559055
 30
0.0
 10
7.041444881889764
 20
-0.5998779527559055
 30
0.0
 10
7.000795275590551
 20
-0.8377362204724409
 30
0.0
 10
6.985740157480315
 20
-0.9882795275590551
 30
0.0
 10
6.972196850393701
 20
-1.132795275590551
 30
0.0
 10
6.972196850393701
 20
-1.132795275590551
 30
0.0
 10
6.958641732283464
 20
-1.277318897637795
 30
0.0
 10
6.94659842519685
 20
-1.415811023622047
 30
0.0
 10
6.918
 20
-1.570866141732284
 30
0.0
 10
6.918
 20
-1.570866141732284
 30
0.0
 10
6.889393700787402
 20
-1.725929133858268
 30
0.0
 10
6.844236220472441
 20
-1.897543307086614
 30
0.0
 10
6.785527559055118
 20
-2.159488188976378
 30
0.0
 10
6.785527559055118
 20
-2.159488188976378
 30
0.0
 10
6.726811023622047
 20
-2.421429133858268
 30
0.0
 10
6.654555118110236
 20
-2.773696850393701
 30
0.0
 10
6.568748031496063
 20
-3.305102362204724
 30
0.0
 10
6.568748031496063
 20
-3.305102362204724
 30
0.0
 10
6.482933070866141
 20
-3.836515748031496
 30
0.0
 10
6.383582677165355
 20
-4.54705905511811
 30
0.0
 10
6.297775590551181
 20
-5.117606299212598
 30
0.0
 10
6.297775590551181
 20
-5.117606299212598
 30
0.0
 10
6.21196062992126
 20
-5.688161417322835
 30
0.0
 10
6.139708661417322
 20
-6.118712598425197
 30
0.0
 10
6.085511811023622
 20
-6.562799212598425
 30
0.0
 10
6.085511811023622
 20
-6.562799212598425
 30
0.0
 10
6.031311023622047
 20
-7.006889763779528
 30
0.0
 10
5.995181102362205
 20
-7.46451968503937
 30
0.0
 10
5.969586614173228
 20
-7.84990157480315
 30
0.0
 10
5.969586614173228
 20
-7.84990157480315
 30
0.0
 10
5.943992125984252
 20
-8.235279527559054
 30
0.0
 10
5.928944881889763
 20
-8.548405511811024
 30
0.0
 10
5.925933070866142
 20
-8.70496062992126
 30
0.0
 10
5.925933070866142
 20
-8.70496062992126
 30
0.0
 10
5.92292125984252
 20
-8.861527559055117
 30
0.0
 10
5.931956692913386
 20
-8.861527559055117
 30
0.0
 10
6.090027559055118
 20
-8.866043307086613
 30
0.0
 10
6.090027559055118
 20
-8.866043307086613
 30
0.0
 10
6.248086614173229
 20
-8.870559055118111
 30
0.0
 10
6.555196850393701
 20
-8.87959842519685
 30
0.0
 10
6.839720472440945
 20
-8.885614173228346
 30
0.0
 10
6.839720472440945
 20
-8.885614173228346
 30
0.0
 10
7.124240157480315
 20
-8.89163779527559
 30
0.0
 10
7.386173228346457
 20
-8.894641732283464
 30
0.0
 10
7.452417322834646
 20
-8.853992125984252
 30
0.0
 10
7.452417322834646
 20
-8.853992125984252
 30
0.0
 10
7.51865748031496
 20
-8.813350393700787
 30
0.0
 10
7.389185039370079
 20
-8.729055118110237
 30
0.0
 10
7.176933070866141
 20
-8.433988188976379
 30
0.0
 10
7.176933070866141
 20
-8.433988188976379
 30
0.0
 10
6.964669291338582
 20
-8.138933070866141
 30
0.0
 10
6.669602362204724
 20
-7.633114173228346
 30
0.0
 10
6.585307086614173
 20
-7.410311023622048
 30
0.0
 10
6.585307086614173
 20
-7.410311023622048
 30
0.0
 10
6.501
 20
-7.187515748031496
 30
0.0
 10
6.627448818897638
 20
-7.247724409448819
 30
0.0
 10
6.905948818897638
 20
-7.547299212598425
 30
0.0
 10
6.905948818897638
 20
-7.547299212598425
 30
0.0
 10
7.184448818897637
 20
-7.846877952755905
 30
0.0
 10
7.615003937007874
 20
-8.385818897637796
 30
0.0
 10
7.848338582677165
 20
-8.629696850393701
 30
0.0
 10
7.848338582677165
 20
-8.629696850393701
 30
0.0
 10
8.081673228346457
 20
-8.873570866141732
 30
0.0
 10
8.117807086614173
 20
-8.82238188976378
 30
0.0
 10
8.129850393700787
 20
-8.763673228346457
 30
0.0
 10
8.129850393700787
 20
-8.763673228346457
 30
0.0
 10
8.141893700787401
 20
-8.70496062992126
 30
0.0
 10
8.129850393700787
 20
-8.63872440944882
 30
0.0
 10
7.952212598425197
 20
-8.265381889763779
 30
0.0
 10
7.952212598425197
 20
-8.265381889763779
 30
0.0
 10
7.774574803149607
 20
-7.892043307086614
 30
0.0
 10
7.431346456692913
 20
-7.211598425196851
 30
0.0
 10
7.338011811023622
 20
-6.89546062992126
 30
0.0
 10
7.338011811023622
 20
-6.89546062992126
 30
0.0
 10
7.244669291338583
 20
-6.579322834645669
 30
0.0
 10
7.401236220472441
 20
-6.6275
 30
0.0
 10
7.658665354330709
 20
-6.972236220472441
 30
0.0
 10
7.658665354330709
 20
-6.972236220472441
 30
0.0
 10
7.916086614173229
 20
-7.316976377952756
 30
0.0
 10
8.274366141732283
 20
-7.958279527559055
 30
0.0
 10
8.458031496062992
 20
-8.280437007874015
 30
0.0
 10
8.458031496062992
 20
-8.280437007874015
 30
0.0
 10
8.64168503937008
 20
-8.60259842519685
 30
0.0
 10
8.650724409448818
 20
-8.605602362204724
 30
0.0
 10
8.719976377952756
 20
-8.58151968503937
 30
0.0
 10
8.719976377952756
 20
-8.58151968503937
 30
0.0
 10
8.789224409448819
 20
-8.557433070866141
 30
0.0
 10
8.918685039370079
 20
-8.506251968503937
 30
0.0
 10
8.980405511811023
 20
-8.432488188976379
 30
0.0
 10
8.980405511811023
 20
-8.432488188976379
 30
0.0
 10
9.042129921259843
 20
-8.358724409448818
 30
0.0
 10
9.036114173228347
 20
-8.262377952755905
 30
0.0
 10
9.112889763779528
 20
-7.86796062992126
 30
0.0
 10
9.112889763779528
 20
-7.86796062992126
 30
0.0
 10
9.18965748031496
 20
-7.473543307086614
 30
0.0
 10
9.349236220472442
 20
-6.781055118110237
 30
0.0
 10
9.516334645669291
 20
-6.326417322834645
 30
0.0
 10
9.516334645669291
 20
-6.326417322834645
 30
0.0
 10
9.683433070866142
 20
-5.871791338582677
 30
0.0
 10
9.85805905511811
 20
-5.655003937007874
 30
0.0
 10
9.928811023622048
 20
-5.653492125984252
 30
0.0
 10
9.928811023622048
 20
-5.653492125984252
 30
0.0
 10
9.999570866141733
 20
-5.651988188976378
 30
0.0
 10
9.966448818897637
 20
-5.865763779527559
 30
0.0
 10
9.867090551181102
 20
-6.391153543307087
 30
0.0
 10
9.867090551181102
 20
-6.391153543307087
 30
0.0
 10
9.767740157480315
 20
-6.916543307086614
 30
0.0
 10
9.602141732283464
 20
-7.753543307086614
 30
0.0
 10
9.547948818897638
 20
-8.170543307086614
 30
0.0
 10
9.547948818897638
 20
-8.170543307086614
 30
0.0
 10
9.493751968503936
 20
-8.587543307086614
 30
0.0
 10
9.550952755905511
 20
-8.584531496062992
 30
0.0
 10
9.727090551181103
 20
-8.625173228346457
 30
0.0
 10
9.727090551181103
 20
-8.625173228346457
 30
0.0
 10
9.90321653543307
 20
-8.665822834645668
 30
0.0
 10
10.19828346456693
 20
-8.750125984251968
 30
0.0
 10
10.47377165354331
 20
-8.884102362204725
 30
0.0
 10
10.47377165354331
 20
-8.884102362204725
 30
0.0
 10
10.74925984251968
 20
-9.018086614173228
 30
0.0
 10
11.00518503937008
 20
-9.201751968503936
 30
0.0
 10
11.14217322834646
 20
-9.729342519685039
 30
0.0
 10
11.14217322834646
 20
-9.729342519685039
 30
0.0
 10
11.27916929133858
 20
-10.25694094488189
 30
0.0
 10
11.29722834645669
 20
-11.12846850393701
 30
0.0
 10
11.26561811023622
 20
-11.56423228346457
 30
0.0
 10
11.26561811023622
 20
-11.56423228346457
 30
0.0
 10
11.23401181102362
 20
-12.0
 30
0.0
 10
11.15274015748031
 20
-12.0
 30
0.0
 10
7.04148031496063
 20
-12.0
 30
0.0
 10
7.04148031496063
 20
-12.0
 30
0.0
 10
2.930220472440945
 20
-12.0
 30
0.0
 10
-5.211015748031496
 20
-12.0
 30
0.0
 10
-9.281633858267716
 20
-12.0
 30
0.0
 10
-9.281633858267716
 20
-12.0
 30
0.0
 10
-13.35225196850394
 20
-12.0
 30
0.0
 10
-13.35225196850394
 20
-12.0
 30
0.0
 10
-13.32816929133858
 20
-11.88638976377953
 30
0.0
 10
-13.32816929133858
 20
-11.88638976377953
 30
0.0
 10
-13.30408267716535
 20
-11.77278346456693
 30
0.0
 10
-13.25591338582677
 20
-11.54555905511811
 30
0.0
 10
-13.10236220472441
 20
-11.12183464566929
 30
0.0
 10
-13.10236220472441
 20
-11.12183464566929
 30
0.0
 10
-12.94881496062992
 20
-10.69811811023622
 30
0.0
 10
-12.68988582677165
 20
-10.07788582677165
 30
0.0
 10
-12.56342913385827
 20
-9.617232283464567
 30
0.0
 10
-12.56342913385827
 20
-9.617232283464567
 30
0.0
 10
-12.43697244094488
 20
-9.15657874015748
 30
0.0
 10
-12.44299606299213
 20
-8.855496062992126
 30
0.0
 10
-12.54686220472441
 20
-8.429464566929134
 30
0.0
 10
-12.54686220472441
 20
-8.429464566929134
 30
0.0
 10
-12.65073622047244
 20
-8.003437007874016
 30
0.0
 10
-12.85246850393701
 20
-7.452452755905512
 30
0.0
 10
-12.88709448818898
 20
-7.234173228346457
 30
0.0
 10
-12.88709448818898
 20
-7.234173228346457
 30
0.0
 10
-12.92171653543307
 20
-7.015893700787402
 30
0.0
 10
-12.78923622047244
 20
-7.130299212598425
 30
0.0
 10
-12.61912598425197
 20
-7.473535433070866
 30
0.0
 10
-12.61912598425197
 20
-7.473535433070866
 30
0.0
 10
-12.44901181102362
 20
-7.816767716535433
 30
0.0
 10
-12.24127165354331
 20
-8.38882283464567
 30
0.0
 10
-12.13438582677165
 20
-8.78624409448819
 30
0.0
 10
-12.13438582677165
 20
-8.78624409448819
 30
0.0
 10
-12.0275
 20
-9.18367716535433
 30
0.0
 10
-12.02148031496063
 20
-9.40648031496063
 30
0.0
 10
-11.93266141732284
 20
-9.493787401574803
 30
0.0
 10
-11.93266141732284
 20
-9.493787401574803
 30
0.0
 10
-11.84384251968504
 20
-9.581106299212598
 30
0.0
 10
-11.67222047244094
 20
-9.532929133858268
 30
0.0
 10
-11.48103937007874
 20
-9.456149606299213
 30
0.0
 10
-11.48103937007874
 20
-9.456149606299213
 30
0.0
 10
-11.28985433070866
 20
-9.37938188976378
 30
0.0
 10
-11.07909448818898
 20
-9.273996062992126
 30
0.0
 10
-11.05952362204724
 20
-9.084314960629921
 30
0.0
 10
-11.05952362204724
 20
-9.084314960629921
 30
0.0
 10
-11.03995275590551
 20
-8.894633858267717
 30
0.0
 10
-11.21157480314961
 20
-8.62065748031496
 30
0.0
 10
-11.40878346456693
 20
-8.265381889763779
 30
0.0
 10
-11.40878346456693
 20
-8.265381889763779
 30
0.0
 10
-11.60599212598425
 20
-7.910102362204724
 30
0.0
 10
-11.8287874015748
 20
-7.473535433070866
 30
0.0
 10
-11.96277165354331
 20
-7.185996062992126
 30
0.0
 10
-11.96277165354331
 20
-7.185996062992126
 30
0.0
 10
-12.09675590551181
 20
-6.898464566929134
 30
0.0
 10
-12.14191338582677
 20
-6.759976377952756
 30
0.0
 10
-12.09975984251968
 20
-6.720834645669291
 30
0.0
 10
-12.09975984251968
 20
-6.720834645669291
 30
0.0
 10
-12.05761023622047
 20
-6.681696850393701
 30
0.0
 10
-11.92814960629921
 20
-6.741905511811024
 30
0.0
 10
-11.76103937007874
 20
-6.973740157480315
 30
0.0
 10
-11.76103937007874
 20
-6.973740157480315
 30
0.0
 10
-11.59394094488189
 20
-7.205574803149606
 30
0.0
 10
-11.38921653543307
 20
-7.60901968503937
 30
0.0
 10
-11.22813385826772
 20
-7.937200787401575
 30
0.0
 10
-11.22813385826772
 20
-7.937200787401575
 30
0.0
 10
-11.06705118110236
 20
-8.265381889763779
 30
0.0
 10
-10.94963385826772
 20
-8.51828346456693
 30
0.0
 10
-10.8532874015748
 20
-8.60107874015748
 30
0.0
 10
-10.8532874015748
 20
-8.60107874015748
 30
0.0
 10
-10.75694094488189
 20
-8.68388188976378
 30
0.0
 10
-10.68166535433071
 20
-8.596574803149606
 30
0.0
 10
-10.67563779527559
 20
-8.436992125984252
 30
0.0
 10
-10.67563779527559
 20
-8.436992125984252
 30
0.0
 10
-10.6696220472441
 20
-8.27742125984252
 30
0.0
 10
-10.73285433070866
 20
-8.045590551181103
 30
0.0
 10
-10.84124409448819
 20
-7.685795275590551
 30
0.0
 10
-10.84124409448819
 20
-7.685795275590551
 30
0.0
 10
-10.94963385826772
 20
-7.326003937007874
 30
0.0
 10
-11.10317716535433
 20
-6.838251968503937
 30
0.0
 10
-11.09715354330709
 20
-6.74492125984252
 30
0.0
 10
-11.09715354330709
 20
-6.74492125984252
 30
0.0
 10
-11.09113779527559
 20
-6.651586614173229
 30
0.0
 10
-10.92554724409449
 20
-6.952661417322835
 30
0.0
 10
-10.73134251968504
 20
-7.324496062992126
 30
0.0
 10
-10.73134251968504
 20
-7.324496062992126
 30
0.0
 10
-10.53714960629921
 20
-7.696326771653544
 30
0.0
 10
-10.31435433070866
 20
-8.138925196850394
 30
0.0
 10
-10.2134842519685
 20
-8.525811023622047
 30
0.0
 10
-10.2134842519685
 20
-8.525811023622047
 30
0.0
 10
-10.11262204724409
 20
-8.912700787401574
 30
0.0
 10
-10.13370078740157
 20
-9.243885826771654
 30
0.0
 10
-10.06294094488189
 20
-9.401956692913386
 30
0.0
 10
-10.06294094488189
 20
-9.401956692913386
 30
0.0
 10
-9.992188976377953
 20
-9.560023622047243
 30
0.0
 10
-9.829606299212598
 20
-9.544976377952755
 30
0.0
 10
-9.659496062992126
 20
-9.511854330708662
 30
0.0
 10
-9.659496062992126
 20
-9.511854330708662
 30
0.0
 10
-9.489381889763779
 20
-9.478740157480315
 30
0.0
 10
-9.311751968503938
 20
-9.427551181102363
 30
0.0
 10
-9.188311023622047
 20
-9.311633858267717
 30
0.0
 10
-9.188311023622047
 20
-9.311633858267717
 30
0.0
 10
-9.064866141732283
 20
-9.195716535433071
 30
0.0
 10
-8.995614173228347
 20
-9.015074803149606
 30
0.0
 10
-9.000129921259843
 20
-8.838937007874016
 30
0.0
 10
-9.000129921259843
 20
-8.838937007874016
 30
0.0
 10
-9.004645669291339
 20
-8.662811023622048
 30
0.0
 10
-9.082933070866142
 20
-8.491188976377952
 30
0.0
 10
-9.149169291338582
 20
-8.140425196850394
 30
0.0
 10
-9.149169291338582
 20
-8.140425196850394
 30
0.0
 10
-9.215405511811024
 20
-7.789673228346457
 30
0.0
 10
-9.269602362204724
 20
-7.259767716535433
 30
0.0
 10
-9.317771653543307
 20
-6.964700787401575
 30
0.0
 10
-9.317771653543307
 20
-6.964700787401575
 30
0.0
 10
-9.365948818897637
 20
-6.669645669291339
 30
0.0
 10
-9.408090551181102
 20
-6.609433070866142
 30
0.0
 10
-9.520996062992126
 20
-6.418240157480315
 30
0.0
 10
-9.520996062992126
 20
-6.418240157480315
 30
0.0
 10
-9.633909448818898
 20
-6.227059055118111
 30
0.0
 10
-9.817562992125984
 20
-5.904893700787402
 30
0.0
 10
-9.915413385826772
 20
-5.584244094488189
 30
0.0
 10
-9.915413385826772
 20
-5.584244094488189
 30
0.0
 10
-10.01327165354331
 20
-5.26359842519685
 30
0.0
 10
-10.02531102362205
 20
-4.944448818897638
 30
0.0
 10
-10.03133070866142
 20
-4.688531496062992
 30
0.0
 10
-10.03133070866142
 20
-4.688531496062992
 30
0.0
 10
-10.03735433070866
 20
-4.432614173228346
 30
0.0
 10
-10.03735433070866
 20
-4.239917322834645
 30
0.0
 10
-10.07799606299213
 20
-4.080338582677165
 30
0.0
 10
-10.07799606299213
 20
-4.080338582677165
 30
0.0
 10
-10.11864566929134
 20
-3.920767716535433
 30
0.0
 10
-10.19993700787402
 20
-3.794318897637795
 30
0.0
 10
-10.32789763779528
 20
-3.539905511811023
 30
0.0
 10
-10.32789763779528
 20
-3.539905511811023
 30
0.0
 10
-10.45585826771654
 20
-3.285488188976378
 30
0.0
 10
-10.6304842519685
 20
-2.903122047244095
 30
0.0
 10
-10.80209448818898
 20
-2.477094488188976
 30
0.0
 10
-10.80209448818898
 20
-2.477094488188976
 30
0.0
 10
-10.97371653543307
 20
-2.051062992125984
 30
0.0
 10
-11.14231889763779
 20
-1.581370078740157
 30
0.0
 10
-11.24619291338583
 20
-1.244161417322835
 30
0.0
 10
-11.24619291338583
 20
-1.244161417322835
 30
0.0
 10
-11.35006692913386
 20
-0.9069527559055118
 30
0.0
 10
-11.38921653543307
 20
-0.7022165354330708
 30
0.0
 10
-11.40577165354331
 20
-0.4658700787401575
 30
0.0
 10
-11.40577165354331
 20
-0.4658700787401575
 30
0.0
 10
-11.42233070866142
 20
-0.2295196850393701
 30
0.0
 10
-11.41629527559055
 20
0.0384409448818898
 30
0.0
 10
-11.33199212598425
 20
0.3892007874015748
 30
0.0
 10
-11.33199212598425
 20
0.3892007874015748
 30
0.0
 10
-11.24768503937008
 20
0.7399566929133858
 30
0.0
 10
-11.08510236220472
 20
1.173511811023622
 30
0.0
 10
-10.87133858267716
 20
1.543846456692913
 30
0.0
 10
-10.87133858267716
 20
1.543846456692913
 30
0.0
 10
-10.65757086614173
 20
1.914177165354331
 30
0.0
 10
-10.39261417322835
 20
2.221275590551181
 30
0.0
 10
-10.09454330708661
 20
2.465161417322835
 30
0.0
 10
-10.09454330708661
 20
2.465161417322835
 30
0.0
 10
-9.796476377952755
 20
2.709035433070866
 30
0.0
 10
-9.465291338582677
 20
2.889681102362205
 30
0.0
 10
-9.242488188976377
 20
2.991291338582677
 30
0.0
 10
-9.242488188976377
 20
2.991291338582677
 30
0.0
 10
-9.01968503937008
 20
3.092905511811024
 30
0.0
 10
-8.905275590551181
 20
3.115488188976378
 30
0.0
 10
-8.771291338582676
 20
3.164409448818898
 30
0.0
 10
-8.771291338582676
 20
3.164409448818898
 30
0.0
 10
-8.637307086614173
 20
3.213326771653543
 30
0.0
 10
-8.483763779527559
 20
3.288602362204724
 30
0.0
 10
-8.343003937007873
 20
3.410547244094488
 30
0.0
 10
-8.343003937007873
 20
3.410547244094488
 30
0.0
 10
-8.202248031496064
 20
3.53248031496063
 30
0.0
 10
-8.074283464566928
 20
3.701078740157481
 30
0.0
 10
-7.982448818897637
 20
3.777858267716535
 30
0.0
 10
-7.982448818897637
 20
3.777858267716535
 30
0.0
 10
-7.890625984251969
 20
3.854633858267717
 30
0.0
 10
-7.83492125984252
 20
3.839586614173228
 30
0.0
 10
-7.755889763779527
 20
3.766574803149606
 30
0.0
 10
-7.755889763779527
 20
3.766574803149606
 30
0.0
 10
-7.67686220472441
 20
3.69355905511811
 30
0.0
 10
-7.574488188976378
 20
3.562590551181102
 30
0.0
 10
-7.474377952755906
 20
3.492586614173228
 30
0.0
 10
-7.474377952755906
 20
3.492586614173228
 30
0.0
 10
-7.374275590551181
 20
3.422586614173228
 30
0.0
 10
-7.276417322834646
 20
3.413551181102362
 30
0.0
 10
-7.113834645669291
 20
3.405271653543307
 30
0.0
 10
-7.113834645669291
 20
3.405271653543307
 30
0.0
 10
-6.951251968503937
 20
3.396992125984252
 30
0.0
 10
-6.723933070866142
 20
3.389464566929134
 30
0.0
 10
-6.594464566929134
 20
3.402267716535433
 30
0.0
 10
-6.594464566929134
 20
3.402267716535433
 30
0.0
 10
-6.465003937007874
 20
3.41505905511811
 30
0.0
 10
-6.43338188976378
 20
3.448181102362205
 30
0.0
 10
-6.377685039370078
 20
3.457220472440945
 30
0.0
 10
-6.377685039370078
 20
3.457220472440945
 30
0.0
 10
-6.321988188976378
 20
3.466251968503937
 30
0.0
 10
-6.242196850393701
 20
3.451196850393701
 30
0.0
 10
-6.010366141732283
 20
3.309692913385827
 30
0.0
 10
-6.010366141732283
 20
3.309692913385827
 30
0.0
 10
-5.778531496062993
 20
3.168181102362205
 30
0.0
 10
-5.394653543307086
 20
2.900212598425197
 30
0.0
 10
-5.094322834645669
 20
2.721070866141732
 30
0.0
 10
-5.094322834645669
 20
2.721070866141732
 30
0.0
 10
-4.793992125984252
 20
2.541929133858268
 30
0.0
 10
-4.577212598425197
 20
2.45159842519685
 30
0.0
 10
-4.373228346456693
 20
2.359775590551181
 30
0.0
 10
-4.373228346456693
 20
2.359775590551181
 30
0.0
 10
-4.169251968503937
 20
2.267944881889764
 30
0.0
 10
-3.978070866141732
 20
2.17461811023622
 30
0.0
 10
-3.840322834645669
 20
2.054188976377953
 30
0.0
 10
-3.840322834645669
 20
2.054188976377953
 30
0.0
 10
-3.702582677165354
 20
1.933755905511811
 30
0.0
 10
-3.618275590551181
 20
1.786220472440945
 30
0.0
 10
-3.567086614173228
 20
1.732023622047244
 30
0.0
 10
-3.567086614173228
 20
1.732023622047244
 30
0.0
 10
-3.515905511811024
 20
1.677830708661417
 30
0.0
 10
-3.497846456692913
 20
1.716976377952756
 30
0.0
 10
-3.586665354330709
 20
1.930744094488189
 30
0.0
 10
-3.586665354330709
 20
1.930744094488189
 30
0.0
 10
-3.675484251968504
 20
2.144507874015748
 30
0.0
 10
-3.871181102362205
 20
2.532909448818898
 30
0.0
 10
-4.020220472440945
 20
2.934854330708661
 30
0.0
 10
-4.020220472440945
 20
2.934854330708661
 30
0.0
 10
-4.169259842519685
 20
3.336791338582677
 30
0.0
 10
-4.271625984251968
 20
3.752287401574803
 30
0.0
 10
-4.331846456692913
 20
4.109066929133858
 30
0.0
 10
-4.331846456692913
 20
4.109066929133858
 30
0.0
 10
-4.392062992125984
 20
4.465846456692914
 30
0.0
 10
-4.410122047244094
 20
4.763925196850393
 30
0.0
 10
-4.47636220472441
 20
5.000271653543307
 30
0.0
 10
-4.47636220472441
 20
5.000271653543307
 30
0.0
 10
-4.54259842519685
 20
5.236622047244095
 30
0.0
 10
-4.657011811023622
 20
5.411248031496063
 30
0.0
 10
-4.754862204724409
 20
5.59340157480315
 30
0.0
 10
-4.754862204724409
 20
5.59340157480315
 30
0.0
 10
-4.852708661417322
 20
5.775555118110236
 30
0.0
 10
-4.934011811023622
 20
5.965244094488189
 30
0.0
 10
-4.976161417322834
 20
6.16998031496063
 30
0.0
 10
-4.976161417322834
 20
6.16998031496063
 30
0.0
 10
-5.018314960629922
 20
6.374716535433071
 30
0.0
 10
-5.021318897637795
 20
6.594496062992126
 30
0.0
 10
-5.034862204724409
 20
6.740523622047244
 30
0.0
 10
-5.034862204724409
 20
6.740523622047244
 30
0.0
 10
-5.048417322834646
 20
6.886551181102362
 30
0.0
 10
-5.072507874015748
 20
6.958803149606299
 30
0.0
 10
-5.09207874015748
 20
7.031066929133858
 30
0.0
 10
-5.09207874015748
 20
7.031066929133858
 30
0.0
 10
-5.111649606299213
 20
7.103330708661417
 30
0.0
 10
-5.126696850393701
 20
7.175582677165354
 30
0.0
 10
-5.143251968503937
 20
7.332149606299213
 30
0.0
 10
-5.143251968503937
 20
7.332149606299213
 30
0.0
 10
-5.159818897637796
 20
7.488708661417323
 30
0.0
 10
-5.177877952755906
 20
7.72957874015748
 30
0.0
 10
-5.207988188976378
 20
7.926787401574803
 30
0.0
 10
-5.207988188976378
 20
7.926787401574803
 30
0.0
 10
-5.23809842519685
 20
8.123996062992125
 30
0.0
 10
-5.280248031496063
 20
8.277543307086614
 30
0.0
 10
-5.248637795275591
 20
8.461204724409448
 30
0.0
 10
-5.248637795275591
 20
8.461204724409448
 30
0.0
 10
-5.217023622047244
 20
8.64486220472441
 30
0.0
 10
-5.111641732283465
 20
8.858633858267716
 30
0.0
 10
-5.027334645669291
 20
9.039287401574803
 30
0.0
 10
-5.027334645669291
 20
9.039287401574803
 30
0.0
 10
-4.94303937007874
 20
9.219929133858267
 30
0.0
 10
-4.879807086614173
 20
9.367468503937008
 30
0.0
 10
-4.827889763779527
 20
9.479610236220472
 30
0.0
 10
-4.827889763779527
 20
9.479610236220472
 30
0.0
 10
-4.775976377952756
 20
9.591748031496063
 30
0.0
 10
-4.735358267716536
 20
9.668492125984251
 30
0.0
 10
-4.56
 20
9.806220472440945
 30
0.0
  0
SPLINE
  5
71
330
1F
100
AcDbEntity
  8
Layer 1
 62
   250
370
    18
100
AcDbSpline
210
0.0
220
0.0
230
1.0
 70
    11
 71
     3
 72
    52
 73
    48
 74
     0
 42
0.000000001
 43
0.0000000001
 40
0.0
 40
0.0
 40
0.0
 40
0.0
 40
0.0769230769230769
 40
0.0769230769230769
 40
0.0769230769230769
 40
0.0769230769230769
 40
0.1538461538461539
 40
0.1538461538461539
 40
0.1538461538461539
 40
0.1538461538461539
 40
0.2307692307692308
 40
0.2307692307692308
 40
0.2307692307692308
 40
0.2307692307692308
 40
0.3076923076923077
 40
0.3076923076923077
 40
0.3076923076923077
 40
0.3076923076923077
 40
0.3846153846153846
 40
0.3846153846153846
 40
0.3846153846153846
 40
0.3846153846153846
 40
0.4615384615384616
 40
0.4615384615384616
 40
0.4615384615384616
 40
0.4615384615384616
 40
0.5384615384615384
 40
0.5384615384615384
 40
0.5384615384615384
 40
0.5384615384615384
 40
0.6153846153846154
 40
0.6153846153846154
 40
0.6153846153846154
 40
0.6153846153846154
 40
0.6923076923076923
 40
0.6923076923076923
 40
0.6923076923076923
 40
0.6923076923076923
 40
0.7692307692307693
 40
0.7692307692307693
 40
0.7692307692307693
 40
0.7692307692307693
 40
0.8461538461538461
 40
0.8461538461538461
 40
0.8461538461538461
 40
0.8461538461538461
 40
1.0
 40
1.0
 40
1.0
 40
1.0
 10
-2.925771653543307
 20
0.7174330708661417
 30
0.0
 10
-2.889645669291339
 20
0.6361417322834646
 30
0.0
 10
-2.832437007874016
 20
0.5187165354330708
 30
0.0
 10
-2.812870078740157
 20
0.3741968503937008
 30
0.0
 10
-2.812870078740157
 20
0.3741968503937008
 30
0.0
 10
-2.793299212598425
 20
0.2296811023622047
 30
0.0
 10
-2.811358267716535
 20
0.0580590551181102
 30
0.0
 10
-2.791787401574803
 20
-0.1195787401574803
 30
0.0
 10
-2.791787401574803
 20
-0.1195787401574803
 30
0.0
 10
-2.772220472440945
 20
-0.2972165354330709
 30
0.0
 10
-2.71501968503937
 20
-0.4808740157480315
 30
0.0
 10
-2.615661417322835
 20
-0.6645275590551181
 30
0.0
 10
-2.615661417322835
 20
-0.6645275590551181
 30
0.0
 10
-2.516299212598425
 20
-0.8481929133858268
 30
0.0
 10
-2.374799212598425
 20
-1.031854330708661
 30
0.0
 10
-2.230271653543307
 20
-1.165830708661417
 30
0.0
 10
-2.230271653543307
 20
-1.165830708661417
 30
0.0
 10
-2.085755905511811
 20
-1.299814960629921
 30
0.0
 10
-1.938228346456693
 20
-1.384114173228346
 30
0.0
 10
-1.864464566929134
 20
-1.391637795275591
 30
0.0
 10
-1.864464566929134
 20
-1.391637795275591
 30
0.0
 10
-1.790700787401575
 20
-1.399165354330709
 30
0.0
 10
-1.790700787401575
 20
-1.329925196850394
 30
0.0
 10
-1.819299212598425
 20
-1.168846456692913
 30
0.0
 10
-1.819299212598425
 20
-1.168846456692913
 30
0.0
 10
-1.847905511811024
 20
-1.007763779527559
 30
0.0
 10
-1.905106299212598
 20
-0.7548582677165354
 30
0.0
 10
-1.945748031496063
 20
-0.587751968503937
 30
0.0
 10
-1.945748031496063
 20
-0.587751968503937
 30
0.0
 10
-1.986397637795276
 20
-0.4206535433070866
 30
0.0
 10
-2.010492125984252
 20
-0.3393622047244094
 30
0.0
 10
-2.103822834645669
 20
-0.1948346456692913
 30
0.0
 10
-2.103822834645669
 20
-0.1948346456692913
 30
0.0
 10
-2.19715748031496
 20
-0.0503188976377953
 30
0.0
 10
-2.359744094488189
 20
0.1574212598425197
 30
0.0
 10
-2.514799212598425
 20
0.3531259842519685
 30
0.0
 10
-2.514799212598425
 20
0.3531259842519685
 30
0.0
 10
-2.669854330708661
 20
0.5488228346456693
 30
0.0
 10
-2.81738188976378
 20
0.7324881889763779
 30
0.0
 10
-2.895661417322835
 20
0.8198070866141732
 30
0.0
 10
-2.895661417322835
 20
0.8198070866141732
 30
0.0
 10
-2.97394094488189
 20
0.9071141732283464
 30
0.0
 10
-2.98298031496063
 20
0.8980748031496063
 30
0.0
 10
-2.979968503937008
 20
0.8709803149606299
 30
0.0
 10
-2.979968503937008
 20
0.8709803149606299
 30
0.0
 10
-2.976952755905512
 20
0.8438818897637795
 30
0.0
 10
-2.961909448818898
 20
0.798724409448819
 30
0.0
 10
-2.925771653543307
 20
0.7174330708661417
 30
0.0
  0
SPLINE
  5
72
330
1F
100
AcDbEntity
  8
Layer 1
 62
   250
370
    18
100
AcDbSpline
210
0.0
220
0.0
230
1.0
 70
    11
 71
     3
 72
    44
 73
    40
 74
     0
 42
0.000000001
 43
0.0000000001
 40
0.0
 40
0.0
 40
0.0
 40
0.0
 40
0.0909090909090909
 40
0.0909090909090909
 40
0.0909090909090909
 40
0.0909090909090909
 40
0.1818181818181818
 40
0.1818181818181818
 40
0.1818181818181818
 40
0.1818181818181818
 40
0.2727272727272727
 40
0.2727272727272727
 40
0.2727272727272727
 40
0.2727272727272727
 40
0.3636363636363636
 40
0.3636363636363636
 40
0.3636363636363636
 40
0.3636363636363636
 40
0.4545454545454545
 40
0.4545454545454545
 40
0.4545454545454545
 40
0.4545454545454545
 40
0.5454545454545454
 40
0.5454545454545454
 40
0.5454545454545454
 40
0.5454545454545454
 40
0.6363636363636364
 40
0.6363636363636364
 40
0.6363636363636364
 40
0.6363636363636364
 40
0.7272727272727273
 40
0.7272727272727273
 40
0.7272727272727273
 40
0.7272727272727273
 40
0.8181818181818182
 40
0.8181818181818182
 40
0.8181818181818182
 40
0.8181818181818182
 40
1.0
 40
1.0
 40
1.0
 40
1.0
 10
-7.282401574803149
 20
-5.978610236220472
 30
0.0
 10
-7.276385826771653
 20
-6.294748031496063
 30
0.0
 10
-7.252299212598425
 20
-6.902937007874016
 30
0.0
 10
-7.229716535433071
 20
-7.294342519685039
 30
0.0
 10
-7.229716535433071
 20
-7.294342519685039
 30
0.0
 10
-7.207133858267716
 20
-7.685744094488189
 30
0.0
 10
-7.186062992125985
 20
-7.860370078740157
 30
0.0
 10
-7.15444094488189
 20
-7.974779527559055
 30
0.0
 10
-7.15444094488189
 20
-7.974779527559055
 30
0.0
 10
-7.122830708661417
 20
-8.089192913385826
 30
0.0
 10
-7.080685039370079
 20
-8.143385826771654
 30
0.0
 10
-7.061118110236221
 20
-8.117791338582677
 30
0.0
 10
-7.061118110236221
 20
-8.117791338582677
 30
0.0
 10
-7.041547244094488
 20
-8.092204724409449
 30
0.0
 10
-7.044551181102362
 20
-7.986826771653543
 30
0.0
 10
-7.01444094488189
 20
-7.810692913385827
 30
0.0
 10
-7.01444094488189
 20
-7.810692913385827
 30
0.0
 10
-6.984338582677165
 20
-7.634562992125984
 30
0.0
 10
-6.921106299212599
 20
-7.38767716535433
 30
0.0
 10
-6.900027559055118
 20
-7.15584251968504
 30
0.0
 10
-6.900027559055118
 20
-7.15584251968504
 30
0.0
 10
-6.878956692913386
 20
-6.924007874015748
 30
0.0
 10
-6.900035433070866
 20
-6.707232283464567
 30
0.0
 10
-6.939173228346457
 20
-6.48894094488189
 30
0.0
 10
-6.939173228346457
 20
-6.48894094488189
 30
0.0
 10
-6.978314960629922
 20
-6.270661417322835
 30
0.0
 10
-7.035523622047244
 20
-6.050870078740157
 30
0.0
 10
-7.083692913385827
 20
-5.888287401574803
 30
0.0
 10
-7.083692913385827
 20
-5.888287401574803
 30
0.0
 10
-7.131870078740158
 20
-5.725704724409449
 30
0.0
 10
-7.171007874015748
 20
-5.620318897637795
 30
0.0
 10
-7.199606299212598
 20
-5.584192913385826
 30
0.0
 10
-7.199606299212598
 20
-5.584192913385826
 30
0.0
 10
-7.228216535433071
 20
-5.548062992125984
 30
0.0
 10
-7.246275590551181
 20
-5.581177165354331
 30
0.0
 10
-7.261330708661418
 20
-5.609779527559055
 30
0.0
 10
-7.261330708661418
 20
-5.609779527559055
 30
0.0
 10
-7.276385826771653
 20
-5.638385826771653
 30
0.0
 10
-7.288425196850394
 20
-5.66248031496063
 30
0.0
 10
-7.282401574803149
 20
-5.978610236220472
 30
0.0
  0
SPLINE
  5
73
330
1F
100
AcDbEntity
  8
Layer 1
 62
   250
370
    18
100
AcDbSpline
210
0.0
220
0.0
230
1.0
 70
    11
 71
     3
 72
    48
 73
    44
 74
     0
 42
0.000000001
 43
0.0000000001
 40
0.0
 40
0.0
 40
0.0
 40
0.0
 40
0.0833333333333333
 40
0.0833333333333333
 40
0.0833333333333333
 40
0.0833333333333333
 40
0.1666666666666667
 40
0.1666666666666667
 40
0.1666666666666667
 40
0.1666666666666667
 40
0.25
 40
0.25
 40
0.25
 40
0.25
 40
0.3333333333333333
 40
0.3333333333333333
 40
0.3333333333333333
 40
0.3333333333333333
 40
0.4166666666666667
 40
0.4166666666666667
 40
0.4166666666666667
 40
0.4166666666666667
 40
0.5
 40
0.5
 40
0.5
 40
0.5
 40
0.5833333333333334
 40
0.5833333333333334
 40
0.5833333333333334
 40
0.5833333333333334
 40
0.6666666666666666
 40
0.6666666666666666
 40
0.6666666666666666
 40
0.6666666666666666
 40
0.75
 40
0.75
 40
0.75
 40
0.75
 40
0.8333333333333334
 40
0.8333333333333334
 40
0.8333333333333334
 40
0.8333333333333334
 40
1.0
 40
1.0
 40
1.0
 40
1.0
 10
2.349177165354331
 20
-3.344137795275591
 30
0.0
 10
2.322070866141732
 20
-3.618122047244094
 30
0.0
 10
2.316055118110236
 20
-4.160070866141733
 30
0.0
 10
2.31303937007874
 20
-4.692976377952756
 30
0.0
 10
2.31303937007874
 20
-4.692976377952756
 30
0.0
 10
2.310027559055118
 20
-5.225893700787402
 30
0.0
 10
2.310027559055118
 20
-5.749779527559055
 30
0.0
 10
2.325082677165355
 20
-6.192366141732284
 30
0.0
 10
2.325082677165355
 20
-6.192366141732284
 30
0.0
 10
2.340137795275591
 20
-6.634952755905512
 30
0.0
 10
2.370248031496063
 20
-6.996255905511811
 30
0.0
 10
2.415413385826771
 20
-7.240129921259842
 30
0.0
 10
2.415413385826771
 20
-7.240129921259842
 30
0.0
 10
2.46057874015748
 20
-7.484003937007874
 30
0.0
 10
2.520791338582677
 20
-7.610452755905512
 30
0.0
 10
2.59003937007874
 20
-7.809165354330709
 30
0.0
 10
2.59003937007874
 20
-7.809165354330709
 30
0.0
 10
2.659287401574803
 20
-8.00788188976378
 30
0.0
 10
2.737566929133858
 20
-8.278866141732284
 30
0.0
 10
2.785744094488189
 20
-8.35111811023622
 30
0.0
 10
2.785744094488189
 20
-8.35111811023622
 30
0.0
 10
2.833913385826772
 20
-8.42338188976378
 30
0.0
 10
2.851972440944882
 20
-8.296933070866142
 30
0.0
 10
2.858
 20
-7.842295275590551
 30
0.0
 10
2.858
 20
-7.842295275590551
 30
0.0
 10
2.864023622047244
 20
-7.387665354330709
 30
0.0
 10
2.858
 20
-6.604850393700787
 30
0.0
 10
2.83994094488189
 20
-6.047850393700787
 30
0.0
 10
2.83994094488189
 20
-6.047850393700787
 30
0.0
 10
2.821874015748032
 20
-5.490850393700788
 30
0.0
 10
2.791763779527559
 20
-5.159665354330708
 30
0.0
 10
2.75563779527559
 20
-4.915779527559055
 30
0.0
 10
2.75563779527559
 20
-4.915779527559055
 30
0.0
 10
2.7195
 20
-4.671905511811024
 30
0.0
 10
2.677358267716536
 20
-4.515346456692914
 30
0.0
 10
2.629188976377953
 20
-4.220279527559055
 30
0.0
 10
2.629188976377953
 20
-4.220279527559055
 30
0.0
 10
2.581011811023622
 20
-3.925224409448819
 30
0.0
 10
2.526814960629921
 20
-3.491665354330709
 30
0.0
 10
2.475633858267717
 20
-3.277901574803149
 30
0.0
 10
2.475633858267717
 20
-3.277901574803149
 30
0.0
 10
2.424444881889764
 20
-3.064133858267716
 30
0.0
 10
2.376275590551181
 20
-3.070153543307087
 30
0.0
 10
2.349177165354331
 20
-3.344137795275591
 30
0.0
  0
SPLINE
  5
74
330
1F
100
AcDbEntity
  8
Layer 1
 62
   250
370
    18
100
AcDbSpline
210
0.0
220
0.0
230
1.0
 70
    11
 71
     3
 72
   248
 73
   244
 74
     0
 42
0.000000001
 43
0.0000000001
 40
0.0
 40
0.0
 40
0.0
 40
0.0
 40
0.0161290322580645
 40
0.0161290322580645
 40
0.0161290322580645
 40
0.0161290322580645
 40
0.032258064516129
 40
0.032258064516129
 40
0.032258064516129
 40
0.032258064516129
 40
0.0483870967741935
 40
0.0483870967741935
 40
0.0483870967741935
 40
0.0483870967741935
 40
0.0645161290322581
 40
0.0645161290322581
 40
0.0645161290322581
 40
0.0645161290322581
 40
0.0806451612903226
 40
0.0806451612903226
 40
0.0806451612903226
 40
0.0806451612903226
 40
0.0967741935483871
 40
0.0967741935483871
 40
0.0967741935483871
 40
0.0967741935483871
 40
0.1129032258064516
 40
0.1129032258064516
 40
0.1129032258064516
 40
0.1129032258064516
 40
0.1290322580645161
 40
0.1290322580645161
 40
0.1290322580645161
 40
0.1290322580645161
 40
0.1451612903225807
 40
0.1451612903225807
 40
0.1451612903225807
 40
0.1451612903225807
 40
0.1612903225806452
 40
0.1612903225806452
 40
0.1612903225806452
 40
0.1612903225806452
 40
0.1774193548387097
 40
0.1774193548387097
 40
0.1774193548387097
 40
0.1774193548387097
 40
0.1935483870967742
 40
0.1935483870967742
 40
0.1935483870967742
 40
0.1935483870967742
 40
0.2096774193548387
 40
0.2096774193548387
 40
0.2096774193548387
 40
0.2096774193548387
 40
0.2258064516129032
 40
0.2258064516129032
 40
0.2258064516129032
 40
0.2258064516129032
 40
0.2419354838709677
 40
0.2419354838709677
 40
0.2419354838709677
 40
0.2419354838709677
 40
0.2580645161290323
 40
0.2580645161290323
 40
0.2580645161290323
 40
0.2580645161290323
 40
0.2741935483870968
 40
0.2741935483870968
 40
0.2741935483870968
 40
0.2741935483870968
 40
0.2903225806451613
 40
0.2903225806451613
 40
0.2903225806451613
 40
0.2903225806451613
 40
0.3064516129032258
 40
0.3064516129032258
 40
0.3064516129032258
 40
0.3064516129032258
 40
0.3225806451612903
 40
0.3225806451612903
 40
0.3225806451612903
 40
0.3225806451612903
 40
0.3387096774193548
 40
0.3387096774193548
 40
0.3387096774193548
 40
0.3387096774193548
 40
0.3548387096774194
 40
0.3548387096774194
 40
0.3548387096774194
 40
0.3548387096774194
 40
0.3709677419354839
 40
0.3709677419354839
 40
0.3709677419354839
 40
0.3709677419354839
 40
0.3870967741935484
 40
0.3870967741935484
 40
0.3870967741935484
 40
0.3870967741935484
 40
0.4032258064516129
 40
0.4032258064516129
 40
0.4032258064516129
 40
0.4032258064516129
 40
0.4193548387096774
 40
0.4193548387096774
 40
0.4193548387096774
 40
0.4193548387096774
 40
0.4354838709677419
 40
0.4354838709677419
 40
0.4354838709677419
 40
0.4354838709677419
 40
0.4516129032258064
 40
0.4516129032258064
 40
0.4516129032258064
 40
0.4516129032258064
 40
0.4677419354838709
 40
0.4677419354838709
 40
0.4677419354838709
 40
0.4677419354838709
 40
0.4838709677419355
 40
0.4838709677419355
 40
0.4838709677419355
 40
0.4838709677419355
 40
0.5
 40
0.5
 40
0.5
 40
0.5
 40
0.5161290322580645
 40
0.5161290322580645
 40
0.5161290322580645
 40
0.5161290322580645
 40
0.532258064516129
 40
0.532258064516129
 40
0.532258064516129
 40
0.532258064516129
 40
0.5483870967741935
 40
0.5483870967741935
 40
0.5483870967741935
 40
0.5483870967741935
 40
0.5645161290322581
 40
0.5645161290322581
 40
0.5645161290322581
 40
0.5645161290322581
 40
0.5806451612903226
 40
0.5806451612903226
 40
0.5806451612903226
 40
0.5806451612903226
 40
0.5967741935483871
 40
0.5967741935483871
 40
0.5967741935483871
 40
0.5967741935483871
 40
0.6129032258064516
 40
0.6129032258064516
 40
0.6129032258064516
 40
0.6129032258064516
 40
0.6290322580645161
 40
0.6290322580645161
 40
0.6290322580645161
 40
0.6290322580645161
 40
0.6451612903225806
 40
0.6451612903225806
 40
0.6451612903225806
 40
0.6451612903225806
 40
0.6612903225806451
 40
0.6612903225806451
 40
0.6612903225806451
 40
0.6612903225806451
 40
0.6774193548387096
 40
0.6774193548387096
 40
0.6774193548387096
 40
0.6774193548387096
 40
0.6935483870967742
 40
0.6935483870967742
 40
0.6935483870967742
 40
0.6935483870967742
 40
0.7096774193548387
 40
0.7096774193548387
 40
0.7096774193548387
 40
0.7096774193548387
 40
0.7258064516129032
 40
0.7258064516129032
 40
0.7258064516129032
 40
0.7258064516129032
 40
0.7419354838709677
 40
0.7419354838709677
 40
0.7419354838709677
 40
0.7419354838709677
 40
0.7580645161290323
 40
0.7580645161290323
 40
0.7580645161290323
 40
0.7580645161290323
 40
0.7741935483870968
 40
0.7741935483870968
 40
0.7741935483870968
 40
0.7741935483870968
 40
0.7903225806451613
 40
0.7903225806451613
 40
0.7903225806451613
 40
0.7903225806451613
 40
0.8064516129032258
 40
0.8064516129032258
 40
0.8064516129032258
 40
0.8064516129032258
 40
0.8225806451612904
 40
0.8225806451612904
 40
0.8225806451612904
 40
0.8225806451612904
 40
0.8387096774193549
 40
0.8387096774193549
 40
0.8387096774193549
 40
0.8387096774193549
 40
0.8548387096774194
 40
0.8548387096774194
 40
0.8548387096774194
 40
0.8548387096774194
 40
0.8709677419354839
 40
0.8709677419354839
 40
0.8709677419354839
 40
0.8709677419354839
 40
0.8870967741935484
 40
0.8870967741935484
 40
0.8870967741935484
 40
0.8870967741935484
 40
0.9032258064516129
 40
0.9032258064516129
 40
0.9032258064516129
 40
0.9032258064516129
 40
0.9193548387096774
 40
0.9193548387096774
 40
0.9193548387096774
 40
0.9193548387096774
 40
0.9354838709677419
 40
0.9354838709677419
 40
0.9354838709677419
 40
0.9354838709677419
 40
0.9516129032258065
 40
0.9516129032258065
 40
0.9516129032258065
 40
0.9516129032258065
 40
0.967741935483871
 40
0.967741935483871
 40
0.967741935483871
 40
0.967741935483871
 40
1.0
 40
1.0
 40
1.0
 40
1.0
 10
-4.768389763779528
 20
-6.487405511811024
 30
0.0
 10
-4.720220472440944
 20
-6.153216535433071
 30
0.0
 10
-4.632901574803149
 20
-5.716657480314961
 30
0.0
 10
-4.598275590551181
 20
-5.176212598425197
 30
0.0
 10
-4.598275590551181
 20
-5.176212598425197
 30
0.0
 10
-4.563661417322835
 20
-4.635767716535433
 30
0.0
 10
-4.581720472440945
 20
-3.99146062992126
 30
0.0
 10
-4.568165354330708
 20
-3.690377952755906
 30
0.0
 10
-4.568165354330708
 20
-3.690377952755906
 30
0.0
 10
-4.554622047244094
 20
-3.389295275590551
 30
0.0
 10
-4.509464566929134
 20
-3.431444881889764
 30
0.0
 10
-4.456775590551181
 20
-3.46455905511811
 30
0.0
 10
-4.456775590551181
 20
-3.46455905511811
 30
0.0
 10
-4.404082677165355
 20
-3.497685039370079
 30
0.0
 10
-4.343870078740157
 20
-3.521767716535433
 30
0.0
 10
-4.283649606299212
 20
-3.488645669291339
 30
0.0
 10
-4.283649606299212
 20
-3.488645669291339
 30
0.0
 10
-4.223429133858268
 20
-3.455531496062992
 30
0.0
 10
-4.163216535433071
 20
-3.365200787401575
 30
0.0
 10
-4.13159842519685
 20
-3.345629921259842
 30
0.0
 10
-4.13159842519685
 20
-3.345629921259842
 30
0.0
 10
-4.099984251968504
 20
-3.326062992125984
 30
0.0
 10
-4.09698031496063
 20
-3.377251968503937
 30
0.0
 10
-4.092456692913386
 20
-3.478114173228346
 30
0.0
 10
-4.092456692913386
 20
-3.478114173228346
 30
0.0
 10
-4.087944881889764
 20
-3.578976377952756
 30
0.0
 10
-4.081925196850394
 20
-3.729515748031496
 30
0.0
 10
-4.048803149606299
 20
-3.786724409448819
 30
0.0
 10
-4.048803149606299
 20
-3.786724409448819
 30
0.0
 10
-4.015681102362205
 20
-3.843933070866142
 30
0.0
 10
-3.955468503937008
 20
-3.807795275590551
 30
0.0
 10
-3.914818897637795
 20
-3.734031496062992
 30
0.0
 10
-3.914818897637795
 20
-3.734031496062992
 30
0.0
 10
-3.874177165354331
 20
-3.660267716535433
 30
0.0
 10
-3.85309842519685
 20
-3.548866141732284
 30
0.0
 10
-3.850082677165354
 20
-3.414881889763779
 30
0.0
 10
-3.850082677165354
 20
-3.414881889763779
 30
0.0
 10
-3.84707874015748
 20
-3.280905511811024
 30
0.0
 10
-3.862133858267716
 20
-3.124338582677165
 30
0.0
 10
-3.841055118110236
 20
-3.061114173228347
 30
0.0
 10
-3.841055118110236
 20
-3.061114173228347
 30
0.0
 10
-3.819984251968504
 20
-2.997889763779527
 30
0.0
 10
-3.762775590551181
 20
-3.027992125984252
 30
0.0
 10
-3.710082677165354
 20
-3.023476377952756
 30
0.0
 10
-3.710082677165354
 20
-3.023476377952756
 30
0.0
 10
-3.657397637795276
 20
-3.01896062992126
 30
0.0
 10
-3.609220472440945
 20
-2.979822834645669
 30
0.0
 10
-3.573094488188977
 20
-2.939173228346457
 30
0.0
 10
-3.573094488188977
 20
-2.939173228346457
 30
0.0
 10
-3.536968503937008
 20
-2.898531496062992
 30
0.0
 10
-3.512874015748031
 20
-2.856377952755905
 30
0.0
 10
-3.482763779527559
 20
-2.830783464566929
 30
0.0
 10
-3.482763779527559
 20
-2.830783464566929
 30
0.0
 10
-3.452665354330709
 20
-2.805196850393701
 30
0.0
 10
-3.416527559055118
 20
-2.796157480314961
 30
0.0
 10
-3.29609842519685
 20
-2.794657480314961
 30
0.0
 10
-3.29609842519685
 20
-2.794657480314961
 30
0.0
 10
-3.175665354330709
 20
-2.793153543307087
 30
0.0
 10
-2.970937007874016
 20
-2.799169291338583
 30
0.0
 10
-2.859535433070866
 20
-2.824767716535433
 30
0.0
 10
-2.859535433070866
 20
-2.824767716535433
 30
0.0
 10
-2.748133858267717
 20
-2.850362204724409
 30
0.0
 10
-2.730074803149606
 20
-2.895515748031496
 30
0.0
 10
-2.650283464566929
 20
-3.009925196850394
 30
0.0
 10
-2.650283464566929
 20
-3.009925196850394
 30
0.0
 10
-2.570496062992126
 20
-3.124338582677165
 30
0.0
 10
-2.428992125984252
 20
-3.308003937007874
 30
0.0
 10
-2.340173228346457
 20
-3.404342519685039
 30
0.0
 10
-2.340173228346457
 20
-3.404342519685039
 30
0.0
 10
-2.251354330708661
 20
-3.500688976377953
 30
0.0
 10
-2.215216535433071
 20
-3.509724409448819
 30
0.0
 10
-2.194137795275591
 20
-3.490157480314961
 30
0.0
 10
-2.194137795275591
 20
-3.490157480314961
 30
0.0
 10
-2.173066929133858
 20
-3.470586614173228
 30
0.0
 10
-2.167047244094488
 20
-3.422409448818898
 30
0.0
 10
-2.209192913385827
 20
-3.309503937007874
 30
0.0
 10
-2.209192913385827
 20
-3.309503937007874
 30
0.0
 10
-2.251346456692914
 20
-3.196602362204724
 30
0.0
 10
-2.341673228346457
 20
-3.01896062992126
 30
0.0
 10
-2.374787401574803
 20
-2.930141732283464
 30
0.0
 10
-2.374787401574803
 20
-2.930141732283464
 30
0.0
 10
-2.407913385826772
 20
-2.841322834645669
 30
0.0
 10
-2.383818897637795
 20
-2.841322834645669
 30
0.0
 10
-2.331125984251968
 20
-2.836807086614173
 30
0.0
 10
-2.331125984251968
 20
-2.836807086614173
 30
0.0
 10
-2.27844094488189
 20
-2.832295275590551
 30
0.0
 10
-2.197149606299213
 20
-2.823255905511811
 30
0.0
 10
-2.034566929133858
 20
-2.823255905511811
 30
0.0
 10
-2.034566929133858
 20
-2.823255905511811
 30
0.0
 10
-1.871984251968504
 20
-2.823255905511811
 30
0.0
 10
-1.628106299212599
 20
-2.832295275590551
 30
0.0
 10
-1.497133858267716
 20
-2.860893700787402
 30
0.0
 10
-1.497133858267716
 20
-2.860893700787402
 30
0.0
 10
-1.366165354330709
 20
-2.889492125984252
 30
0.0
 10
-1.348106299212599
 20
-2.937669291338583
 30
0.0
 10
-1.296913385826772
 20
-3.130354330708661
 30
0.0
 10
-1.296913385826772
 20
-3.130354330708661
 30
0.0
 10
-1.245732283464567
 20
-3.323047244094488
 30
0.0
 10
-1.161437007874016
 20
-3.660267716535433
 30
0.0
 10
-1.096700787401575
 20
-3.88757874015748
 30
0.0
 10
-1.096700787401575
 20
-3.88757874015748
 30
0.0
 10
-1.031968503937008
 20
-4.114893700787402
 30
0.0
 10
-0.9868110236220472
 20
-4.232322834645669
 30
0.0
 10
-0.9732559055118111
 20
-4.304574803149606
 30
0.0
 10
-0.9732559055118111
 20
-4.304574803149606
 30
0.0
 10
-0.9597125984251969
 20
-4.376838582677165
 30
0.0
 10
-0.9777716535433071
 20
-4.403937007874016
 30
0.0
 10
-1.068094488188976
 20
-4.563507874015748
 30
0.0
 10
-1.068094488188976
 20
-4.563507874015748
 30
0.0
 10
-1.158425196850394
 20
-4.723086614173228
 30
0.0
 10
-1.321007874015748
 20
-5.015129921259843
 30
0.0
 10
-1.456492125984252
 20
-5.274062992125984
 30
0.0
 10
-1.456492125984252
 20
-5.274062992125984
 30
0.0
 10
-1.59198031496063
 20
-5.532992125984252
 30
0.0
 10
-1.700370078740157
 20
-5.758807086614174
 30
0.0
 10
-1.777145669291339
 20
-5.978582677165354
 30
0.0
 10
-1.777145669291339
 20
-5.978582677165354
 30
0.0
 10
-1.853925196850394
 20
-6.198366141732284
 30
0.0
 10
-1.89907874015748
 20
-6.412122047244094
 30
0.0
 10
-1.945748031496063
 20
-6.598783464566929
 30
0.0
 10
-1.945748031496063
 20
-6.598783464566929
 30
0.0
 10
-1.992413385826772
 20
-6.78544094488189
 30
0.0
 10
-2.040590551181102
 20
-6.94501968503937
 30
0.0
 10
-2.031555118110236
 20
-7.005232283464567
 30
0.0
 10
-2.031555118110236
 20
-7.005232283464567
 30
0.0
 10
-2.022523622047244
 20
-7.065452755905512
 30
0.0
 10
-1.956287401574803
 20
-7.026314960629922
 30
0.0
 10
-1.807248031496063
 20
-6.896842519685039
 30
0.0
 10
-1.807248031496063
 20
-6.896842519685039
 30
0.0
 10
-1.658216535433071
 20
-6.767381889763779
 30
0.0
 10
-1.426385826771654
 20
-6.547590551181102
 30
0.0
 10
-1.256271653543307
 20
-6.357909448818898
 30
0.0
 10
-1.256271653543307
 20
-6.357909448818898
 30
0.0
 10
-1.086161417322835
 20
-6.168228346456693
 30
0.0
 10
-0.9777716535433071
 20
-6.008649606299213
 30
0.0
 10
-0.89648031496063
 20
-5.843055118110236
 30
0.0
 10
-0.89648031496063
 20
-5.843055118110236
 30
0.0
 10
-0.8151889763779527
 20
-5.677464566929133
 30
0.0
 10
-0.760996062992126
 20
-5.505842519685039
 30
0.0
 10
-0.7218543307086615
 20
-5.450145669291339
 30
0.0
 10
-0.7218543307086615
 20
-5.450145669291339
 30
0.0
 10
-0.6827165354330709
 20
-5.394448818897637
 30
0.0
 10
-0.6586220472440945
 20
-5.454661417322835
 30
0.0
 10
-0.6480826771653543
 20
-5.794885826771654
 30
0.0
 10
-0.6480826771653543
 20
-5.794885826771654
 30
0.0
 10
-0.6375511811023622
 20
-6.135106299212598
 30
0.0
 10
-0.6405629921259842
 20
-6.755338582677165
 30
0.0
 10
-0.6450787401574803
 20
-7.32438188976378
 30
0.0
 10
-0.6450787401574803
 20
-7.32438188976378
 30
0.0
 10
-0.6495905511811023
 20
-7.893425196850393
 30
0.0
 10
-0.6556181102362205
 20
-8.411287401574803
 30
0.0
 10
-0.6797007874015748
 20
-8.674732283464566
 30
0.0
 10
-0.6797007874015748
 20
-8.674732283464566
 30
0.0
 10
-0.7037874015748031
 20
-8.93817716535433
 30
0.0
 10
-0.7459409448818898
 20
-8.947216535433071
 30
0.0
 10
-0.7986220472440945
 20
-8.935165354330708
 30
0.0
 10
-0.7986220472440945
 20
-8.935165354330708
 30
0.0
 10
-0.8513149606299213
 20
-8.923122047244094
 30
0.0
 10
-0.9145472440944882
 20
-8.890007874015748
 30
0.0
 10
-1.004870078740157
 20
-8.813232283464567
 30
0.0
 10
-1.004870078740157
 20
-8.813232283464567
 30
0.0
 10
-1.095192913385827
 20
-8.736456692913386
 30
0.0
 10
-1.212618110236221
 20
-8.616023622047244
 30
0.0
 10
-1.358637795275591
 20
-8.460968503937007
 30
0.0
 10
-1.358637795275591
 20
-8.460968503937007
 30
0.0
 10
-1.504661417322835
 20
-8.305909448818898
 30
0.0
 10
-1.679299212598425
 20
-8.116228346456692
 30
0.0
 10
-1.900590551181102
 20
-7.938590551181102
 30
0.0
 10
-1.900590551181102
 20
-7.938590551181102
 30
0.0
 10
-2.12188188976378
 20
-7.760952755905512
 30
0.0
 10
-2.389854330708661
 20
-7.595354330708662
 30
0.0
 10
-2.498240157480315
 20
-7.557720472440945
 30
0.0
 10
-2.498240157480315
 20
-7.557720472440945
 30
0.0
 10
-2.606629921259842
 20
-7.520082677165354
 30
0.0
 10
-2.55544094488189
 20
-7.610409448818897
 30
0.0
 10
-2.418444881889764
 20
-7.762452755905512
 30
0.0
 10
-2.418444881889764
 20
-7.762452755905512
 30
0.0
 10
-2.281456692913386
 20
-7.9145
 30
0.0
 10
-2.058661417322835
 20
-8.128271653543306
 30
0.0
 10
-1.972846456692913
 20
-8.349566929133859
 30
0.0
 10
-1.972846456692913
 20
-8.349566929133859
 30
0.0
 10
-1.88703937007874
 20
-8.570858267716535
 30
0.0
 10
-1.938228346456693
 20
-8.799688976377952
 30
0.0
 10
-2.04811811023622
 20
-8.962271653543308
 30
0.0
 10
-2.04811811023622
 20
-8.962271653543308
 30
0.0
 10
-2.15801968503937
 20
-9.124854330708661
 30
0.0
 10
-2.32661811023622
 20
-9.221200787401575
 30
0.0
 10
-2.465118110236221
 20
-9.245287401574803
 30
0.0
 10
-2.465118110236221
 20
-9.245287401574803
 30
0.0
 10
-2.603618110236221
 20
-9.269370078740158
 30
0.0
 10
-2.712007874015748
 20
-9.221200787401575
 30
0.0
 10
-2.772220472440945
 20
-9.127858267716535
 30
0.0
 10
-2.772220472440945
 20
-9.127858267716535
 30
0.0
 10
-2.832437007874016
 20
-9.034523622047244
 30
0.0
 10
-2.84448031496063
 20
-8.896035433070866
 30
0.0
 10
-2.924263779527559
 20
-8.772590551181102
 30
0.0
 10
-2.924263779527559
 20
-8.772590551181102
 30
0.0
 10
-3.004051181102362
 20
-8.649145669291338
 30
0.0
 10
-3.151590551181102
 20
-8.54075590551181
 30
0.0
 10
-3.255456692913386
 20
-8.471507874015748
 30
0.0
 10
-3.255456692913386
 20
-8.471507874015748
 30
0.0
 10
-3.359330708661417
 20
-8.402255905511812
 30
0.0
 10
-3.419551181102362
 20
-8.372149606299212
 30
0.0
 10
-3.402984251968504
 20
-8.233649606299213
 30
0.0
 10
-3.402984251968504
 20
-8.233649606299213
 30
0.0
 10
-3.386425196850394
 20
-8.095149606299213
 30
0.0
 10
-3.293090551181102
 20
-7.848271653543307
 30
0.0
 10
-3.25094094488189
 20
-7.605897637795276
 30
0.0
 10
-3.25094094488189
 20
-7.605897637795276
 30
0.0
 10
-3.208787401574803
 20
-7.363523622047244
 30
0.0
 10
-3.217826771653543
 20
-7.125673228346456
 30
0.0
 10
-3.276535433070866
 20
-7.106094488188976
 30
0.0
 10
-3.276535433070866
 20
-7.106094488188976
 30
0.0
 10
-3.335244094488189
 20
-7.086523622047245
 30
0.0
 10
-3.443633858267717
 20
-7.285244094488189
 30
0.0
 10
-3.53998031496063
 20
-7.580299212598425
 30
0.0
 10
-3.53998031496063
 20
-7.580299212598425
 30
0.0
 10
-3.636326771653543
 20
-7.875358267716535
 30
0.0
 10
-3.720622047244095
 20
-8.266771653543307
 30
0.0
 10
-3.746220472440945
 20
-8.542259842519686
 30
0.0
 10
-3.746220472440945
 20
-8.542259842519686
 30
0.0
 10
-3.771814960629921
 20
-8.817748031496063
 30
0.0
 10
-3.738692913385827
 20
-8.977326771653543
 30
0.0
 10
-3.816972440944882
 20
-9.11431496062992
 30
0.0
 10
-3.816972440944882
 20
-9.11431496062992
 30
0.0
 10
-3.895259842519685
 20
-9.251311023622048
 30
0.0
 10
-4.08494094488189
 20
-9.365716535433071
 30
0.0
 10
-4.295692913385826
 20
-9.404858267716536
 30
0.0
 10
-4.295692913385826
 20
-9.404858267716536
 30
0.0
 10
-4.506452755905512
 20
-9.444003937007874
 30
0.0
 10
-4.738287401574803
 20
-9.407870078740158
 30
0.0
 10
-4.848177165354331
 20
-9.35517716535433
 30
0.0
 10
-4.848177165354331
 20
-9.35517716535433
 30
0.0
 10
-4.958078740157481
 20
-9.302492125984251
 30
0.0
 10
-4.946027559055118
 20
-9.233244094488189
 30
0.0
 10
-4.923444881889764
 20
-8.885496062992125
 30
0.0
 10
-4.923444881889764
 20
-8.885496062992125
 30
0.0
 10
-4.900870078740158
 20
-8.53774409448819
 30
0.0
 10
-4.867748031496063
 20
-7.911492125984252
 30
0.0
 10
-4.846665354330709
 20
-7.48246062992126
 30
0.0
 10
-4.846665354330709
 20
-7.48246062992126
 30
0.0
 10
-4.825594488188976
 20
-7.053429133858268
 30
0.0
 10
-4.816566929133859
 20
-6.821602362204724
 30
0.0
 10
-4.768389763779528
 20
-6.487405511811024
 30
0.0
  0
SPLINE
  5
75
330
1F
100
AcDbEntity
  8
Layer 1
 62
   250
370
    18
100
AcDbSpline
210
0.0
220
0.0
230
1.0
 70
    11
 71
     3
 72
    64
 73
    60
 74
     0
 42
0.000000001
 43
0.0000000001
 40
0.0
 40
0.0
 40
0.0
 40
0.0
 40
0.0625
 40
0.0625
 40
0.0625
 40
0.0625
 40
0.125
 40
0.125
 40
0.125
 40
0.125
 40
0.1875
 40
0.1875
 40
0.1875
 40
0.1875
 40
0.25
 40
0.25
 40
0.25
 40
0.25
 40
0.3125
 40
0.3125
 40
0.3125
 40
0.3125
 40
0.375
 40
0.375
 40
0.375
 40
0.375
 40
0.4375
 40
0.4375
 40
0.4375
 40
0.4375
 40
0.5
 40
0.5
 40
0.5
 40
0.5
 40
0.5625
 40
0.5625
 40
0.5625
 40
0.5625
 40
0.625
 40
0.625
 40
0.625
 40
0.625
 40
0.6875
 40
0.6875
 40
0.6875
 40
0.6875
 40
0.75
 40
0.75
 40
0.75
 40
0.75
 40
0.8125
 40
0.8125
 40
0.8125
 40
0.8125
 40
0.875
 40
0.875
 40
0.875
 40
0.875
 40
1.0
 40
1.0
 40
1.0
 40
1.0
 10
1.953267716535433
 20
1.50788188976378
 30
0.0
 10
1.930685039370079
 20
1.331744094488189
 30
0.0
 10
1.894547244094488
 20
0.9794803149606299
 30
0.0
 10
1.873476377952756
 20
0.6031299212598425
 30
0.0
 10
1.873476377952756
 20
0.6031299212598425
 30
0.0
 10
1.852397637795276
 20
0.2267716535433071
 30
0.0
 10
1.846377952755905
 20
-0.1736614173228346
 30
0.0
 10
1.891543307086614
 20
-0.5454960629921259
 30
0.0
 10
1.891543307086614
 20
-0.5454960629921259
 30
0.0
 10
1.936700787401575
 20
-0.9173385826771654
 30
0.0
 10
2.033047244094488
 20
-1.260566929133858
 30
0.0
 10
2.15348031496063
 20
-1.545082677165354
 30
0.0
 10
2.15348031496063
 20
-1.545082677165354
 30
0.0
 10
2.273909448818898
 20
-1.829610236220472
 30
0.0
 10
2.418433070866142
 20
-2.055425196850394
 30
0.0
 10
2.546393700787402
 20
-2.201444881889764
 30
0.0
 10
2.546393700787402
 20
-2.201444881889764
 30
0.0
 10
2.674354330708661
 20
-2.347468503937008
 30
0.0
 10
2.785744094488189
 20
-2.413716535433071
 30
0.0
 10
2.930271653543307
 20
-2.439303149606299
 30
0.0
 10
2.930271653543307
 20
-2.439303149606299
 30
0.0
 10
3.074787401574803
 20
-2.464897637795275
 30
0.0
 10
3.252425196850394
 20
-2.449842519685039
 30
0.0
 10
3.333716535433071
 20
-2.427259842519685
 30
0.0
 10
3.333716535433071
 20
-2.427259842519685
 30
0.0
 10
3.415007874015748
 20
-2.404677165354331
 30
0.0
 10
3.399952755905512
 20
-2.374574803149606
 30
0.0
 10
3.291562992125984
 20
-2.24811811023622
 30
0.0
 10
3.291562992125984
 20
-2.24811811023622
 30
0.0
 10
3.183177165354331
 20
-2.121661417322835
 30
0.0
 10
2.981452755905512
 20
-1.898866141732283
 30
0.0
 10
2.853492125984252
 20
-1.603799212598425
 30
0.0
 10
2.853492125984252
 20
-1.603799212598425
 30
0.0
 10
2.725535433070866
 20
-1.308744094488189
 30
0.0
 10
2.671338582677165
 20
-0.9414251968503937
 30
0.0
 10
2.642740157480315
 20
-0.4958267716535433
 30
0.0
 10
2.642740157480315
 20
-0.4958267716535433
 30
0.0
 10
2.614133858267717
 20
-0.0502244094488189
 30
0.0
 10
2.611129921259843
 20
0.4736614173228346
 30
0.0
 10
2.594570866141732
 20
0.7491496062992126
 30
0.0
 10
2.594570866141732
 20
0.7491496062992126
 30
0.0
 10
2.578003937007874
 20
1.024633858267717
 30
0.0
 10
2.547897637795276
 20
1.051740157480315
 30
0.0
 10
2.486173228346457
 20
1.145074803149606
 30
0.0
 10
2.486173228346457
 20
1.145074803149606
 30
0.0
 10
2.424452755905512
 20
1.238409448818898
 30
0.0
 10
2.331118110236221
 20
1.39798031496063
 30
0.0
 10
2.25886220472441
 20
1.492826771653543
 30
0.0
 10
2.25886220472441
 20
1.492826771653543
 30
0.0
 10
2.186602362204725
 20
1.587661417322835
 30
0.0
 10
2.135409448818898
 20
1.617771653543307
 30
0.0
 10
2.094767716535433
 20
1.638850393700787
 30
0.0
 10
2.094767716535433
 20
1.638850393700787
 30
0.0
 10
2.05411811023622
 20
1.659925196850394
 30
0.0
 10
2.024007874015748
 20
1.671976377952756
 30
0.0
 10
2.00444094488189
 20
1.678
 30
0.0
 10
2.00444094488189
 20
1.678
 30
0.0
 10
1.984870078740157
 20
1.684015748031496
 30
0.0
 10
1.975838582677165
 20
1.684007874015748
 30
0.0
 10
1.953267716535433
 20
1.50788188976378
 30
0.0
  0
SPLINE
  5
76
330
1F
100
AcDbEntity
  8
Layer 1
 62
   250
370
    18
100
AcDbSpline
210
0.0
220
0.0
230
1.0
 70
    11
 71
     3
 72
    84
 73
    80
 74
     0
 42
0.000000001
 43
0.0000000001
 40
0.0
 40
0.0
 40
0.0
 40
0.0
 40
0.0476190476190476
 40
0.0476190476190476
 40
0.0476190476190476
 40
0.0476190476190476
 40
0.0952380952380952
 40
0.0952380952380952
 40
0.0952380952380952
 40
0.0952380952380952
 40
0.1428571428571428
 40
0.1428571428571428
 40
0.1428571428571428
 40
0.1428571428571428
 40
0.1904761904761905
 40
0.1904761904761905
 40
0.1904761904761905
 40
0.1904761904761905
 40
0.2380952380952381
 40
0.2380952380952381
 40
0.2380952380952381
 40
0.2380952380952381
 40
0.2857142857142857
 40
0.2857142857142857
 40
0.2857142857142857
 40
0.2857142857142857
 40
0.3333333333333333
 40
0.3333333333333333
 40
0.3333333333333333
 40
0.3333333333333333
 40
0.3809523809523809
 40
0.3809523809523809
 40
0.3809523809523809
 40
0.3809523809523809
 40
0.4285714285714285
 40
0.4285714285714285
 40
0.4285714285714285
 40
0.4285714285714285
 40
0.4761904761904762
 40
0.4761904761904762
 40
0.4761904761904762
 40
0.4761904761904762
 40
0.5238095238095238
 40
0.5238095238095238
 40
0.5238095238095238
 40
0.5238095238095238
 40
0.5714285714285714
 40
0.5714285714285714
 40
0.5714285714285714
 40
0.5714285714285714
 40
0.6190476190476191
 40
0.6190476190476191
 40
0.6190476190476191
 40
0.6190476190476191
 40
0.6666666666666666
 40
0.6666666666666666
 40
0.6666666666666666
 40
0.6666666666666666
 40
0.7142857142857143
 40
0.7142857142857143
 40
0.7142857142857143
 40
0.7142857142857143
 40
0.7619047619047619
 40
0.7619047619047619
 40
0.7619047619047619
 40
0.7619047619047619
 40
0.8095238095238095
 40
0.8095238095238095
 40
0.8095238095238095
 40
0.8095238095238095
 40
0.8571428571428571
 40
0.8571428571428571
 40
0.8571428571428571
 40
0.8571428571428571
 40
0.9047619047619048
 40
0.9047619047619048
 40
0.9047619047619048
 40
0.9047619047619048
 40
1.0
 40
1.0
 40
1.0
 40
1.0
 10
5.854551181102362
 20
1.349818897637795
 30
0.0
 10
5.891429133858268
 20
1.413795275590551
 30
0.0
 10
5.963681102362205
 20
1.529712598425197
 30
0.0
 10
6.054011811023622
 20
1.638862204724409
 30
0.0
 10
6.054011811023622
 20
1.638862204724409
 30
0.0
 10
6.144334645669291
 20
1.748
 30
0.0
 10
6.252720472440945
 20
1.850366141732283
 30
0.0
 10
6.315196850393701
 20
1.89703937007874
 30
0.0
 10
6.315196850393701
 20
1.89703937007874
 30
0.0
 10
6.377669291338583
 20
1.943708661417323
 30
0.0
 10
6.394232283464567
 20
1.934669291338583
 30
0.0
 10
6.415314960629921
 20
1.901555118110236
 30
0.0
 10
6.415314960629921
 20
1.901555118110236
 30
0.0
 10
6.436385826771653
 20
1.868433070866142
 30
0.0
 10
6.461972440944882
 20
1.811224409448819
 30
0.0
 10
6.508649606299213
 20
1.64036220472441
 30
0.0
 10
6.508649606299213
 20
1.64036220472441
 30
0.0
 10
6.555314960629921
 20
1.4695
 30
0.0
 10
6.623055118110236
 20
1.184976377952756
 30
0.0
 10
6.674244094488189
 20
0.8876653543307087
 30
0.0
 10
6.674244094488189
 20
0.8876653543307087
 30
0.0
 10
6.725425196850393
 20
0.5903464566929134
 30
0.0
 10
6.760043307086614
 20
0.2802244094488189
 30
0.0
 10
6.778862204724409
 20
-0.0976259842519685
 30
0.0
 10
6.778862204724409
 20
-0.0976259842519685
 30
0.0
 10
6.797681102362205
 20
-0.475488188976378
 30
0.0
 10
6.800692913385827
 20
-0.9210944881889763
 30
0.0
 10
6.770590551181102
 20
-1.244
 30
0.0
 10
6.770590551181102
 20
-1.244
 30
0.0
 10
6.74048031496063
 20
-1.566913385826772
 30
0.0
 10
6.677248031496063
 20
-1.767125984251968
 30
0.0
 10
6.601232283464567
 20
-1.934224409448819
 30
0.0
 10
6.601232283464567
 20
-1.934224409448819
 30
0.0
 10
6.525204724409448
 20
-2.101330708661417
 30
0.0
 10
6.436385826771653
 20
-2.235307086614173
 30
0.0
 10
6.320468503937008
 20
-2.333157480314961
 30
0.0
 10
6.320468503937008
 20
-2.333157480314961
 30
0.0
 10
6.204551181102362
 20
-2.431015748031496
 30
0.0
 10
6.06153937007874
 20
-2.492736220472441
 30
0.0
 10
5.899704724409449
 20
-2.495748031496063
 30
0.0
 10
5.899704724409449
 20
-2.495748031496063
 30
0.0
 10
5.737874015748032
 20
-2.498763779527559
 30
0.0
 10
5.557232283464567
 20
-2.443055118110236
 30
0.0
 10
5.470673228346457
 20
-2.40542125984252
 30
0.0
 10
5.470673228346457
 20
-2.40542125984252
 30
0.0
 10
5.384106299212599
 20
-2.367791338582677
 30
0.0
 10
5.391625984251968
 20
-2.348220472440945
 30
0.0
 10
5.474429133858267
 20
-2.31509842519685
 30
0.0
 10
5.474429133858267
 20
-2.31509842519685
 30
0.0
 10
5.557220472440945
 20
-2.281984251968504
 30
0.0
 10
5.715291338582677
 20
-2.235314960629921
 30
0.0
 10
5.83648031496063
 20
-2.159291338582677
 30
0.0
 10
5.83648031496063
 20
-2.159291338582677
 30
0.0
 10
5.957665354330708
 20
-2.083271653543307
 30
0.0
 10
6.04196062992126
 20
-1.977889763779528
 30
0.0
 10
6.091641732283464
 20
-1.857456692913386
 30
0.0
 10
6.091641732283464
 20
-1.857456692913386
 30
0.0
 10
6.141318897637795
 20
-1.737023622047244
 30
0.0
 10
6.156374015748032
 20
-1.60153937007874
 30
0.0
 10
6.147346456692913
 20
-1.277874015748031
 30
0.0
 10
6.147346456692913
 20
-1.277874015748031
 30
0.0
 10
6.138307086614173
 20
-0.9542086614173229
 30
0.0
 10
6.105192913385827
 20
-0.4423740157480315
 30
0.0
 10
6.057023622047244
 20
-0.0208503937007874
 30
0.0
 10
6.057023622047244
 20
-0.0208503937007874
 30
0.0
 10
6.008846456692913
 20
0.4006653543307087
 30
0.0
 10
5.945614173228346
 20
0.7318503937007874
 30
0.0
 10
5.906472440944882
 20
0.9245433070866141
 30
0.0
 10
5.906472440944882
 20
0.9245433070866141
 30
0.0
 10
5.867334645669291
 20
1.117236220472441
 30
0.0
 10
5.852287401574803
 20
1.171429133858268
 30
0.0
 10
5.840996062992126
 20
1.204555118110236
 30
0.0
 10
5.840996062992126
 20
1.204555118110236
 30
0.0
 10
5.829704724409448
 20
1.237669291338583
 30
0.0
 10
5.822177165354331
 20
1.249708661417323
 30
0.0
 10
5.819165354330709
 20
1.261751968503937
 30
0.0
 10
5.819165354330709
 20
1.261751968503937
 30
0.0
 10
5.816153543307086
 20
1.273795275590551
 30
0.0
 10
5.817661417322834
 20
1.285834645669291
 30
0.0
 10
5.854551181102362
 20
1.349818897637795
 30
0.0
  0
SPLINE
  5
77
330
1F
100
AcDbEntity
  8
Layer 1
 62
   250
370
    18
100
AcDbSpline
210
0.0
220
0.0
230
1.0
 70
     8
 71
     3
 72
    84
 73
    80
 74
     0
 42
0.000000001
 43
0.0000000001
 40
0.0
 40
0.0
 40
0.0
 40
0.0
 40
0.0476190476190476
 40
0.0476190476190476
 40
0.0476190476190476
 40
0.0476190476190476
 40
0.0952380952380952
 40
0.0952380952380952
 40
0.0952380952380952
 40
0.0952380952380952
 40
0.1428571428571428
 40
0.1428571428571428
 40
0.1428571428571428
 40
0.1428571428571428
 40
0.1904761904761905
 40
0.1904761904761905
 40
0.1904761904761905
 40
0.1904761904761905
 40
0.2380952380952381
 40
0.2380952380952381
 40
0.2380952380952381
 40
0.2380952380952381
 40
0.2857142857142857
 40
0.2857142857142857
 40
0.2857142857142857
 40
0.2857142857142857
 40
0.3333333333333333
 40
0.3333333333333333
 40
0.3333333333333333
 40
0.3333333333333333
 40
0.3809523809523809
 40
0.3809523809523809
 40
0.3809523809523809
 40
0.3809523809523809
 40
0.4285714285714285
 40
0.4285714285714285
 40
0.4285714285714285
 40
0.4285714285714285
 40
0.4761904761904762
 40
0.4761904761904762
 40
0.4761904761904762
 40
0.4761904761904762
 40
0.5238095238095238
 40
0.5238095238095238
 40
0.5238095238095238
 40
0.5238095238095238
 40
0.5714285714285714
 40
0.5714285714285714
 40
0.5714285714285714
 40
0.5714285714285714
 40
0.6190476190476191
 40
0.6190476190476191
 40
0.6190476190476191
 40
0.6190476190476191
 40
0.6666666666666666
 40
0.6666666666666666
 40
0.6666666666666666
 40
0.6666666666666666
 40
0.7142857142857143
 40
0.7142857142857143
 40
0.7142857142857143
 40
0.7142857142857143
 40
0.7619047619047619
 40
0.7619047619047619
 40
0.7619047619047619
 40
0.7619047619047619
 40
0.8095238095238095
 40
0.8095238095238095
 40
0.8095238095238095
 40
0.8095238095238095
 40
0.8571428571428571
 40
0.8571428571428571
 40
0.8571428571428571
 40
0.8571428571428571
 40
0.9047619047619048
 40
0.9047619047619048
 40
0.9047619047619048
 40
0.9047619047619048
 40
1.0
 40
1.0
 40
1.0
 40
1.0
 10
-4.242933070866142
 20
4.956027559055118
 30
0.0
 10
-4.029165354330709
 20
4.748279527559055
 30
0.0
 10
-3.815389763779528
 20
4.54053937007874
 30
0.0
 10
-3.690444881889764
 20
4.456236220472441
 30
0.0
 10
-3.690444881889764
 20
4.456236220472441
 30
0.0
 10
-3.5655
 20
4.371933070866142
 30
0.0
 10
-3.529362204724409
 20
4.411070866141732
 30
0.0
 10
-3.469145669291338
 20
4.465263779527559
 30
0.0
 10
-3.469145669291338
 20
4.465263779527559
 30
0.0
 10
-3.408933070866142
 20
4.51946062992126
 30
0.0
 10
-3.32463779527559
 20
4.588708661417323
 30
0.0
 10
-3.317110236220473
 20
4.54053937007874
 30
0.0
 10
-3.317110236220473
 20
4.54053937007874
 30
0.0
 10
-3.309582677165354
 20
4.49236220472441
 30
0.0
 10
-3.378830708661417
 20
4.326775590551181
 30
0.0
 10
-3.380334645669291
 20
4.209354330708662
 30
0.0
 10
-3.380334645669291
 20
4.209354330708662
 30
0.0
 10
-3.381842519685039
 20
4.091929133858268
 30
0.0
 10
-3.31559842519685
 20
4.022681102362204
 30
0.0
 10
-3.228279527559055
 20
3.884181102362205
 30
0.0
 10
-3.228279527559055
 20
3.884181102362205
 30
0.0
 10
-3.140972440944882
 20
3.745681102362205
 30
0.0
 10
-3.032582677165354
 20
3.53794094488189
 30
0.0
 10
-2.960318897637795
 20
3.464177165354331
 30
0.0
 10
-2.960318897637795
 20
3.464177165354331
 30
0.0
 10
-2.888066929133858
 20
3.390405511811024
 30
0.0
 10
-2.851933070866142
 20
3.450622047244094
 30
0.0
 10
-2.757086614173228
 20
3.521374015748032
 30
0.0
 10
-2.757086614173228
 20
3.521374015748032
 30
0.0
 10
-2.662251968503937
 20
3.592125984251969
 30
0.0
 10
-2.508704724409449
 20
3.673417322834646
 30
0.0
 10
-2.465043307086614
 20
3.662885826771654
 30
0.0
 10
-2.465043307086614
 20
3.662885826771654
 30
0.0
 10
-2.421385826771654
 20
3.652346456692913
 30
0.0
 10
-2.487625984251968
 20
3.549976377952756
 30
0.0
 10
-2.559877952755905
 20
3.450622047244094
 30
0.0
 10
-2.559877952755905
 20
3.450622047244094
 30
0.0
 10
-2.632141732283464
 20
3.351263779527559
 30
0.0
 10
-2.710429133858268
 20
3.254917322834646
 30
0.0
 10
-2.728488188976378
 20
3.182665354330709
 30
0.0
 10
-2.728488188976378
 20
3.182665354330709
 30
0.0
 10
-2.746555118110236
 20
3.110401574803149
 30
0.0
 10
-2.70440157480315
 20
3.062224409448819
 30
0.0
 10
-2.58246062992126
 20
2.913192913385827
 30
0.0
 10
-2.58246062992126
 20
2.913192913385827
 30
0.0
 10
-2.460527559055118
 20
2.764153543307087
 30
0.0
 10
-2.258803149606299
 20
2.514259842519685
 30
0.0
 10
-2.029984251968504
 20
2.271885826771654
 30
0.0
 10
-2.029984251968504
 20
2.271885826771654
 30
0.0
 10
-1.801161417322835
 20
2.029515748031496
 30
0.0
 10
-1.545244094488189
 20
1.794677165354331
 30
0.0
 10
-1.302870078740157
 20
1.604996062992126
 30
0.0
 10
-1.302870078740157
 20
1.604996062992126
 30
0.0
 10
-1.060507874015748
 20
1.415314960629921
 30
0.0
 10
-0.8316771653543307
 20
1.270791338582677
 30
0.0
 10
-0.6600551181102362
 20
1.175952755905512
 30
0.0
 10
-0.6600551181102362
 20
1.175952755905512
 30
0.0
 10
-0.4884409448818898
 20
1.081110236220473
 30
0.0
 10
-0.3740354330708661
 20
1.035952755905512
 30
0.0
 10
-0.2686496062992126
 20
1.034448818897638
 30
0.0
 10
-0.2686496062992126
 20
1.034448818897638
 30
0.0
 10
-0.1632755905511811
 20
1.03294094488189
 30
0.0
 10
-0.0669370078740157
 20
1.075090551181102
 30
0.0
 10
-0.0007007874015748
 20
1.135311023622047
 30
0.0
 10
-0.0007007874015748
 20
1.135311023622047
 30
0.0
 10
0.0655354330708661
 20
1.195523622047244
 30
0.0
 10
0.1016732283464567
 20
1.273803149606299
 30
0.0
 10
0.1814606299212598
 20
1.346066929133858
 30
0.0
 10
0.1814606299212598
 20
1.346066929133858
 30
0.0
 10
0.261244094488189
 20
1.418318897637795
 30
0.0
 10
0.3846889763779527
 20
1.484562992125984
 30
0.0
 10
0.5623267716535433
 20
1.577897637795276
 30
0.0
 10
0.5623267716535433
 20
1.577897637795276
 30
0.0
 10
0.7399645669291338
 20
1.671232283464567
 30
0.0
 10
0.9717992125984252
 20
1.791665354330709
 30
0.0
 10
1.165992125984252
 20
1.89553937007874
 30
0.0
 10
1.165992125984252
 20
1.89553937007874
 30
0.0
 10
1.360188976377953
 20
1.999413385826772
 30
0.0
 10
1.516755905511811
 20
2.086720472440945
 30
0.0
 10
1.673314960629921
 20
2.17403937007874
 30
0.0
  0
SPLINE
  5
78
330
1F
100
AcDbEntity
  8
Layer 1
 62
   250
370
    18
100
AcDbSpline
210
0.0
220
0.0
230
1.0
 70
     8
 71
     3
 72
    16
 73
    12
 74
     0
 42
0.000000001
 43
0.0000000001
 40
0.0
 40
0.0
 40
0.0
 40
0.0
 40
0.25
 40
0.25
 40
0.25
 40
0.25
 40
0.5
 40
0.5
 40
0.5
 40
0.5
 40
1.0
 40
1.0
 40
1.0
 40
1.0
 10
6.632141732283465
 20
2.535342519685039
 30
0.0
 10
6.740531496062992
 20
2.475122047244095
 30
0.0
 10
6.84892125984252
 20
2.414909448818898
 30
0.0
 10
7.042366141732283
 20
2.309535433070866
 30
0.0
 10
7.042366141732283
 20
2.309535433070866
 30
0.0
 10
7.235811023622047
 20
2.204149606299213
 30
0.0
 10
7.514311023622048
 20
2.053606299212599
 30
0.0
 10
7.690448818897638
 20
1.970062992125984
 30
0.0
 10
7.690448818897638
 20
1.970062992125984
 30
0.0
 10
7.866574803149606
 20
1.886507874015748
 30
0.0
 10
7.940342519685039
 20
1.869944881889764
 30
0.0
 10
8.014106299212598
 20
1.853385826771654
 30
0.0
  0
SPLINE
  5
79
330
1F
100
AcDbEntity
  8
Layer 1
 62
   250
370
    18
100
AcDbSpline
210
0.0
220
0.0
230
1.0
 70
     8
 71
     3
 72
    40
 73
    36
 74
     0
 42
0.000000001
 43
0.0000000001
 40
0.0
 40
0.0
 40
0.0
 40
0.0
 40
0.1
 40
0.1
 40
0.1
 40
0.1
 40
0.2
 40
0.2
 40
0.2
 40
0.2
 40
0.3
 40
0.3
 40
0.3
 40
0.3
 40
0.4
 40
0.4
 40
0.4
 40
0.4
 40
0.5
 40
0.5
 40
0.5
 40
0.5
 40
0.6
 40
0.6
 40
0.6
 40
0.6
 40
0.7
 40
0.7
 40
0.7
 40
0.7
 40
0.8
 40
0.8
 40
0.8
 40
0.8
 40
1.0
 40
1.0
 40
1.0
 40
1.0
 10
0.4042913385826772
 20
8.419976377952755
 30
0.0
 10
0.5126811023622048
 20
8.58255905511811
 30
0.0
 10
0.6210708661417322
 20
8.745141732283464
 30
0.0
 10
0.675263779527559
 20
8.885145669291338
 30
0.0
 10
0.675263779527559
 20
8.885145669291338
 30
0.0
 10
0.7294606299212598
 20
9.025145669291339
 30
0.0
 10
0.7294606299212598
 20
9.142570866141732
 30
0.0
 10
0.7144055118110236
 20
9.308169291338583
 30
0.0
 10
0.7144055118110236
 20
9.308169291338583
 30
0.0
 10
0.6993503937007874
 20
9.473755905511812
 30
0.0
 10
0.669248031496063
 20
9.687531496062991
 30
0.0
 10
0.6978464566929133
 20
9.83505905511811
 30
0.0
 10
0.6978464566929133
 20
9.83505905511811
 30
0.0
 10
0.7264448818897637
 20
9.98258661417323
 30
0.0
 10
0.8137637795275591
 20
10.06388188976378
 30
0.0
 10
1.039570866141732
 20
10.20840551181102
 30
0.0
 10
1.039570866141732
 20
10.20840551181102
 30
0.0
 10
1.265377952755905
 20
10.35292125984252
 30
0.0
 10
1.629692913385827
 20
10.56066141732284
 30
0.0
 10
1.908196850393701
 20
10.69012992125984
 30
0.0
 10
1.908196850393701
 20
10.69012992125984
 30
0.0
 10
2.186696850393701
 20
10.8195905511811
 30
0.0
 10
2.37938188976378
 20
10.87078346456693
 30
0.0
 10
2.602185039370079
 20
10.90842125984252
 30
0.0
 10
2.602185039370079
 20
10.90842125984252
 30
0.0
 10
2.82498031496063
 20
10.94604724409449
 30
0.0
 10
3.077893700787401
 20
10.97014173228346
 30
0.0
 10
3.39251968503937
 20
10.97766929133858
 30
0.0
 10
3.39251968503937
 20
10.97766929133858
 30
0.0
 10
3.707145669291338
 20
10.98518897637795
 30
0.0
 10
4.083503937007874
 20
10.97615748031496
 30
0.0
 10
4.291255905511811
 20
10.96862992125984
 30
0.0
 10
4.291255905511811
 20
10.96862992125984
 30
0.0
 10
4.498996062992126
 20
10.96110236220473
 30
0.0
 10
4.538141732283465
 20
10.95507874015748
 30
0.0
 10
4.577283464566929
 20
10.94906299212598
 30
0.0
  0
SPLINE
  5
7A
330
1F
100
AcDbEntity
  8
Layer 1
 62
   250
370
    18
100
AcDbSpline
210
0.0
220
0.0
230
1.0
 70
     8
 71
     3
 72
    40
 73
    36
 74
     0
 42
0.000000001
 43
0.0000000001
 40
0.0
 40
0.0
 40
0.0
 40
0.0
 40
0.1
 40
0.1
 40
0.1
 40
0.1
 40
0.2
 40
0.2
 40
0.2
 40
0.2
 40
0.3
 40
0.3
 40
0.3
 40
0.3
 40
0.4
 40
0.4
 40
0.4
 40
0.4
 40
0.5
 40
0.5
 40
0.5
 40
0.5
 40
0.6
 40
0.6
 40
0.6
 40
0.6
 40
0.7
 40
0.7
 40
0.7
 40
0.7
 40
0.8
 40
0.8
 40
0.8
 40
0.8
 40
1.0
 40
1.0
 40
1.0
 40
1.0
 10
5.20051968503937
 20
10.87682283464567
 30
0.0
 10
5.50761811023622
 20
10.75940551181102
 30
0.0
 10
5.814728346456693
 20
10.64198031496063
 30
0.0
 10
6.088712598425197
 20
10.46283858267716
 30
0.0
 10
6.088712598425197
 20
10.46283858267716
 30
0.0
 10
6.362688976377953
 20
10.2836968503937
 30
0.0
 10
6.603562992125984
 20
10.04282677165354
 30
0.0
 10
6.737547244094488
 20
9.812503937007873
 30
0.0
 10
6.737547244094488
 20
9.812503937007873
 30
0.0
 10
6.87151968503937
 20
9.582173228346457
 30
0.0
 10
6.89861811023622
 20
9.36238188976378
 30
0.0
 10
6.904645669291338
 20
9.192267716535433
 30
0.0
 10
6.904645669291338
 20
9.192267716535433
 30
0.0
 10
6.910661417322834
 20
9.022157480314961
 30
0.0
 10
6.895606299212599
 20
8.901728346456693
 30
0.0
 10
6.874535433070866
 20
8.78882283464567
 30
0.0
 10
6.874535433070866
 20
8.78882283464567
 30
0.0
 10
6.853452755905511
 20
8.675917322834646
 30
0.0
 10
6.826358267716535
 20
8.570535433070866
 30
0.0
 10
6.857968503937008
 20
8.40042125984252
 30
0.0
 10
6.857968503937008
 20
8.40042125984252
 30
0.0
 10
6.88957874015748
 20
8.230311023622047
 30
0.0
 10
6.979909448818898
 20
7.995472440944882
 30
0.0
 10
7.068728346456693
 20
7.802779527559055
 30
0.0
 10
7.068728346456693
 20
7.802779527559055
 30
0.0
 10
7.157551181102362
 20
7.610086614173229
 30
0.0
 10
7.244858267716536
 20
7.459547244094488
 30
0.0
 10
7.293035433070866
 20
7.253307086614173
 30
0.0
 10
7.293035433070866
 20
7.253307086614173
 30
0.0
 10
7.341204724409449
 20
7.04705905511811
 30
0.0
 10
7.350244094488189
 20
6.785125984251969
 30
0.0
 10
7.344224409448818
 20
6.598456692913386
 30
0.0
 10
7.344224409448818
 20
6.598456692913386
 30
0.0
 10
7.338200787401575
 20
6.411779527559055
 30
0.0
 10
7.317122047244094
 20
6.300377952755905
 30
0.0
 10
7.296047244094488
 20
6.188976377952756
 30
0.0
  0
SPLINE
  5
7B
330
1F
100
AcDbEntity
  8
Layer 1
 62
   250
370
    18
100
AcDbSpline
210
0.0
220
0.0
230
1.0
 70
     8
 71
     3
 72
    56
 73
    52
 74
     0
 42
0.000000001
 43
0.0000000001
 40
0.0
 40
0.0
 40
0.0
 40
0.0
 40
0.0714285714285714
 40
0.0714285714285714
 40
0.0714285714285714
 40
0.0714285714285714
 40
0.1428571428571428
 40
0.1428571428571428
 40
0.1428571428571428
 40
0.1428571428571428
 40
0.2142857142857143
 40
0.2142857142857143
 40
0.2142857142857143
 40
0.2142857142857143
 40
0.2857142857142857
 40
0.2857142857142857
 40
0.2857142857142857
 40
0.2857142857142857
 40
0.3571428571428572
 40
0.3571428571428572
 40
0.3571428571428572
 40
0.3571428571428572
 40
0.4285714285714285
 40
0.4285714285714285
 40
0.4285714285714285
 40
0.4285714285714285
 40
0.5
 40
0.5
 40
0.5
 40
0.5
 40
0.5714285714285714
 40
0.5714285714285714
 40
0.5714285714285714
 40
0.5714285714285714
 40
0.6428571428571429
 40
0.6428571428571429
 40
0.6428571428571429
 40
0.6428571428571429
 40
0.7142857142857143
 40
0.7142857142857143
 40
0.7142857142857143
 40
0.7142857142857143
 40
0.7857142857142857
 40
0.7857142857142857
 40
0.7857142857142857
 40
0.7857142857142857
 40
0.8571428571428571
 40
0.8571428571428571
 40
0.8571428571428571
 40
0.8571428571428571
 40
1.0
 40
1.0
 40
1.0
 40
1.0
 10
0.4223661417322835
 20
7.959354330708662
 30
0.0
 10
0.4404370078740157
 20
7.805803149606299
 30
0.0
 10
0.458496062992126
 20
7.652255905511811
 30
0.0
 10
0.4645196850393701
 20
7.509244094488189
 30
0.0
 10
0.4645196850393701
 20
7.509244094488189
 30
0.0
 10
0.4705354330708661
 20
7.366228346456693
 30
0.0
 10
0.4645196850393701
 20
7.233744094488189
 30
0.0
 10
0.4645196850393701
 20
7.065145669291339
 30
0.0
 10
0.4645196850393701
 20
7.065145669291339
 30
0.0
 10
0.4645196850393701
 20
6.896535433070866
 30
0.0
 10
0.4705354330708661
 20
6.691799212598426
 30
0.0
 10
0.5006456692913386
 20
6.512661417322835
 30
0.0
 10
0.5006456692913386
 20
6.512661417322835
 30
0.0
 10
0.5307559055118111
 20
6.333511811023622
 30
0.0
 10
0.5849527559055118
 20
6.179964566929134
 30
0.0
 10
0.6421574803149607
 20
6.033937007874016
 30
0.0
 10
0.6421574803149607
 20
6.033937007874016
 30
0.0
 10
0.6993661417322835
 20
5.887909448818897
 30
0.0
 10
0.7595787401574803
 20
5.74942125984252
 30
0.0
 10
0.8167834645669292
 20
5.559740157480315
 30
0.0
 10
0.8167834645669292
 20
5.559740157480315
 30
0.0
 10
0.873992125984252
 20
5.37005905511811
 30
0.0
 10
0.9281850393700788
 20
5.129188976377953
 30
0.0
 10
0.9906614173228346
 20
4.908645669291339
 30
0.0
 10
0.9906614173228346
 20
4.908645669291339
 30
0.0
 10
1.053133858267717
 20
4.688102362204725
 30
0.0
 10
1.123893700787401
 20
4.487889763779528
 30
0.0
 10
1.185614173228347
 20
4.332834645669291
 30
0.0
 10
1.185614173228347
 20
4.332834645669291
 30
0.0
 10
1.247338582677165
 20
4.177779527559055
 30
0.0
 10
1.30001968503937
 20
4.067877952755905
 30
0.0
 10
1.396366141732283
 20
3.917346456692913
 30
0.0
 10
1.396366141732283
 20
3.917346456692913
 30
0.0
 10
1.492716535433071
 20
3.766803149606299
 30
0.0
 10
1.632716535433071
 20
3.575614173228347
 30
0.0
 10
1.719283464566929
 20
3.442389763779528
 30
0.0
 10
1.719283464566929
 20
3.442389763779528
 30
0.0
 10
1.805838582677165
 20
3.309153543307087
 30
0.0
 10
1.838952755905512
 20
3.233889763779528
 30
0.0
 10
1.852507874015748
 20
3.157110236220472
 30
0.0
 10
1.852507874015748
 20
3.157110236220472
 30
0.0
 10
1.866051181102362
 20
3.080334645669291
 30
0.0
 10
1.860035433070866
 20
3.002055118110236
 30
0.0
 10
1.847992125984252
 20
2.881622047244095
 30
0.0
 10
1.847992125984252
 20
2.881622047244095
 30
0.0
 10
1.83594094488189
 20
2.761192913385827
 30
0.0
 10
1.81788188976378
 20
2.598610236220472
 30
0.0
 10
1.806590551181102
 20
2.412692913385827
 30
0.0
 10
1.806590551181102
 20
2.412692913385827
 30
0.0
 10
1.795299212598425
 20
2.226775590551181
 30
0.0
 10
1.790783464566929
 20
2.017515748031496
 30
0.0
 10
1.786271653543307
 20
1.808263779527559
 30
0.0
  0
SPLINE
  5
7C
330
1F
100
AcDbEntity
  8
Layer 1
 62
   250
370
    18
100
AcDbSpline
210
0.0
220
0.0
230
1.0
 70
     8
 71
     3
 72
    28
 73
    24
 74
     0
 42
0.000000001
 43
0.0000000001
 40
0.0
 40
0.0
 40
0.0
 40
0.0
 40
0.1428571428571428
 40
0.1428571428571428
 40
0.1428571428571428
 40
0.1428571428571428
 40
0.2857142857142857
 40
0.2857142857142857
 40
0.2857142857142857
 40
0.2857142857142857
 40
0.4285714285714285
 40
0.4285714285714285
 40
0.4285714285714285
 40
0.4285714285714285
 40
0.5714285714285714
 40
0.5714285714285714
 40
0.5714285714285714
 40
0.5714285714285714
 40
0.7142857142857143
 40
0.7142857142857143
 40
0.7142857142857143
 40
0.7142857142857143
 40
1.0
 40
1.0
 40
1.0
 40
1.0
 10
6.555417322834646
 20
2.128933070866142
 30
0.0
 10
6.522303149606299
 20
2.375822834645669
 30
0.0
 10
6.489181102362204
 20
2.622708661417323
 30
0.0
 10
6.445527559055118
 20
2.847015748031496
 30
0.0
 10
6.445527559055118
 20
2.847015748031496
 30
0.0
 10
6.401874015748032
 20
3.071322834645669
 30
0.0
 10
6.347677165354331
 20
3.273043307086614
 30
0.0
 10
6.276925196850394
 20
3.459712598425197
 30
0.0
 10
6.276925196850394
 20
3.459712598425197
 30
0.0
 10
6.206165354330708
 20
3.646381889763779
 30
0.0
 10
6.118858267716536
 20
3.818003937007874
 30
0.0
 10
6.087244094488189
 20
3.98209842519685
 30
0.0
 10
6.087244094488189
 20
3.98209842519685
 30
0.0
 10
6.055625984251969
 20
4.146185039370079
 30
0.0
 10
6.079716535433071
 20
4.302740157480315
 30
0.0
 10
6.135413385826772
 20
4.402102362204724
 30
0.0
 10
6.135413385826772
 20
4.402102362204724
 30
0.0
 10
6.191110236220473
 20
4.50146062992126
 30
0.0
 10
6.278429133858268
 20
4.543606299212598
 30
0.0
 10
6.394346456692913
 20
4.75888188976378
 30
0.0
 10
6.394346456692913
 20
4.75888188976378
 30
0.0
 10
6.510251968503937
 20
4.97415748031496
 30
0.0
 10
6.654775590551181
 20
5.362547244094488
 30
0.0
 10
6.799295275590551
 20
5.750948818897638
 30
0.0
  0
SPLINE
  5
7D
330
1F
100
AcDbEntity
  8
Layer 1
 62
   250
370
    18
100
AcDbSpline
210
0.0
220
0.0
230
1.0
 70
     8
 71
     3
 72
    28
 73
    24
 74
     0
 42
0.000000001
 43
0.0000000001
 40
0.0
 40
0.0
 40
0.0
 40
0.0
 40
0.1428571428571428
 40
0.1428571428571428
 40
0.1428571428571428
 40
0.1428571428571428
 40
0.2857142857142857
 40
0.2857142857142857
 40
0.2857142857142857
 40
0.2857142857142857
 40
0.4285714285714285
 40
0.4285714285714285
 40
0.4285714285714285
 40
0.4285714285714285
 40
0.5714285714285714
 40
0.5714285714285714
 40
0.5714285714285714
 40
0.5714285714285714
 40
0.7142857142857143
 40
0.7142857142857143
 40
0.7142857142857143
 40
0.7142857142857143
 40
1.0
 40
1.0
 40
1.0
 40
1.0
 10
-0.6524409448818898
 20
0.9276811023622047
 30
0.0
 10
-0.6042755905511811
 20
0.391763779527559
 30
0.0
 10
-0.5560944881889763
 20
-0.1441653543307087
 30
0.0
 10
-0.5049133858267717
 20
-0.6861102362204724
 30
0.0
 10
-0.5049133858267717
 20
-0.6861102362204724
 30
0.0
 10
-0.453732283464567
 20
-1.22805905511811
 30
0.0
 10
-0.3995393700787401
 20
-1.77601968503937
 30
0.0
 10
-0.3302874015748031
 20
-2.212590551181102
 30
0.0
 10
-0.3302874015748031
 20
-2.212590551181102
 30
0.0
 10
-0.2610393700787402
 20
-2.64915748031496
 30
0.0
 10
-0.176744094488189
 20
-2.974334645669291
 30
0.0
 10
-0.0954488188976378
 20
-3.34465748031496
 30
0.0
 10
-0.0954488188976378
 20
-3.34465748031496
 30
0.0
 10
-0.0141574803149606
 20
-3.714992125984252
 30
0.0
 10
0.0641299212598425
 20
-4.130488188976378
 30
0.0
 10
0.1484330708661417
 20
-4.750712598425197
 30
0.0
 10
0.1484330708661417
 20
-4.750712598425197
 30
0.0
 10
0.2327283464566929
 20
-5.370937007874016
 30
0.0
 10
0.3230590551181102
 20
-6.195897637795276
 30
0.0
 10
0.374240157480315
 20
-6.879346456692914
 30
0.0
 10
0.374240157480315
 20
-6.879346456692914
 30
0.0
 10
0.4254212598425197
 20
-7.562807086614173
 30
0.0
 10
0.4374645669291339
 20
-8.104759842519686
 30
0.0
 10
0.449507874015748
 20
-8.64670472440945
 30
0.0
  0
SPLINE
  5
7E
330
1F
100
AcDbEntity
  8
Layer 1
 62
   250
370
    18
100
AcDbSpline
210
0.0
220
0.0
230
1.0
 70
     8
 71
     3
 72
    16
 73
    12
 74
     0
 42
0.000000001
 43
0.0000000001
 40
0.0
 40
0.0
 40
0.0
 40
0.0
 40
0.25
 40
0.25
 40
0.25
 40
0.25
 40
0.5
 40
0.5
 40
0.5
 40
0.5
 40
1.0
 40
1.0
 40
1.0
 40
1.0
 10
3.683149606299212
 20
-5.629870078740158
 30
0.0
 10
3.66507874015748
 20
-6.195897637795276
 30
0.0
 10
3.64701968503937
 20
-6.761937007874016
 30
0.0
 10
3.665090551181102
 20
-7.30388188976378
 30
0.0
 10
3.665090551181102
 20
-7.30388188976378
 30
0.0
 10
3.683149606299212
 20
-7.845830708661417
 30
0.0
 10
3.737342519685039
 20
-8.363688976377952
 30
0.0
 10
3.74638188976378
 20
-8.700901574803149
 30
0.0
 10
3.74638188976378
 20
-8.700901574803149
 30
0.0
 10
3.755409448818898
 20
-9.038110236220472
 30
0.0
 10
3.719275590551181
 20
-9.194677165354332
 30
0.0
 10
3.683149606299212
 20
-9.35123622047244
 30
0.0
  0
SPLINE
  5
7F
330
1F
100
AcDbEntity
  8
Layer 1
 62
   250
370
    18
100
AcDbSpline
210
0.0
220
0.0
230
1.0
 70
     8
 71
     3
 72
    32
 73
    28
 74
     0
 42
0.000000001
 43
0.0000000001
 40
0.0
 40
0.0
 40
0.0
 40
0.0
 40
0.125
 40
0.125
 40
0.125
 40
0.125
 40
0.25
 40
0.25
 40
0.25
 40
0.25
 40
0.375
 40
0.375
 40
0.375
 40
0.375
 40
0.5
 40
0.5
 40
0.5
 40
0.5
 40
0.625
 40
0.625
 40
0.625
 40
0.625
 40
0.75
 40
0.75
 40
0.75
 40
0.75
 40
1.0
 40
1.0
 40
1.0
 40
1.0
 10
5.652228346456693
 20
0.9096062992125984
 30
0.0
 10
5.598035433070866
 20
0.4760511811023622
 30
0.0
 10
5.543838582677165
 20
0.042492125984252
 30
0.0
 10
5.489645669291338
 20
-0.4031062992125984
 30
0.0
 10
5.489645669291338
 20
-0.4031062992125984
 30
0.0
 10
5.435448818897638
 20
-0.8487047244094488
 30
0.0
 10
5.381255905511811
 20
-1.306354330708661
 30
0.0
 10
5.339102362204724
 20
-1.76098031496063
 30
0.0
 10
5.339102362204724
 20
-1.76098031496063
 30
0.0
 10
5.296952755905512
 20
-2.215618110236221
 30
0.0
 10
5.266842519685039
 20
-2.667236220472441
 30
0.0
 10
5.245771653543307
 20
-3.064665354330709
 30
0.0
 10
5.245771653543307
 20
-3.064665354330709
 30
0.0
 10
5.224688976377953
 20
-3.462094488188976
 30
0.0
 10
5.212645669291339
 20
-3.805330708661417
 30
0.0
 10
5.146409448818898
 20
-4.118452755905512
 30
0.0
 10
5.146409448818898
 20
-4.118452755905512
 30
0.0
 10
5.080173228346457
 20
-4.43157874015748
 30
0.0
 10
4.959740157480315
 20
-4.714594488188976
 30
0.0
 10
4.857377952755906
 20
-4.907279527559055
 30
0.0
 10
4.857377952755906
 20
-4.907279527559055
 30
0.0
 10
4.755007874015748
 20
-5.099972440944882
 30
0.0
 10
4.670700787401575
 20
-5.202346456692913
 30
0.0
 10
4.48101968503937
 20
-5.226429133858268
 30
0.0
 10
4.48101968503937
 20
-5.226429133858268
 30
0.0
 10
4.291338582677166
 20
-5.250515748031496
 30
0.0
 10
3.996283464566929
 20
-5.196318897637795
 30
0.0
 10
3.701224409448819
 20
-5.142125984251969
 30
0.0
  0
SPLINE
  5
80
330
1F
100
AcDbEntity
  8
Layer 1
 62
   250
370
    18
100
AcDbSpline
210
0.0
220
0.0
230
1.0
 70
     8
 71
     3
 72
    16
 73
    12
 74
     0
 42
0.000000001
 43
0.0000000001
 40
0.0
 40
0.0
 40
0.0
 40
0.0
 40
0.25
 40
0.25
 40
0.25
 40
0.25
 40
0.5
 40
0.5
 40
0.5
 40
0.5
 40
1.0
 40
1.0
 40
1.0
 40
1.0
 10
3.114106299212598
 20
-2.748535433070866
 30
0.0
 10
3.114106299212598
 20
-3.13994094488189
 30
0.0
 10
3.114106299212598
 20
-3.531350393700787
 30
0.0
 10
3.144216535433071
 20
-3.83544094488189
 30
0.0
 10
3.144216535433071
 20
-3.83544094488189
 30
0.0
 10
3.174326771653543
 20
-4.139535433070866
 30
0.0
 10
3.234535433070866
 20
-4.356314960629922
 30
0.0
 10
3.290240157480315
 20
-4.527925196850394
 30
0.0
 10
3.290240157480315
 20
-4.527925196850394
 30
0.0
 10
3.345937007874016
 20
-4.699547244094489
 30
0.0
 10
3.397122047244094
 20
-4.825996062992126
 30
0.0
 10
3.448303149606299
 20
-4.952452755905512
 30
0.0
  0
SPLINE
  5
81
330
1F
100
AcDbEntity
  8
Layer 1
 62
   250
370
    18
100
AcDbSpline
210
0.0
220
0.0
230
1.0
 70
     8
 71
     3
 72
    12
 73
     8
 74
     0
 42
0.000000001
 43
0.0000000001
 40
0.0
 40
0.0
 40
0.0
 40
0.0
 40
0.3333333333333333
 40
0.3333333333333333
 40
0.3333333333333333
 40
0.3333333333333333
 40
1.0
 40
1.0
 40
1.0
 40
1.0
 10
2.77994094488189
 20
0.5573267716535433
 30
0.0
 10
2.849192913385827
 20
0.3164606299212598
 30
0.0
 10
2.91844094488189
 20
0.0755905511811024
 30
0.0
 10
2.960594488188976
 20
-0.2646299212598425
 30
0.0
 10
2.960594488188976
 20
-0.2646299212598425
 30
0.0
 10
3.002748031496063
 20
-0.6048543307086615
 30
0.0
 10
3.017791338582677
 20
-1.044429133858268
 30
0.0
 10
3.032846456692913
 20
-1.484007874015748
 30
0.0
  0
SPLINE
  5
82
330
1F
100
AcDbEntity
  8
Layer 1
 62
   250
370
    18
100
AcDbSpline
210
0.0
220
0.0
230
1.0
 70
     8
 71
     3
 72
    40
 73
    36
 74
     0
 42
0.000000001
 43
0.0000000001
 40
0.0
 40
0.0
 40
0.0
 40
0.0
 40
0.1
 40
0.1
 40
0.1
 40
0.1
 40
0.2
 40
0.2
 40
0.2
 40
0.2
 40
0.3
 40
0.3
 40
0.3
 40
0.3
 40
0.4
 40
0.4
 40
0.4
 40
0.4
 40
0.5
 40
0.5
 40
0.5
 40
0.5
 40
0.6
 40
0.6
 40
0.6
 40
0.6
 40
0.7
 40
0.7
 40
0.7
 40
0.7
 40
0.8
 40
0.8
 40
0.8
 40
0.8
 40
1.0
 40
1.0
 40
1.0
 40
1.0
 10
1.163169291338583
 20
5.985838582677165
 30
0.0
 10
1.196291338582677
 20
6.082185039370079
 30
0.0
 10
1.229405511811024
 20
6.178531496062992
 30
0.0
 10
1.285110236220472
 20
6.231224409448819
 30
0.0
 10
1.285110236220472
 20
6.231224409448819
 30
0.0
 10
1.340807086614173
 20
6.283905511811024
 30
0.0
 10
1.419094488188976
 20
6.292944881889764
 30
0.0
 10
1.522937007874016
 20
6.248377952755906
 30
0.0
 10
1.522937007874016
 20
6.248377952755906
 30
0.0
 10
1.626775590551181
 20
6.2038031496063
 30
0.0
 10
1.756185039370079
 20
6.105629921259842
 30
0.0
 10
1.81188188976378
 20
5.994228346456693
 30
0.0
 10
1.81188188976378
 20
5.994228346456693
 30
0.0
 10
1.86757874015748
 20
5.882822834645669
 30
0.0
 10
1.84957874015748
 20
5.758204724409449
 30
0.0
 10
1.860145669291339
 20
5.560405511811024
 30
0.0
 10
1.860145669291339
 20
5.560405511811024
 30
0.0
 10
1.870712598425197
 20
5.36259842519685
 30
0.0
 10
1.909850393700787
 20
5.091625984251968
 30
0.0
 10
1.945984251968504
 20
4.907972440944881
 30
0.0
 10
1.945984251968504
 20
4.907972440944881
 30
0.0
 10
1.982114173228346
 20
4.724307086614173
 30
0.0
 10
2.015228346456693
 20
4.62796062992126
 30
0.0
 10
2.048350393700787
 20
4.51655905511811
 30
0.0
 10
2.048350393700787
 20
4.51655905511811
 30
0.0
 10
2.081472440944882
 20
4.40515748031496
 30
0.0
 10
2.114586614173228
 20
4.278708661417323
 30
0.0
 10
2.11609842519685
 20
4.143220472440944
 30
0.0
 10
2.11609842519685
 20
4.143220472440944
 30
0.0
 10
2.11759842519685
 20
4.007736220472441
 30
0.0
 10
2.087488188976378
 20
3.863212598425197
 30
0.0
 10
2.064905511811024
 20
3.756330708661417
 30
0.0
 10
2.064905511811024
 20
3.756330708661417
 30
0.0
 10
2.042322834645669
 20
3.649444881889764
 30
0.0
 10
2.027279527559055
 20
3.580196850393701
 30
0.0
 10
2.012224409448819
 20
3.510944881889764
 30
0.0
  0
SPLINE
  5
83
330
1F
100
AcDbEntity
  8
Layer 1
 62
   250
370
    18
100
AcDbSpline
210
0.0
220
0.0
230
1.0
 70
     8
 71
     3
 72
    28
 73
    24
 74
     0
 42
0.000000001
 43
0.0000000001
 40
0.0
 40
0.0
 40
0.0
 40
0.0
 40
0.1428571428571428
 40
0.1428571428571428
 40
0.1428571428571428
 40
0.1428571428571428
 40
0.2857142857142857
 40
0.2857142857142857
 40
0.2857142857142857
 40
0.2857142857142857
 40
0.4285714285714285
 40
0.4285714285714285
 40
0.4285714285714285
 40
0.4285714285714285
 40
0.5714285714285714
 40
0.5714285714285714
 40
0.5714285714285714
 40
0.5714285714285714
 40
0.7142857142857143
 40
0.7142857142857143
 40
0.7142857142857143
 40
0.7142857142857143
 40
1.0
 40
1.0
 40
1.0
 40
1.0
 10
6.862637795275591
 20
6.482641732283464
 30
0.0
 10
6.820484251968504
 20
6.539850393700787
 30
0.0
 10
6.778330708661417
 20
6.597051181102362
 30
0.0
 10
6.710594488188977
 20
6.595547244094488
 30
0.0
 10
6.710594488188977
 20
6.595547244094488
 30
0.0
 10
6.642846456692913
 20
6.594047244094488
 30
0.0
 10
6.549511811023622
 20
6.533826771653543
 30
0.0
 10
6.457681102362205
 20
6.437488188976378
 30
0.0
 10
6.457681102362205
 20
6.437488188976378
 30
0.0
 10
6.365846456692913
 20
6.341141732283464
 30
0.0
 10
6.275527559055118
 20
6.208657480314961
 30
0.0
 10
6.209291338582677
 20
6.053602362204725
 30
0.0
 10
6.209291338582677
 20
6.053602362204725
 30
0.0
 10
6.143043307086614
 20
5.898547244094488
 30
0.0
 10
6.100901574803149
 20
5.720905511811024
 30
0.0
 10
6.091870078740158
 20
5.534240157480315
 30
0.0
 10
6.091870078740158
 20
5.534240157480315
 30
0.0
 10
6.082830708661417
 20
5.347562992125984
 30
0.0
 10
6.106917322834645
 20
5.151862204724409
 30
0.0
 10
6.106917322834645
 20
4.989279527559055
 30
0.0
 10
6.106917322834645
 20
4.989279527559055
 30
0.0
 10
6.106917322834645
 20
4.8266968503937
 30
0.0
 10
6.082830708661417
 20
4.697228346456693
 30
0.0
 10
6.058748031496063
 20
4.567767716535433
 30
0.0
  0
SPLINE
  5
84
330
1F
100
AcDbEntity
  8
Layer 1
 62
   250
370
    18
100
AcDbSpline
210
0.0
220
0.0
230
1.0
 70
     8
 71
     3
 72
    28
 73
    24
 74
     0
 42
0.000000001
 43
0.0000000001
 40
0.0
 40
0.0
 40
0.0
 40
0.0
 40
0.1428571428571428
 40
0.1428571428571428
 40
0.1428571428571428
 40
0.1428571428571428
 40
0.2857142857142857
 40
0.2857142857142857
 40
0.2857142857142857
 40
0.2857142857142857
 40
0.4285714285714285
 40
0.4285714285714285
 40
0.4285714285714285
 40
0.4285714285714285
 40
0.5714285714285714
 40
0.5714285714285714
 40
0.5714285714285714
 40
0.5714285714285714
 40
0.7142857142857143
 40
0.7142857142857143
 40
0.7142857142857143
 40
0.7142857142857143
 40
1.0
 40
1.0
 40
1.0
 40
1.0
 10
2.734811023622047
 20
2.201271653543307
 30
0.0
 10
2.879334645669291
 20
2.312673228346457
 30
0.0
 10
3.023850393700787
 20
2.424074803149606
 30
0.0
 10
3.142779527559055
 20
2.503866141732284
 30
0.0
 10
3.142779527559055
 20
2.503866141732284
 30
0.0
 10
3.261712598425197
 20
2.583645669291339
 30
0.0
 10
3.355043307086614
 20
2.631826771653544
 30
0.0
 10
3.49805905511811
 20
2.666448818897638
 30
0.0
 10
3.49805905511811
 20
2.666448818897638
 30
0.0
 10
3.641070866141732
 20
2.701066929133858
 30
0.0
 10
3.833759842519685
 20
2.722145669291339
 30
0.0
 10
4.043015748031496
 20
2.729673228346457
 30
0.0
 10
4.043015748031496
 20
2.729673228346457
 30
0.0
 10
4.252267716535433
 20
2.737200787401575
 30
0.0
 10
4.478074803149607
 20
2.731177165354331
 30
0.0
 10
4.664751968503937
 20
2.692035433070866
 30
0.0
 10
4.664751968503937
 20
2.692035433070866
 30
0.0
 10
4.851421259842519
 20
2.652897637795276
 30
0.0
 10
4.998948818897638
 20
2.580641732283464
 30
0.0
 10
5.138952755905512
 20
2.494834645669291
 30
0.0
 10
5.138952755905512
 20
2.494834645669291
 30
0.0
 10
5.278952755905512
 20
2.40901968503937
 30
0.0
 10
5.411433070866142
 20
2.309661417322835
 30
0.0
 10
5.543909448818898
 20
2.210303149606299
 30
0.0
  0
SPLINE
  5
85
330
1F
100
AcDbEntity
  8
Layer 1
 62
   250
370
    18
100
AcDbSpline
210
0.0
220
0.0
230
1.0
 70
     8
 71
     3
 72
    24
 73
    20
 74
     0
 42
0.000000001
 43
0.0000000001
 40
0.0
 40
0.0
 40
0.0
 40
0.0
 40
0.1666666666666667
 40
0.1666666666666667
 40
0.1666666666666667
 40
0.1666666666666667
 40
0.3333333333333333
 40
0.3333333333333333
 40
0.3333333333333333
 40
0.3333333333333333
 40
0.5
 40
0.5
 40
0.5
 40
0.5
 40
0.6666666666666666
 40
0.6666666666666666
 40
0.6666666666666666
 40
0.6666666666666666
 40
1.0
 40
1.0
 40
1.0
 40
1.0
 10
2.680618110236221
 20
3.005161417322835
 30
0.0
 10
2.79201968503937
 20
3.125594488188976
 30
0.0
 10
2.90342125984252
 20
3.246031496062992
 30
0.0
 10
3.025362204724409
 20
3.346893700787402
 30
0.0
 10
3.025362204724409
 20
3.346893700787402
 30
0.0
 10
3.147295275590551
 20
3.447755905511811
 30
0.0
 10
3.279779527559055
 20
3.529047244094488
 30
0.0
 10
3.50709842519685
 20
3.584751968503937
 30
0.0
 10
3.50709842519685
 20
3.584751968503937
 30
0.0
 10
3.734405511811024
 20
3.640448818897638
 30
0.0
 10
4.056570866141732
 20
3.670551181102362
 30
0.0
 10
4.323027559055118
 20
3.655496062992126
 30
0.0
 10
4.323027559055118
 20
3.655496062992126
 30
0.0
 10
4.589476377952756
 20
3.64044094488189
 30
0.0
 10
4.800240157480315
 20
3.580228346456693
 30
0.0
 10
4.982393700787402
 20
3.483881889763779
 30
0.0
 10
4.982393700787402
 20
3.483881889763779
 30
0.0
 10
5.164547244094488
 20
3.387535433070866
 30
0.0
 10
5.318090551181102
 20
3.255055118110236
 30
0.0
 10
5.471645669291338
 20
3.12257874015748
 30
0.0
  0
SPLINE
  5
86
330
1F
100
AcDbEntity
  8
Layer 1
 62
   250
370
    18
100
AcDbSpline
210
0.0
220
0.0
230
1.0
 70
     8
 71
     3
 72
    24
 73
    20
 74
     0
 42
0.000000001
 43
0.0000000001
 40
0.0
 40
0.0
 40
0.0
 40
0.0
 40
0.1666666666666667
 40
0.1666666666666667
 40
0.1666666666666667
 40
0.1666666666666667
 40
0.3333333333333333
 40
0.3333333333333333
 40
0.3333333333333333
 40
0.3333333333333333
 40
0.5
 40
0.5
 40
0.5
 40
0.5
 40
0.6666666666666666
 40
0.6666666666666666
 40
0.6666666666666666
 40
0.6666666666666666
 40
1.0
 40
1.0
 40
1.0
 40
1.0
 10
2.861267716535433
 20
1.478677165354331
 30
0.0
 10
3.002771653543307
 20
1.605133858267717
 30
0.0
 10
3.144283464566929
 20
1.73157874015748
 30
0.0
 10
3.300842519685039
 20
1.818897637795276
 30
0.0
 10
3.300842519685039
 20
1.818897637795276
 30
0.0
 10
3.457401574803149
 20
1.906216535433071
 30
0.0
 10
3.629023622047244
 20
1.954385826771654
 30
0.0
 10
3.847311023622047
 20
1.975464566929134
 30
0.0
 10
3.847311023622047
 20
1.975464566929134
 30
0.0
 10
4.065590551181103
 20
1.996535433070866
 30
0.0
 10
4.33053937007874
 20
1.99051968503937
 30
0.0
 10
4.557858267716536
 20
1.96192125984252
 30
0.0
 10
4.557858267716536
 20
1.96192125984252
 30
0.0
 10
4.785177165354331
 20
1.933311023622047
 30
0.0
 10
4.974858267716535
 20
1.882122047244094
 30
0.0
 10
5.122385826771653
 20
1.797826771653543
 30
0.0
 10
5.122385826771653
 20
1.797826771653543
 30
0.0
 10
5.269913385826771
 20
1.71351968503937
 30
0.0
 10
5.375299212598425
 20
1.596094488188976
 30
0.0
 10
5.480677165354331
 20
1.478677165354331
 30
0.0
  0
SPLINE
  5
87
330
1F
100
AcDbEntity
  8
Layer 1
 62
   250
370
    18
100
AcDbSpline
210
0.0
220
0.0
230
1.0
 70
     8
 71
     3
 72
    24
 73
    20
 74
     0
 42
0.000000001
 43
0.0000000001
 40
0.0
 40
0.0
 40
0.0
 40
0.0
 40
0.1666666666666667
 40
0.1666666666666667
 40
0.1666666666666667
 40
0.1666666666666667
 40
0.3333333333333333
 40
0.3333333333333333
 40
0.3333333333333333
 40
0.3333333333333333
 40
0.5
 40
0.5
 40
0.5
 40
0.5
 40
0.6666666666666666
 40
0.6666666666666666
 40
0.6666666666666666
 40
0.6666666666666666
 40
1.0
 40
1.0
 40
1.0
 40
1.0
 10
2.933523622047244
 20
0.8283661417322835
 30
0.0
 10
3.041909448818898
 20
0.9277244094488188
 30
0.0
 10
3.150299212598425
 20
1.027074803149606
 30
0.0
 10
3.270732283464567
 20
1.112893700787402
 30
0.0
 10
3.270732283464567
 20
1.112893700787402
 30
0.0
 10
3.391161417322835
 20
1.198696850393701
 30
0.0
 10
3.523645669291338
 20
1.270952755905512
 30
0.0
 10
3.725370078740157
 20
1.310090551181102
 30
0.0
 10
3.725370078740157
 20
1.310090551181102
 30
0.0
 10
3.927090551181102
 20
1.349232283464567
 30
0.0
 10
4.198066929133859
 20
1.355255905511811
 30
0.0
 10
4.449468503937008
 20
1.322133858267716
 30
0.0
 10
4.449468503937008
 20
1.322133858267716
 30
0.0
 10
4.700870078740158
 20
1.289011811023622
 30
0.0
 10
4.932704724409449
 20
1.216755905511811
 30
0.0
 10
5.081744094488189
 20
1.15051968503937
 30
0.0
 10
5.081744094488189
 20
1.15051968503937
 30
0.0
 10
5.230775590551181
 20
1.084283464566929
 30
0.0
 10
5.297011811023622
 20
1.024062992125984
 30
0.0
 10
5.363248031496063
 20
0.9638543307086614
 30
0.0
  0
SPLINE
  5
88
330
1F
100
AcDbEntity
  8
Layer 1
 62
   250
370
    18
100
AcDbSpline
210
0.0
220
0.0
230
1.0
 70
     8
 71
     3
 72
    16
 73
    12
 74
     0
 42
0.000000001
 43
0.0000000001
 40
0.0
 40
0.0
 40
0.0
 40
0.0
 40
0.25
 40
0.25
 40
0.25
 40
0.25
 40
0.5
 40
0.5
 40
0.5
 40
0.5
 40
1.0
 40
1.0
 40
1.0
 40
1.0
 10
3.141271653543307
 20
0.4128700787401575
 30
0.0
 10
3.261700787401575
 20
0.4911496062992126
 30
0.0
 10
3.382133858267717
 20
0.5694370078740157
 30
0.0
 10
3.562783464566929
 20
0.6416968503937008
 30
0.0
 10
3.562783464566929
 20
0.6416968503937008
 30
0.0
 10
3.743429133858268
 20
0.7139527559055118
 30
0.0
 10
3.984299212598425
 20
0.7801889763779527
 30
0.0
 10
4.282370078740158
 20
0.7621299212598425
 30
0.0
 10
4.282370078740158
 20
0.7621299212598425
 30
0.0
 10
4.580440944881889
 20
0.7440629921259843
 30
0.0
 10
4.935716535433071
 20
0.6416889763779527
 30
0.0
 10
5.290996062992126
 20
0.5393267716535433
 30
0.0
  0
SPLINE
  5
89
330
1F
100
AcDbEntity
  8
Layer 1
 62
   250
370
    18
100
AcDbSpline
210
0.0
220
0.0
230
1.0
 70
     8
 71
     3
 72
    16
 73
    12
 74
     0
 42
0.000000001
 43
0.0000000001
 40
0.0
 40
0.0
 40
0.0
 40
0.0
 40
0.25
 40
0.25
 40
0.25
 40
0.25
 40
0.5
 40
0.5
 40
0.5
 40
0.5
 40
1.0
 40
1.0
 40
1.0
 40
1.0
 10
3.150307086614173
 20
-0.1290787401574803
 30
0.0
 10
3.33096062992126
 20
-0.0628385826771654
 30
0.0
 10
3.511602362204724
 20
0.0033976377952756
 30
0.0
 10
3.74796062992126
 20
0.0651181102362205
 30
0.0
 10
3.74796062992126
 20
0.0651181102362205
 30
0.0
 10
3.984307086614173
 20
0.1268425196850394
 30
0.0
 10
4.276354330708662
 20
0.1840472440944882
 30
0.0
 10
4.533779527559055
 20
0.1509330708661417
 30
0.0
 10
4.533779527559055
 20
0.1509330708661417
 30
0.0
 10
4.791208661417323
 20
0.1178110236220472
 30
0.0
 10
5.014003937007874
 20
-0.0056338582677165
 30
0.0
 10
5.236807086614173
 20
-0.1290787401574803
 30
0.0
  0
SPLINE
  5
8A
330
1F
100
AcDbEntity
  8
Layer 1
 62
   250
370
    18
100
AcDbSpline
210
0.0
220
0.0
230
1.0
 70
     8
 71
     3
 72
    16
 73
    12
 74
     0
 42
0.000000001
 43
0.0000000001
 40
0.0
 40
0.0
 40
0.0
 40
0.0
 40
0.25
 40
0.25
 40
0.25
 40
0.25
 40
0.5
 40
0.5
 40
0.5
 40
0.5
 40
1.0
 40
1.0
 40
1.0
 40
1.0
 10
3.222570866141732
 20
-0.5536023622047244
 30
0.0
 10
3.364074803149606
 20
-0.4873661417322835
 30
0.0
 10
3.505586614173228
 20
-0.4211299212598425
 30
0.0
 10
3.707311023622047
 20
-0.3804803149606299
 30
0.0
 10
3.707311023622047
 20
-0.3804803149606299
 30
0.0
 10
3.909031496062992
 20
-0.3398385826771654
 30
0.0
 10
4.170976377952756
 20
-0.3247834645669291
 30
0.0
 10
4.419374015748032
 20
-0.3533818897637795
 30
0.0
 10
4.419374015748032
 20
-0.3533818897637795
 30
0.0
 10
4.667763779527559
 20
-0.381992125984252
 30
0.0
 10
4.902602362204725
 20
-0.454244094488189
 30
0.0
 10
5.137448818897638
 20
-0.5265078740157481
 30
0.0
  0
SPLINE
  5
8B
330
1F
100
AcDbEntity
  8
Layer 1
 62
   250
370
    18
100
AcDbSpline
210
0.0
220
0.0
230
1.0
 70
     8
 71
     3
 72
    16
 73
    12
 74
     0
 42
0.000000001
 43
0.0000000001
 40
0.0
 40
0.0
 40
0.0
 40
0.0
 40
0.25
 40
0.25
 40
0.25
 40
0.25
 40
0.5
 40
0.5
 40
0.5
 40
0.5
 40
1.0
 40
1.0
 40
1.0
 40
1.0
 10
3.213531496062992
 20
-1.023295275590551
 30
0.0
 10
3.361062992125984
 20
-0.9570590551181103
 30
0.0
 10
3.50859842519685
 20
-0.8908149606299213
 30
0.0
 10
3.779570866141732
 20
-0.8501653543307086
 30
0.0
 10
3.779570866141732
 20
-0.8501653543307086
 30
0.0
 10
4.050543307086614
 20
-0.809523622047244
 30
0.0
 10
4.44496062992126
 20
-0.7944685039370079
 30
0.0
 10
4.691850393700787
 20
-0.809523622047244
 30
0.0
 10
4.691850393700787
 20
-0.809523622047244
 30
0.0
 10
4.938740157480315
 20
-0.8245787401574803
 30
0.0
 10
5.038090551181102
 20
-0.869740157480315
 30
0.0
 10
5.137448818897638
 20
-0.9149055118110236
 30
0.0
  0
SPLINE
  5
8C
330
1F
100
AcDbEntity
  8
Layer 1
 62
   250
370
    18
100
AcDbSpline
210
0.0
220
0.0
230
1.0
 70
     8
 71
     3
 72
    20
 73
    16
 74
     0
 42
0.000000001
 43
0.0000000001
 40
0.0
 40
0.0
 40
0.0
 40
0.0
 40
0.2
 40
0.2
 40
0.2
 40
0.2
 40
0.4
 40
0.4
 40
0.4
 40
0.4
 40
0.6
 40
0.6
 40
0.6
 40
0.6
 40
1.0
 40
1.0
 40
1.0
 40
1.0
 10
3.330952755905512
 20
-1.393610236220473
 30
0.0
 10
3.406228346456693
 20
-1.35146062992126
 30
0.0
 10
3.481492125984252
 20
-1.309307086614173
 30
0.0
 10
3.62751968503937
 20
-1.270165354330709
 30
0.0
 10
3.62751968503937
 20
-1.270165354330709
 30
0.0
 10
3.773547244094488
 20
-1.231027559055118
 30
0.0
 10
3.990326771653543
 20
-1.194893700787402
 30
0.0
 10
4.225169291338583
 20
-1.187366141732283
 30
0.0
 10
4.225169291338583
 20
-1.187366141732283
 30
0.0
 10
4.460007874015748
 20
-1.179846456692913
 30
0.0
 10
4.71292125984252
 20
-1.200917322834646
 30
0.0
 10
4.858948818897638
 20
-1.24005905511811
 30
0.0
 10
4.858948818897638
 20
-1.24005905511811
 30
0.0
 10
5.004968503937008
 20
-1.279204724409449
 30
0.0
 10
5.044114173228347
 20
-1.336405511811024
 30
0.0
 10
5.083255905511811
 20
-1.393610236220473
 30
0.0
  0
SPLINE
  5
8D
330
1F
100
AcDbEntity
  8
Layer 1
 62
   250
370
    18
100
AcDbSpline
210
0.0
220
0.0
230
1.0
 70
     8
 71
     3
 72
    16
 73
    12
 74
     0
 42
0.000000001
 43
0.0000000001
 40
0.0
 40
0.0
 40
0.0
 40
0.0
 40
0.25
 40
0.25
 40
0.25
 40
0.25
 40
0.5
 40
0.5
 40
0.5
 40
0.5
 40
1.0
 40
1.0
 40
1.0
 40
1.0
 10
3.267728346456693
 20
-1.899429133858268
 30
0.0
 10
3.355043307086614
 20
-1.830181102362205
 30
0.0
 10
3.442354330708661
 20
-1.760929133858268
 30
0.0
 10
3.641070866141732
 20
-1.709740157480315
 30
0.0
 10
3.641070866141732
 20
-1.709740157480315
 30
0.0
 10
3.839783464566929
 20
-1.65855905511811
 30
0.0
 10
4.149897637795275
 20
-1.625444881889764
 30
0.0
 10
4.408826771653543
 20
-1.637488188976378
 30
0.0
 10
4.408826771653543
 20
-1.637488188976378
 30
0.0
 10
4.667755905511811
 20
-1.649527559055118
 30
0.0
 10
4.875503937007874
 20
-1.706736220472441
 30
0.0
 10
5.083255905511811
 20
-1.763944881889764
 30
0.0
  0
SPLINE
  5
8E
330
1F
100
AcDbEntity
  8
Layer 1
 62
   250
370
    18
100
AcDbSpline
210
0.0
220
0.0
230
1.0
 70
     8
 71
     3
 72
    16
 73
    12
 74
     0
 42
0.000000001
 43
0.0000000001
 40
0.0
 40
0.0
 40
0.0
 40
0.0
 40
0.25
 40
0.25
 40
0.25
 40
0.25
 40
0.5
 40
0.5
 40
0.5
 40
0.5
 40
1.0
 40
1.0
 40
1.0
 40
1.0
 10
3.466437007874016
 20
-2.57686220472441
 30
0.0
 10
3.683216535433071
 20
-2.573850393700787
 30
0.0
 10
3.900003937007874
 20
-2.570846456692913
 30
0.0
 10
4.125818897637795
 20
-2.567830708661417
 30
0.0
 10
4.125818897637795
 20
-2.567830708661417
 30
0.0
 10
4.351625984251968
 20
-2.564818897637795
 30
0.0
 10
4.586464566929134
 20
-2.561807086614173
 30
0.0
 10
4.734003937007874
 20
-2.551267716535433
 30
0.0
 10
4.734003937007874
 20
-2.551267716535433
 30
0.0
 10
4.881531496062992
 20
-2.540728346456693
 30
0.0
 10
4.941744094488189
 20
-2.522669291338583
 30
0.0
 10
5.00196062992126
 20
-2.50459842519685
 30
0.0
  0
SPLINE
  5
8F
330
1F
100
AcDbEntity
  8
Layer 1
 62
   250
370
    18
100
AcDbSpline
210
0.0
220
0.0
230
1.0
 70
     8
 71
     3
 72
    12
 73
     8
 74
     0
 42
0.000000001
 43
0.0000000001
 40
0.0
 40
0.0
 40
0.0
 40
0.0
 40
0.3333333333333333
 40
0.3333333333333333
 40
0.3333333333333333
 40
0.3333333333333333
 40
1.0
 40
1.0
 40
1.0
 40
1.0
 10
3.728389763779528
 20
-3.019448818897638
 30
0.0
 10
4.086681102362204
 20
-3.001381889763779
 30
0.0
 10
4.44496062992126
 20
-2.983322834645669
 30
0.0
 10
4.655724409448819
 20
-2.978799212598425
 30
0.0
 10
4.655724409448819
 20
-2.978799212598425
 30
0.0
 10
4.866476377952756
 20
-2.974283464566929
 30
0.0
 10
4.929708661417322
 20
-2.983322834645669
 30
0.0
 10
4.992933070866142
 20
-2.992350393700788
 30
0.0
  0
SPLINE
  5
90
330
1F
100
AcDbEntity
  8
Layer 1
 62
   250
370
    18
100
AcDbSpline
210
0.0
220
0.0
230
1.0
 70
     8
 71
     3
 72
    16
 73
    12
 74
     0
 42
0.000000001
 43
0.0000000001
 40
0.0
 40
0.0
 40
0.0
 40
0.0
 40
0.25
 40
0.25
 40
0.25
 40
0.25
 40
0.5
 40
0.5
 40
0.5
 40
0.5
 40
1.0
 40
1.0
 40
1.0
 40
1.0
 10
3.538708661417323
 20
-3.687850393700788
 30
0.0
 10
3.668177165354331
 20
-3.687850393700788
 30
0.0
 10
3.797637795275591
 20
-3.687850393700788
 30
0.0
 10
3.952704724409449
 20
-3.693866141732284
 30
0.0
 10
3.952704724409449
 20
-3.693866141732284
 30
0.0
 10
4.107759842519685
 20
-3.699893700787402
 30
0.0
 10
4.288401574803149
 20
-3.711944881889764
 30
0.0
 10
4.43594094488189
 20
-3.714948818897638
 30
0.0
 10
4.43594094488189
 20
-3.714948818897638
 30
0.0
 10
4.583468503937008
 20
-3.71796062992126
 30
0.0
 10
4.697874015748032
 20
-3.711944881889764
 30
0.0
 10
4.812291338582678
 20
-3.705917322834646
 30
0.0
  0
SPLINE
  5
91
330
1F
100
AcDbEntity
  8
Layer 1
 62
   250
370
    18
100
AcDbSpline
210
0.0
220
0.0
230
1.0
 70
     8
 71
     3
 72
    12
 73
     8
 74
     0
 42
0.000000001
 43
0.0000000001
 40
0.0
 40
0.0
 40
0.0
 40
0.0
 40
0.3333333333333333
 40
0.3333333333333333
 40
0.3333333333333333
 40
0.3333333333333333
 40
1.0
 40
1.0
 40
1.0
 40
1.0
 10
3.403224409448819
 20
-3.308488188976378
 30
0.0
 10
3.589889763779528
 20
-3.302472440944882
 30
0.0
 10
3.776566929133858
 20
-3.296444881889764
 30
0.0
 10
4.033996062992126
 20
-3.29946062992126
 30
0.0
 10
4.033996062992126
 20
-3.29946062992126
 30
0.0
 10
4.291417322834645
 20
-3.302472440944882
 30
0.0
 10
4.619594488188977
 20
-3.314515748031496
 30
0.0
 10
4.947775590551181
 20
-3.326555118110236
 30
0.0
  0
SPLINE
  5
92
330
1F
100
AcDbEntity
  8
Layer 1
 62
   250
370
    18
100
AcDbSpline
210
0.0
220
0.0
230
1.0
 70
     8
 71
     3
 72
    12
 73
     8
 74
     0
 42
0.000000001
 43
0.0000000001
 40
0.0
 40
0.0
 40
0.0
 40
0.0
 40
0.3333333333333333
 40
0.3333333333333333
 40
0.3333333333333333
 40
0.3333333333333333
 40
1.0
 40
1.0
 40
1.0
 40
1.0
 10
3.475484251968504
 20
-4.022055118110236
 30
0.0
 10
3.719362204724409
 20
-4.016031496062992
 30
0.0
 10
3.963236220472441
 20
-4.010015748031496
 30
0.0
 10
4.180015748031496
 20
-4.003988188976378
 30
0.0
 10
4.180015748031496
 20
-4.003988188976378
 30
0.0
 10
4.396791338582677
 20
-3.997964566929134
 30
0.0
 10
4.586472440944882
 20
-3.991944881889764
 30
0.0
 10
4.776153543307086
 20
-3.98592125984252
 30
0.0
  0
SPLINE
  5
93
330
1F
100
AcDbEntity
  8
Layer 1
 62
   250
370
    18
100
AcDbSpline
210
0.0
220
0.0
230
1.0
 70
     8
 71
     3
 72
    12
 73
     8
 74
     0
 42
0.000000001
 43
0.0000000001
 40
0.0
 40
0.0
 40
0.0
 40
0.0
 40
0.3333333333333333
 40
0.3333333333333333
 40
0.3333333333333333
 40
0.3333333333333333
 40
1.0
 40
1.0
 40
1.0
 40
1.0
 10
3.592905511811024
 20
-4.437543307086615
 30
0.0
 10
3.824736220472441
 20
-4.425503937007874
 30
0.0
 10
4.056570866141732
 20
-4.41346062992126
 30
0.0
 10
4.2598031496063
 20
-4.401417322834646
 30
0.0
 10
4.2598031496063
 20
-4.401417322834646
 30
0.0
 10
4.463027559055118
 20
-4.389377952755906
 30
0.0
 10
4.637665354330709
 20
-4.377326771653543
 30
0.0
 10
4.812291338582678
 20
-4.365283464566929
 30
0.0
  0
SPLINE
  5
94
330
1F
100
AcDbEntity
  8
Layer 1
 62
   250
370
    18
100
AcDbSpline
210
0.0
220
0.0
230
1.0
 70
     8
 71
     3
 72
    16
 73
    12
 74
     0
 42
0.000000001
 43
0.0000000001
 40
0.0
 40
0.0
 40
0.0
 40
0.0
 40
0.25
 40
0.25
 40
0.25
 40
0.25
 40
0.5
 40
0.5
 40
0.5
 40
0.5
 40
1.0
 40
1.0
 40
1.0
 40
1.0
 10
3.547740157480315
 20
-2.129751968503937
 30
0.0
 10
3.802153543307087
 20
-2.110181102362205
 30
0.0
 10
4.056570866141732
 20
-2.090614173228346
 30
0.0
 10
4.250015748031496
 20
-2.080822834645669
 30
0.0
 10
4.250015748031496
 20
-2.080822834645669
 30
0.0
 10
4.44346062992126
 20
-2.071043307086614
 30
0.0
 10
4.57594094488189
 20
-2.071043307086614
 30
0.0
 10
4.681318897637795
 20
-2.074807086614173
 30
0.0
 10
4.681318897637795
 20
-2.074807086614173
 30
0.0
 10
4.786692913385827
 20
-2.078570866141732
 30
0.0
 10
4.864984251968504
 20
-2.08609842519685
 30
0.0
 10
4.943259842519685
 20
-2.093625984251969
 30
0.0
  0
SPLINE
  5
95
330
1F
100
AcDbEntity
  8
Layer 1
 62
   250
370
    18
100
AcDbSpline
210
0.0
220
0.0
230
1.0
 70
     8
 71
     3
 72
    16
 73
    12
 74
     0
 42
0.000000001
 43
0.0000000001
 40
0.0
 40
0.0
 40
0.0
 40
0.0
 40
0.25
 40
0.25
 40
0.25
 40
0.25
 40
0.5
 40
0.5
 40
0.5
 40
0.5
 40
1.0
 40
1.0
 40
1.0
 40
1.0
 10
-1.691023622047244
 20
-1.497468503937008
 30
0.0
 10
-1.548011811023622
 20
-1.486929133858268
 30
0.0
 10
-1.404996062992126
 20
-1.476397637795276
 30
0.0
 10
-1.301122047244095
 20
-1.446287401574803
 30
0.0
 10
-1.301122047244095
 20
-1.446287401574803
 30
0.0
 10
-1.197248031496063
 20
-1.416177165354331
 30
0.0
 10
-1.132511811023622
 20
-1.366503937007874
 30
0.0
 10
-1.03240157480315
 20
-1.224244094488189
 30
0.0
 10
-1.03240157480315
 20
-1.224244094488189
 30
0.0
 10
-0.9322913385826772
 20
-1.08198031496063
 30
0.0
 10
-0.7968070866141732
 20
-0.8471338582677166
 30
0.0
 10
-0.6613188976377953
 20
-0.6122874015748031
 30
0.0
  0
SPLINE
  5
96
330
1F
100
AcDbEntity
  8
Layer 1
 62
   250
370
    18
100
AcDbSpline
210
0.0
220
0.0
230
1.0
 70
     8
 71
     3
 72
    12
 73
     8
 74
     0
 42
0.000000001
 43
0.0000000001
 40
0.0
 40
0.0
 40
0.0
 40
0.0
 40
0.3333333333333333
 40
0.3333333333333333
 40
0.3333333333333333
 40
0.3333333333333333
 40
1.0
 40
1.0
 40
1.0
 40
1.0
 10
-1.799405511811024
 20
-0.4813149606299212
 30
0.0
 10
-1.689511811023622
 20
-0.6363740157480315
 30
0.0
 10
-1.579614173228346
 20
-0.7914291338582677
 30
0.0
 10
-1.49455905511811
 20
-0.9065944881889764
 30
0.0
 10
-1.49455905511811
 20
-0.9065944881889764
 30
0.0
 10
-1.409503937007874
 20
-1.021759842519685
 30
0.0
 10
-1.349291338582677
 20
-1.097027559055118
 30
0.0
 10
-1.289070866141732
 20
-1.172299212598425
 30
0.0
  0
SPLINE
  5
97
330
1F
100
AcDbEntity
  8
Layer 1
 62
   250
370
    18
100
AcDbSpline
210
0.0
220
0.0
230
1.0
 70
     8
 71
     3
 72
    12
 73
     8
 74
     0
 42
0.000000001
 43
0.0000000001
 40
0.0
 40
0.0
 40
0.0
 40
0.0
 40
0.3333333333333333
 40
0.3333333333333333
 40
0.3333333333333333
 40
0.3333333333333333
 40
1.0
 40
1.0
 40
1.0
 40
1.0
 10
-0.8825944881889763
 20
-4.541385826771654
 30
0.0
 10
-0.852484251968504
 20
-4.673858267716535
 30
0.0
 10
-0.8223818897637796
 20
-4.80634251968504
 30
0.0
 10
-0.7982913385826772
 20
-4.91021653543307
 30
0.0
 10
-0.7982913385826772
 20
-4.91021653543307
 30
0.0
 10
-0.7742047244094488
 20
-5.014090551181102
 30
0.0
 10
-0.7561456692913385
 20
-5.089358267716535
 30
0.0
 10
-0.7380787401574803
 20
-5.164629921259842
 30
0.0
  0
SPLINE
  5
98
330
1F
100
AcDbEntity
  8
Layer 1
 62
   250
370
    18
100
AcDbSpline
210
0.0
220
0.0
230
1.0
 70
     8
 71
     3
 72
    16
 73
    12
 74
     0
 42
0.000000001
 43
0.0000000001
 40
0.0
 40
0.0
 40
0.0
 40
0.0
 40
0.25
 40
0.25
 40
0.25
 40
0.25
 40
0.5
 40
0.5
 40
0.5
 40
0.5
 40
1.0
 40
1.0
 40
1.0
 40
1.0
 10
-1.261956692913386
 20
-2.793614173228347
 30
0.0
 10
-1.159594488188976
 20
-2.743937007874016
 30
0.0
 10
-1.057220472440945
 20
-2.694255905511811
 30
0.0
 10
-0.9300118110236221
 20
-2.612212598425197
 30
0.0
 10
-0.9300118110236221
 20
-2.612212598425197
 30
0.0
 10
-0.8028149606299213
 20
-2.530169291338582
 30
0.0
 10
-0.650759842519685
 20
-2.415755905511811
 30
0.0
 10
-0.5619409448818897
 20
-2.324673228346457
 30
0.0
 10
-0.5619409448818897
 20
-2.324673228346457
 30
0.0
 10
-0.4731220472440945
 20
-2.233602362204724
 30
0.0
 10
-0.4475354330708661
 20
-2.16586220472441
 30
0.0
 10
-0.4219409448818898
 20
-2.098114173228347
 30
0.0
  0
SPLINE
  5
99
330
1F
100
AcDbEntity
  8
Layer 1
 62
   250
370
    18
100
AcDbSpline
210
0.0
220
0.0
230
1.0
 70
     8
 71
     3
 72
   112
 73
   108
 74
     0
 42
0.000000001
 43
0.0000000001
 40
0.0
 40
0.0
 40
0.0
 40
0.0
 40
0.0357142857142857
 40
0.0357142857142857
 40
0.0357142857142857
 40
0.0357142857142857
 40
0.0714285714285714
 40
0.0714285714285714
 40
0.0714285714285714
 40
0.0714285714285714
 40
0.1071428571428571
 40
0.1071428571428571
 40
0.1071428571428571
 40
0.1071428571428571
 40
0.1428571428571428
 40
0.1428571428571428
 40
0.1428571428571428
 40
0.1428571428571428
 40
0.1785714285714286
 40
0.1785714285714286
 40
0.1785714285714286
 40
0.1785714285714286
 40
0.2142857142857143
 40
0.2142857142857143
 40
0.2142857142857143
 40
0.2142857142857143
 40
0.25
 40
0.25
 40
0.25
 40
0.25
 40
0.2857142857142857
 40
0.2857142857142857
 40
0.2857142857142857
 40
0.2857142857142857
 40
0.3214285714285715
 40
0.3214285714285715
 40
0.3214285714285715
 40
0.3214285714285715
 40
0.3571428571428572
 40
0.3571428571428572
 40
0.3571428571428572
 40
0.3571428571428572
 40
0.3928571428571428
 40
0.3928571428571428
 40
0.3928571428571428
 40
0.3928571428571428
 40
0.4285714285714285
 40
0.4285714285714285
 40
0.4285714285714285
 40
0.4285714285714285
 40
0.4642857142857143
 40
0.4642857142857143
 40
0.4642857142857143
 40
0.4642857142857143
 40
0.5
 40
0.5
 40
0.5
 40
0.5
 40
0.5357142857142857
 40
0.5357142857142857
 40
0.5357142857142857
 40
0.5357142857142857
 40
0.5714285714285714
 40
0.5714285714285714
 40
0.5714285714285714
 40
0.5714285714285714
 40
0.6071428571428571
 40
0.6071428571428571
 40
0.6071428571428571
 40
0.6071428571428571
 40
0.6428571428571429
 40
0.6428571428571429
 40
0.6428571428571429
 40
0.6428571428571429
 40
0.6785714285714286
 40
0.6785714285714286
 40
0.6785714285714286
 40
0.6785714285714286
 40
0.7142857142857143
 40
0.7142857142857143
 40
0.7142857142857143
 40
0.7142857142857143
 40
0.75
 40
0.75
 40
0.75
 40
0.75
 40
0.7857142857142857
 40
0.7857142857142857
 40
0.7857142857142857
 40
0.7857142857142857
 40
0.8214285714285714
 40
0.8214285714285714
 40
0.8214285714285714
 40
0.8214285714285714
 40
0.8571428571428571
 40
0.8571428571428571
 40
0.8571428571428571
 40
0.8571428571428571
 40
0.8928571428571429
 40
0.8928571428571429
 40
0.8928571428571429
 40
0.8928571428571429
 40
0.9285714285714286
 40
0.9285714285714286
 40
0.9285714285714286
 40
0.9285714285714286
 40
1.0
 40
1.0
 40
1.0
 40
1.0
 10
-6.071748031496063
 20
2.765901574803149
 30
0.0
 10
-6.201216535433071
 20
2.817086614173228
 30
0.0
 10
-6.330677165354331
 20
2.868267716535433
 30
0.0
 10
-6.478204724409449
 20
2.925472440944882
 30
0.0
 10
-6.478204724409449
 20
2.925472440944882
 30
0.0
 10
-6.625744094488189
 20
2.982673228346457
 30
0.0
 10
-6.791330708661417
 20
3.045905511811024
 30
0.0
 10
-6.955417322834646
 20
3.079027559055118
 30
0.0
 10
-6.955417322834646
 20
3.079027559055118
 30
0.0
 10
-7.119511811023622
 20
3.112141732283464
 30
0.0
 10
-7.282094488188976
 20
3.115153543307087
 30
0.0
 10
-7.417582677165354
 20
3.106125984251968
 30
0.0
 10
-7.417582677165354
 20
3.106125984251968
 30
0.0
 10
-7.553066929133858
 20
3.097086614173228
 30
0.0
 10
-7.661456692913386
 20
3.076015748031496
 30
0.0
 10
-7.781889763779527
 20
3.062472440944882
 30
0.0
 10
-7.781889763779527
 20
3.062472440944882
 30
0.0
 10
-7.902318897637795
 20
3.048917322834646
 30
0.0
 10
-8.034803149606299
 20
3.042893700787402
 30
0.0
 10
-8.173291338582677
 20
2.993220472440945
 30
0.0
 10
-8.173291338582677
 20
2.993220472440945
 30
0.0
 10
-8.311791338582678
 20
2.943543307086614
 30
0.0
 10
-8.456314960629921
 20
2.850200787401575
 30
0.0
 10
-8.633944881889764
 20
2.711708661417323
 30
0.0
 10
-8.633944881889764
 20
2.711708661417323
 30
0.0
 10
-8.811586614173228
 20
2.573208661417323
 30
0.0
 10
-9.022346456692913
 20
2.389543307086614
 30
0.0
 10
-9.196972440944881
 20
2.232988188976378
 30
0.0
 10
-9.196972440944881
 20
2.232988188976378
 30
0.0
 10
-9.37159842519685
 20
2.07642125984252
 30
0.0
 10
-9.510090551181102
 20
1.946948818897638
 30
0.0
 10
-9.737405511811023
 20
1.724145669291339
 30
0.0
 10
-9.737405511811023
 20
1.724145669291339
 30
0.0
 10
-9.964724409448818
 20
1.501342519685039
 30
0.0
 10
-10.28085433070866
 20
1.185212598425197
 30
0.0
 10
-10.4855905511811
 20
0.9578937007874015
 30
0.0
 10
-10.4855905511811
 20
0.9578937007874015
 30
0.0
 10
-10.69032677165354
 20
0.7305787401574804
 30
0.0
 10
-10.78366141732283
 20
0.5920866141732284
 30
0.0
 10
-10.82129133858268
 20
0.5062795275590551
 30
0.0
 10
-10.82129133858268
 20
0.5062795275590551
 30
0.0
 10
-10.85892913385827
 20
0.4204645669291339
 30
0.0
 10
-10.84087007874016
 20
0.3873503937007874
 30
0.0
 10
-10.78817716535433
 20
0.2578897637795275
 30
0.0
 10
-10.78817716535433
 20
0.2578897637795275
 30
0.0
 10
-10.73549212598425
 20
0.1284212598425197
 30
0.0
 10
-10.64817322834646
 20
-0.0973976377952756
 30
0.0
 10
-10.61505118110236
 20
-0.3051377952755905
 30
0.0
 10
-10.61505118110236
 20
-0.3051377952755905
 30
0.0
 10
-10.58193700787402
 20
-0.5128858267716535
 30
0.0
 10
-10.60301968503937
 20
-0.7025669291338583
 30
0.0
 10
-10.61355118110236
 20
-0.8561102362204724
 30
0.0
 10
-10.61355118110236
 20
-0.8561102362204724
 30
0.0
 10
-10.6240905511811
 20
-1.009665354330709
 30
0.0
 10
-10.6240905511811
 20
-1.127094488188976
 30
0.0
 10
-10.60602362204724
 20
-1.22344094488189
 30
0.0
 10
-10.60602362204724
 20
-1.22344094488189
 30
0.0
 10
-10.58796456692913
 20
-1.319787401574803
 30
0.0
 10
-10.55182677165354
 20
-1.395055118110236
 30
0.0
 10
-10.49311811023622
 20
-1.396555118110236
 30
0.0
 10
-10.49311811023622
 20
-1.396555118110236
 30
0.0
 10
-10.4344094488189
 20
-1.398066929133858
 30
0.0
 10
-10.35311811023622
 20
-1.325811023622047
 30
0.0
 10
-10.27483858267717
 20
-1.366452755905512
 30
0.0
 10
-10.27483858267717
 20
-1.366452755905512
 30
0.0
 10
-10.19655905511811
 20
-1.407106299212598
 30
0.0
 10
-10.12128346456693
 20
-1.560649606299213
 30
0.0
 10
-10.01891338582677
 20
-1.67957874015748
 30
0.0
 10
-10.01891338582677
 20
-1.67957874015748
 30
0.0
 10
-9.916547244094488
 20
-1.798507874015748
 30
0.0
 10
-9.787086614173228
 20
-1.882803149606299
 30
0.0
 10
-9.699767716535433
 20
-1.908389763779528
 30
0.0
 10
-9.699767716535433
 20
-1.908389763779528
 30
0.0
 10
-9.612452755905512
 20
-1.933988188976378
 30
0.0
 10
-9.567295275590551
 20
-1.900874015748031
 30
0.0
 10
-9.51761811023622
 20
-1.9385
 30
0.0
 10
-9.51761811023622
 20
-1.9385
 30
0.0
 10
-9.467937007874015
 20
-1.976137795275591
 30
0.0
 10
-9.413740157480316
 20
-2.084527559055118
 30
0.0
 10
-9.347503937007874
 20
-2.140224409448819
 30
0.0
 10
-9.347503937007874
 20
-2.140224409448819
 30
0.0
 10
-9.281267716535433
 20
-2.195929133858268
 30
0.0
 10
-9.20298031496063
 20
-2.19894094488189
 30
0.0
 10
-9.040397637795275
 20
-2.275720472440945
 30
0.0
 10
-9.040397637795275
 20
-2.275720472440945
 30
0.0
 10
-8.877814960629921
 20
-2.352496062992126
 30
0.0
 10
-8.630933070866142
 20
-2.50303937007874
 30
0.0
 10
-8.477377952755905
 20
-2.578303149606299
 30
0.0
 10
-8.477377952755905
 20
-2.578303149606299
 30
0.0
 10
-8.323826771653543
 20
-2.65357874015748
 30
0.0
 10
-8.263614173228346
 20
-2.65357874015748
 30
0.0
 10
-8.218448818897638
 20
-2.703259842519685
 30
0.0
 10
-8.218448818897638
 20
-2.703259842519685
 30
0.0
 10
-8.173283464566929
 20
-2.75294094488189
 30
0.0
 10
-8.143181102362204
 20
-2.852291338582677
 30
0.0
 10
-7.982102362204724
 20
-2.990787401574803
 30
0.0
 10
-7.982102362204724
 20
-2.990787401574803
 30
0.0
 10
-7.82101968503937
 20
-3.129287401574803
 30
0.0
 10
-7.528972440944882
 20
-3.306917322834646
 30
0.0
 10
-7.224877952755905
 20
-3.397240157480315
 30
0.0
 10
-7.224877952755905
 20
-3.397240157480315
 30
0.0
 10
-6.920783464566929
 20
-3.487570866141732
 30
0.0
 10
-6.604653543307086
 20
-3.490582677165354
 30
0.0
 10
-6.410448818897637
 20
-3.463484251968504
 30
0.0
 10
-6.410448818897637
 20
-3.463484251968504
 30
0.0
 10
-6.216251968503937
 20
-3.436389763779528
 30
0.0
 10
-6.144
 20
-3.379181102362205
 30
0.0
 10
-6.071736220472441
 20
-3.321972440944882
 30
0.0
  0
SPLINE
  5
9A
330
1F
100
AcDbEntity
  8
Layer 1
 62
   250
370
    18
100
AcDbSpline
210
0.0
220
0.0
230
1.0
 70
     8
 71
     3
 72
    28
 73
    24
 74
     0
 42
0.000000001
 43
0.0000000001
 40
0.0
 40
0.0
 40
0.0
 40
0.0
 40
0.1428571428571428
 40
0.1428571428571428
 40
0.1428571428571428
 40
0.1428571428571428
 40
0.2857142857142857
 40
0.2857142857142857
 40
0.2857142857142857
 40
0.2857142857142857
 40
0.4285714285714285
 40
0.4285714285714285
 40
0.4285714285714285
 40
0.4285714285714285
 40
0.5714285714285714
 40
0.5714285714285714
 40
0.5714285714285714
 40
0.5714285714285714
 40
0.7142857142857143
 40
0.7142857142857143
 40
0.7142857142857143
 40
0.7142857142857143
 40
1.0
 40
1.0
 40
1.0
 40
1.0
 10
-7.760799212598426
 20
1.898799212598425
 30
0.0
 10
-7.589185039370078
 20
1.672992125984252
 30
0.0
 10
-7.417562992125984
 20
1.447173228346457
 30
0.0
 10
-7.31067716535433
 20
1.191255905511811
 30
0.0
 10
-7.31067716535433
 20
1.191255905511811
 30
0.0
 10
-7.203799212598425
 20
0.9353385826771654
 30
0.0
 10
-7.161645669291339
 20
0.6493110236220473
 30
0.0
 10
-7.152606299212598
 20
0.4129645669291339
 30
0.0
 10
-7.152606299212598
 20
0.4129645669291339
 30
0.0
 10
-7.14357874015748
 20
0.1766141732283465
 30
0.0
 10
-7.167673228346457
 20
-0.0100629921259843
 30
0.0
 10
-7.149602362204725
 20
-0.202755905511811
 30
0.0
 10
-7.149602362204725
 20
-0.202755905511811
 30
0.0
 10
-7.131535433070866
 20
-0.3954488188976378
 30
0.0
 10
-7.071322834645669
 20
-0.5941614173228347
 30
0.0
 10
-6.962925196850394
 20
-0.829007874015748
 30
0.0
 10
-6.962925196850394
 20
-0.829007874015748
 30
0.0
 10
-6.85453937007874
 20
-1.063850393700787
 30
0.0
 10
-6.69798031496063
 20
-1.334826771653543
 30
0.0
 10
-6.57753937007874
 20
-1.563645669291339
 30
0.0
 10
-6.57753937007874
 20
-1.563645669291339
 30
0.0
 10
-6.45709842519685
 20
-1.792464566929134
 30
0.0
 10
-6.372795275590551
 20
-1.979133858267716
 30
0.0
 10
-6.28848031496063
 20
-2.165803149606299
 30
0.0
  0
SPLINE
  5
9B
330
1F
100
AcDbEntity
  8
Layer 1
 62
   250
370
    18
100
AcDbSpline
210
0.0
220
0.0
230
1.0
 70
     8
 71
     3
 72
    36
 73
    32
 74
     0
 42
0.000000001
 43
0.0000000001
 40
0.0
 40
0.0
 40
0.0
 40
0.0
 40
0.1111111111111111
 40
0.1111111111111111
 40
0.1111111111111111
 40
0.1111111111111111
 40
0.2222222222222222
 40
0.2222222222222222
 40
0.2222222222222222
 40
0.2222222222222222
 40
0.3333333333333333
 40
0.3333333333333333
 40
0.3333333333333333
 40
0.3333333333333333
 40
0.4444444444444444
 40
0.4444444444444444
 40
0.4444444444444444
 40
0.4444444444444444
 40
0.5555555555555556
 40
0.5555555555555556
 40
0.5555555555555556
 40
0.5555555555555556
 40
0.6666666666666666
 40
0.6666666666666666
 40
0.6666666666666666
 40
0.6666666666666666
 40
0.7777777777777778
 40
0.7777777777777778
 40
0.7777777777777778
 40
0.7777777777777778
 40
1.0
 40
1.0
 40
1.0
 40
1.0
 10
-5.927177165354331
 20
-2.594834645669291
 30
0.0
 10
-5.826318897637795
 20
-2.626448818897638
 30
0.0
 10
-5.725456692913386
 20
-2.658066929133858
 30
0.0
 10
-5.590720472440945
 20
-2.67236220472441
 30
0.0
 10
-5.590720472440945
 20
-2.67236220472441
 30
0.0
 10
-5.455984251968504
 20
-2.686669291338583
 30
0.0
 10
-5.287385826771653
 20
-2.683665354330709
 30
0.0
 10
-5.143610236220472
 20
-2.707748031496063
 30
0.0
 10
-5.143610236220472
 20
-2.707748031496063
 30
0.0
 10
-4.999846456692913
 20
-2.731834645669291
 30
0.0
 10
-4.880917322834645
 20
-2.783015748031496
 30
0.0
 10
-4.795862204724409
 20
-2.836456692913386
 30
0.0
 10
-4.795862204724409
 20
-2.836456692913386
 30
0.0
 10
-4.710807086614174
 20
-2.88990157480315
 30
0.0
 10
-4.659622047244095
 20
-2.945598425196851
 30
0.0
 10
-4.576070866141732
 20
-2.972696850393701
 30
0.0
 10
-4.576070866141732
 20
-2.972696850393701
 30
0.0
 10
-4.492523622047244
 20
-2.999791338582677
 30
0.0
 10
-4.376610236220473
 20
-2.998291338582677
 30
0.0
 10
-4.299070866141732
 20
-2.959149606299213
 30
0.0
 10
-4.299070866141732
 20
-2.959149606299213
 30
0.0
 10
-4.221543307086614
 20
-2.920011811023622
 30
0.0
 10
-4.182405511811024
 20
-2.843236220472441
 30
0.0
 10
-4.137240157480315
 20
-2.794307086614173
 30
0.0
 10
-4.137240157480315
 20
-2.794307086614173
 30
0.0
 10
-4.092074803149607
 20
-2.745385826771654
 30
0.0
 10
-4.040893700787402
 20
-2.724314960629921
 30
0.0
 10
-3.962614173228347
 20
-2.723555118110236
 30
0.0
 10
-3.962614173228347
 20
-2.723555118110236
 30
0.0
 10
-3.884334645669291
 20
-2.722803149606299
 30
0.0
 10
-3.778948818897638
 20
-2.742374015748032
 30
0.0
 10
-3.673570866141732
 20
-2.761944881889764
 30
0.0
  0
SPLINE
  5
9C
330
1F
100
AcDbEntity
  8
Layer 1
 62
   250
370
    18
100
AcDbSpline
210
0.0
220
0.0
230
1.0
 70
     8
 71
     3
 72
    16
 73
    12
 74
     0
 42
0.000000001
 43
0.0000000001
 40
0.0
 40
0.0
 40
0.0
 40
0.0
 40
0.25
 40
0.25
 40
0.25
 40
0.25
 40
0.5
 40
0.5
 40
0.5
 40
0.5
 40
1.0
 40
1.0
 40
1.0
 40
1.0
 10
-5.660685039370079
 20
-2.897429133858268
 30
0.0
 10
-5.570366141732284
 20
-2.921515748031496
 30
0.0
 10
-5.480035433070866
 20
-2.945598425196851
 30
0.0
 10
-5.370133858267716
 20
-3.020866141732284
 30
0.0
 10
-5.370133858267716
 20
-3.020866141732284
 30
0.0
 10
-5.260244094488189
 20
-3.096141732283465
 30
0.0
 10
-5.130783464566929
 20
-3.22259842519685
 30
0.0
 10
-5.026909448818897
 20
-3.300877952755906
 30
0.0
 10
-5.026909448818897
 20
-3.300877952755906
 30
0.0
 10
-4.923035433070866
 20
-3.379165354330709
 30
0.0
 10
-4.844755905511811
 20
-3.409263779527559
 30
0.0
 10
-4.766476377952756
 20
-3.439374015748032
 30
0.0
  0
SPLINE
  5
9D
330
1F
100
AcDbEntity
  8
Layer 1
 62
   250
370
    18
100
AcDbSpline
210
0.0
220
0.0
230
1.0
 70
     8
 71
     3
 72
    32
 73
    28
 74
     0
 42
0.000000001
 43
0.0000000001
 40
0.0
 40
0.0
 40
0.0
 40
0.0
 40
0.125
 40
0.125
 40
0.125
 40
0.125
 40
0.25
 40
0.25
 40
0.25
 40
0.25
 40
0.375
 40
0.375
 40
0.375
 40
0.375
 40
0.5
 40
0.5
 40
0.5
 40
0.5
 40
0.625
 40
0.625
 40
0.625
 40
0.625
 40
0.75
 40
0.75
 40
0.75
 40
0.75
 40
1.0
 40
1.0
 40
1.0
 40
1.0
 10
-9.770452755905511
 20
-2.21096062992126
 30
0.0
 10
-9.704216535433071
 20
-2.662582677165354
 30
0.0
 10
-9.637972440944882
 20
-3.114200787401575
 30
0.0
 10
-9.547649606299213
 20
-3.487535433070866
 30
0.0
 10
-9.547649606299213
 20
-3.487535433070866
 30
0.0
 10
-9.457326771653543
 20
-3.86088188976378
 30
0.0
 10
-9.34291338582677
 20
-4.155944881889764
 30
0.0
 10
-9.243555118110237
 20
-4.372724409448819
 30
0.0
 10
-9.243555118110237
 20
-4.372724409448819
 30
0.0
 10
-9.144204724409448
 20
-4.589503937007874
 30
0.0
 10
-9.059897637795276
 20
-4.727992125984252
 30
0.0
 10
-9.02376377952756
 20
-4.941759842519685
 30
0.0
 10
-9.02376377952756
 20
-4.941759842519685
 30
0.0
 10
-8.98763779527559
 20
-5.155535433070866
 30
0.0
 10
-8.999685039370078
 20
-5.444574803149607
 30
0.0
 10
-8.975594488188976
 20
-5.754685039370079
 30
0.0
 10
-8.975594488188976
 20
-5.754685039370079
 30
0.0
 10
-8.951507874015748
 20
-6.064799212598425
 30
0.0
 10
-8.891299212598426
 20
-6.395992125984252
 30
0.0
 10
-8.816023622047243
 20
-6.787397637795276
 30
0.0
 10
-8.816023622047243
 20
-6.787397637795276
 30
0.0
 10
-8.740755905511811
 20
-7.178799212598425
 30
0.0
 10
-8.650425196850394
 20
-7.630425196850394
 30
0.0
 10
-8.605259842519684
 20
-7.919464566929133
 30
0.0
 10
-8.605259842519684
 20
-7.919464566929133
 30
0.0
 10
-8.560106299212599
 20
-8.208503937007874
 30
0.0
 10
-8.560106299212599
 20
-8.334952755905512
 30
0.0
 10
-8.560106299212599
 20
-8.461409448818898
 30
0.0
  0
SPLINE
  5
9E
330
1F
100
AcDbEntity
  8
Layer 1
 62
   250
370
    18
100
AcDbSpline
210
0.0
220
0.0
230
1.0
 70
     8
 71
     3
 72
    12
 73
     8
 74
     0
 42
0.000000001
 43
0.0000000001
 40
0.0
 40
0.0
 40
0.0
 40
0.0
 40
0.3333333333333333
 40
0.3333333333333333
 40
0.3333333333333333
 40
0.3333333333333333
 40
1.0
 40
1.0
 40
1.0
 40
1.0
 10
-9.90594094488189
 20
-4.342614173228347
 30
0.0
 10
-9.800562992125984
 20
-4.562405511811024
 30
0.0
 10
-9.69518503937008
 20
-4.782196850393701
 30
0.0
 10
-9.571744094488189
 20
-4.947795275590551
 30
0.0
 10
-9.571744094488189
 20
-4.947795275590551
 30
0.0
 10
-9.448299212598425
 20
-5.113389763779527
 30
0.0
 10
-9.306787401574804
 20
-5.224783464566929
 30
0.0
 10
-9.16527559055118
 20
-5.336185039370079
 30
0.0
  0
SPLINE
  5
9F
330
1F
100
AcDbEntity
  8
Layer 1
 62
   250
370
    18
100
AcDbSpline
210
0.0
220
0.0
230
1.0
 70
     8
 71
     3
 72
    20
 73
    16
 74
     0
 42
0.000000001
 43
0.0000000001
 40
0.0
 40
0.0
 40
0.0
 40
0.0
 40
0.2
 40
0.2
 40
0.2
 40
0.2
 40
0.4
 40
0.4
 40
0.4
 40
0.4
 40
0.6
 40
0.6
 40
0.6
 40
0.6
 40
1.0
 40
1.0
 40
1.0
 40
1.0
 10
-6.419377952755905
 20
-8.362043307086614
 30
0.0
 10
-6.401307086614173
 20
-7.657511811023622
 30
0.0
 10
-6.383248031496063
 20
-6.952984251968504
 30
0.0
 10
-6.380236220472441
 20
-6.42307874015748
 30
0.0
 10
-6.380236220472441
 20
-6.42307874015748
 30
0.0
 10
-6.377224409448819
 20
-5.893177165354331
 30
0.0
 10
-6.389275590551181
 20
-5.53790157480315
 30
0.0
 10
-6.395291338582677
 20
-5.263913385826772
 30
0.0
 10
-6.395291338582677
 20
-5.263913385826772
 30
0.0
 10
-6.401318897637795
 20
-4.989929133858268
 30
0.0
 10
-6.401318897637795
 20
-4.797244094488189
 30
0.0
 10
-6.353141732283465
 20
-4.59551968503937
 30
0.0
 10
-6.353141732283465
 20
-4.59551968503937
 30
0.0
 10
-6.304972440944882
 20
-4.393795275590551
 30
0.0
 10
-6.208622047244094
 20
-4.183035433070867
 30
0.0
 10
-6.112275590551181
 20
-3.972283464566929
 30
0.0
  0
SPLINE
  5
A0
330
1F
100
AcDbEntity
  8
Layer 1
 62
   250
370
    18
100
AcDbSpline
210
0.0
220
0.0
230
1.0
 70
     8
 71
     3
 72
    16
 73
    12
 74
     0
 42
0.000000001
 43
0.0000000001
 40
0.0
 40
0.0
 40
0.0
 40
0.0
 40
0.25
 40
0.25
 40
0.25
 40
0.25
 40
0.5
 40
0.5
 40
0.5
 40
0.5
 40
1.0
 40
1.0
 40
1.0
 40
1.0
 10
-4.170303149606299
 20
-0.2870433070866142
 30
0.0
 10
-4.022771653543307
 20
-0.1575748031496063
 30
0.0
 10
-3.875244094488189
 20
-0.0281141732283465
 30
0.0
 10
-3.709649606299213
 20
0.0546889763779528
 30
0.0
 10
-3.709649606299213
 20
0.0546889763779528
 30
0.0
 10
-3.544051181102362
 20
0.1374842519685039
 30
0.0
 10
-3.360397637795276
 20
0.1736181102362205
 30
0.0
 10
-3.250496062992126
 20
0.1856614173228346
 30
0.0
 10
-3.250496062992126
 20
0.1856614173228346
 30
0.0
 10
-3.140606299212598
 20
0.1977047244094488
 30
0.0
 10
-3.104468503937008
 20
0.1856614173228346
 30
0.0
 10
-3.068342519685039
 20
0.1736181102362205
 30
0.0
  0
SPLINE
  5
A1
330
1F
100
AcDbEntity
  8
Layer 1
 62
   250
370
    18
100
AcDbSpline
210
0.0
220
0.0
230
1.0
 70
     8
 71
     3
 72
    16
 73
    12
 74
     0
 42
0.000000001
 43
0.0000000001
 40
0.0
 40
0.0
 40
0.0
 40
0.0
 40
0.25
 40
0.25
 40
0.25
 40
0.25
 40
0.5
 40
0.5
 40
0.5
 40
0.5
 40
1.0
 40
1.0
 40
1.0
 40
1.0
 10
-3.971590551181102
 20
-0.6122125984251968
 30
0.0
 10
-3.869228346456693
 20
-0.5489881889763779
 30
0.0
 10
-3.766854330708661
 20
-0.485755905511811
 30
0.0
 10
-3.655452755905512
 20
-0.4240314960629921
 30
0.0
 10
-3.655452755905512
 20
-0.4240314960629921
 30
0.0
 10
-3.54405905511811
 20
-0.3623110236220473
 30
0.0
 10
-3.423622047244094
 20
-0.3020984251968504
 30
0.0
 10
-3.312216535433071
 20
-0.2599448818897638
 30
0.0
 10
-3.312216535433071
 20
-0.2599448818897638
 30
0.0
 10
-3.200826771653543
 20
-0.2177952755905512
 30
0.0
 10
-3.098452755905512
 20
-0.1937007874015748
 30
0.0
 10
-2.996090551181102
 20
-0.1696181102362205
 30
0.0
  0
SPLINE
  5
A2
330
1F
100
AcDbEntity
  8
Layer 1
 62
   250
370
    18
100
AcDbSpline
210
0.0
220
0.0
230
1.0
 70
     8
 71
     3
 72
    16
 73
    12
 74
     0
 42
0.000000001
 43
0.0000000001
 40
0.0
 40
0.0
 40
0.0
 40
0.0
 40
0.25
 40
0.25
 40
0.25
 40
0.25
 40
0.5
 40
0.5
 40
0.5
 40
0.5
 40
1.0
 40
1.0
 40
1.0
 40
1.0
 10
-3.528996062992126
 20
-1.154157480314961
 30
0.0
 10
-3.471791338582677
 20
-1.075877952755905
 30
0.0
 10
-3.414590551181103
 20
-0.9975905511811024
 30
0.0
 10
-3.339314960629921
 20
-0.9298425196850394
 30
0.0
 10
-3.339314960629921
 20
-0.9298425196850394
 30
0.0
 10
-3.264051181102362
 20
-0.8621023622047244
 30
0.0
 10
-3.170716535433071
 20
-0.8049055118110237
 30
0.0
 10
-3.089425196850394
 20
-0.765755905511811
 30
0.0
 10
-3.089425196850394
 20
-0.765755905511811
 30
0.0
 10
-3.008129921259842
 20
-0.7266181102362205
 30
0.0
 10
-2.938881889763779
 20
-0.7055433070866142
 30
0.0
 10
-2.869633858267716
 20
-0.6844645669291338
 30
0.0
  0
SPLINE
  5
A3
330
1F
100
AcDbEntity
  8
Layer 1
 62
   250
370
    18
100
AcDbSpline
210
0.0
220
0.0
230
1.0
 70
     8
 71
     3
 72
    16
 73
    12
 74
     0
 42
0.000000001
 43
0.0000000001
 40
0.0
 40
0.0
 40
0.0
 40
0.0
 40
0.25
 40
0.25
 40
0.25
 40
0.25
 40
0.5
 40
0.5
 40
0.5
 40
0.5
 40
1.0
 40
1.0
 40
1.0
 40
1.0
 10
-3.167700787401575
 20
-1.524488188976378
 30
0.0
 10
-3.092437007874016
 20
-1.39501968503937
 30
0.0
 10
-3.017161417322835
 20
-1.26555905511811
 30
0.0
 10
-2.938881889763779
 20
-1.182755905511811
 30
0.0
 10
-2.938881889763779
 20
-1.182755905511811
 30
0.0
 10
-2.860602362204725
 20
-1.09996062992126
 30
0.0
 10
-2.779311023622047
 20
-1.063826771653543
 30
0.0
 10
-2.722102362204724
 20
-1.042755905511811
 30
0.0
 10
-2.722102362204724
 20
-1.042755905511811
 30
0.0
 10
-2.664897637795276
 20
-1.021681102362205
 30
0.0
 10
-2.631783464566929
 20
-1.015657480314961
 30
0.0
 10
-2.598661417322835
 20
-1.009641732283465
 30
0.0
  0
SPLINE
  5
A4
330
1F
100
AcDbEntity
  8
Layer 1
 62
   250
370
    18
100
AcDbSpline
210
0.0
220
0.0
230
1.0
 70
     8
 71
     3
 72
    16
 73
    12
 74
     0
 42
0.000000001
 43
0.0000000001
 40
0.0
 40
0.0
 40
0.0
 40
0.0
 40
0.25
 40
0.25
 40
0.25
 40
0.25
 40
0.5
 40
0.5
 40
0.5
 40
0.5
 40
1.0
 40
1.0
 40
1.0
 40
1.0
 10
-2.779311023622047
 20
-1.678035433070866
 30
0.0
 10
-2.752212598425197
 20
-1.638893700787402
 30
0.0
 10
-2.72511811023622
 20
-1.599755905511811
 30
0.0
 10
-2.679952755905512
 20
-1.554590551181102
 30
0.0
 10
-2.679952755905512
 20
-1.554590551181102
 30
0.0
 10
-2.634787401574803
 20
-1.509433070866142
 30
0.0
 10
-2.571562992125984
 20
-1.458244094488189
 30
0.0
 10
-2.505314960629921
 20
-1.42361811023622
 30
0.0
 10
-2.505314960629921
 20
-1.42361811023622
 30
0.0
 10
-2.43907874015748
 20
-1.388992125984252
 30
0.0
 10
-2.369838582677165
 20
-1.370933070866142
 30
0.0
 10
-2.300590551181102
 20
-1.352866141732283
 30
0.0
  0
SPLINE
  5
A5
330
1F
100
AcDbEntity
  8
Layer 1
 62
   250
370
    18
100
AcDbSpline
210
0.0
220
0.0
230
1.0
 70
     8
 71
     3
 72
    16
 73
    12
 74
     0
 42
0.000000001
 43
0.0000000001
 40
0.0
 40
0.0
 40
0.0
 40
0.0
 40
0.25
 40
0.25
 40
0.25
 40
0.25
 40
0.5
 40
0.5
 40
0.5
 40
0.5
 40
1.0
 40
1.0
 40
1.0
 40
1.0
 10
-2.300590551181102
 20
-1.804492125984252
 30
0.0
 10
-2.258437007874016
 20
-1.744271653543307
 30
0.0
 10
-2.216283464566929
 20
-1.68405905511811
 30
0.0
 10
-2.180149606299213
 20
-1.64642125984252
 30
0.0
 10
-2.180149606299213
 20
-1.64642125984252
 30
0.0
 10
-2.144023622047244
 20
-1.608783464566929
 30
0.0
 10
-2.11392125984252
 20
-1.593740157480315
 30
0.0
 10
-2.068755905511811
 20
-1.578685039370079
 30
0.0
 10
-2.068755905511811
 20
-1.578685039370079
 30
0.0
 10
-2.023590551181103
 20
-1.563629921259843
 30
0.0
 10
-1.963377952755905
 20
-1.548574803149606
 30
0.0
 10
-1.903161417322835
 20
-1.53351968503937
 30
0.0
  0
SPLINE
  5
A6
330
1F
100
AcDbEntity
  8
Layer 1
 62
   250
370
    18
100
AcDbSpline
210
0.0
220
0.0
230
1.0
 70
     8
 71
     3
 72
    24
 73
    20
 74
     0
 42
0.000000001
 43
0.0000000001
 40
0.0
 40
0.0
 40
0.0
 40
0.0
 40
0.1666666666666667
 40
0.1666666666666667
 40
0.1666666666666667
 40
0.1666666666666667
 40
0.3333333333333333
 40
0.3333333333333333
 40
0.3333333333333333
 40
0.3333333333333333
 40
0.5
 40
0.5
 40
0.5
 40
0.5
 40
0.6666666666666666
 40
0.6666666666666666
 40
0.6666666666666666
 40
0.6666666666666666
 40
1.0
 40
1.0
 40
1.0
 40
1.0
 10
-4.838677165354331
 20
-0.0612362204724409
 30
0.0
 10
-4.88986220472441
 20
-0.0251102362204724
 30
0.0
 10
-4.941051181102362
 20
0.0110275590551181
 30
0.0
 10
-5.020830708661418
 20
0.0215669291338583
 30
0.0
 10
-5.020830708661418
 20
0.0215669291338583
 30
0.0
 10
-5.100622047244094
 20
0.0320984251968504
 30
0.0
 10
-5.209011811023622
 20
0.0170511811023622
 30
0.0
 10
-5.320413385826772
 20
-0.0311181102362205
 30
0.0
 10
-5.320413385826772
 20
-0.0311181102362205
 30
0.0
 10
-5.431814960629922
 20
-0.0792952755905512
 30
0.0
 10
-5.546220472440945
 20
-0.1605866141732283
 30
0.0
 10
-5.650094488188977
 20
-0.2674645669291338
 30
0.0
 10
-5.650094488188977
 20
-0.2674645669291338
 30
0.0
 10
-5.753968503937008
 20
-0.3743503937007874
 30
0.0
 10
-5.847303149606299
 20
-0.5068346456692914
 30
0.0
 10
-5.954181102362205
 20
-0.5670472440944881
 30
0.0
 10
-5.954181102362205
 20
-0.5670472440944881
 30
0.0
 10
-6.061070866141733
 20
-0.6272677165354331
 30
0.0
 10
-6.181507874015748
 20
-0.6152244094488188
 30
0.0
 10
-6.30194094488189
 20
-0.6031811023622047
 30
0.0
  0
SPLINE
  5
A7
330
1F
100
AcDbEntity
  8
Layer 1
 62
   250
370
    18
100
AcDbSpline
210
0.0
220
0.0
230
1.0
 70
     8
 71
     3
 72
    20
 73
    16
 74
     0
 42
0.000000001
 43
0.0000000001
 40
0.0
 40
0.0
 40
0.0
 40
0.0
 40
0.2
 40
0.2
 40
0.2
 40
0.2
 40
0.4
 40
0.4
 40
0.4
 40
0.4
 40
0.6
 40
0.6
 40
0.6
 40
0.6
 40
1.0
 40
1.0
 40
1.0
 40
1.0
 10
-5.814173228346457
 20
-2.030307086614173
 30
0.0
 10
-5.594381889763779
 20
-1.939988188976378
 30
0.0
 10
-5.374598425196851
 20
-1.849657480314961
 30
0.0
 10
-5.18642125984252
 20
-1.82255905511811
 30
0.0
 10
-5.18642125984252
 20
-1.82255905511811
 30
0.0
 10
-4.998240157480315
 20
-1.79546062992126
 30
0.0
 10
-4.841685039370079
 20
-1.83159842519685
 30
0.0
 10
-4.748338582677166
 20
-1.926433070866142
 30
0.0
 10
-4.748338582677166
 20
-1.926433070866142
 30
0.0
 10
-4.655007874015748
 20
-2.021279527559055
 30
0.0
 10
-4.624905511811024
 20
-2.174822834645669
 30
0.0
 10
-4.579740157480315
 20
-2.295255905511811
 30
0.0
 10
-4.579740157480315
 20
-2.295255905511811
 30
0.0
 10
-4.534574803149606
 20
-2.415685039370079
 30
0.0
 10
-4.474362204724409
 20
-2.503003937007874
 30
0.0
 10
-4.414141732283465
 20
-2.590311023622047
 30
0.0
  0
SPLINE
  5
A8
330
1F
100
AcDbEntity
  8
Layer 1
 62
   250
370
    18
100
AcDbSpline
210
0.0
220
0.0
230
1.0
 70
     8
 71
     3
 72
    16
 73
    12
 74
     0
 42
0.000000001
 43
0.0000000001
 40
0.0
 40
0.0
 40
0.0
 40
0.0
 40
0.25
 40
0.25
 40
0.25
 40
0.25
 40
0.5
 40
0.5
 40
0.5
 40
0.5
 40
1.0
 40
1.0
 40
1.0
 40
1.0
 10
-5.353527559055118
 20
-0.4405905511811024
 30
0.0
 10
-5.323417322834645
 20
-0.4812322834645669
 30
0.0
 10
-5.293307086614173
 20
-0.5218818897637796
 30
0.0
 10
-5.22932283464567
 20
-0.5467165354330709
 30
0.0
 10
-5.22932283464567
 20
-0.5467165354330709
 30
0.0
 10
-5.165350393700788
 20
-0.5715511811023622
 30
0.0
 10
-5.067492125984252
 20
-0.5805905511811024
 30
0.0
 10
-5.014799212598425
 20
-0.556496062992126
 30
0.0
 10
-5.014799212598425
 20
-0.556496062992126
 30
0.0
 10
-4.962114173228346
 20
-0.5324133858267717
 30
0.0
 10
-4.954586614173229
 20
-0.4752125984251969
 30
0.0
 10
-4.94705905511811
 20
-0.418007874015748
 30
0.0
  0
SPLINE
  5
A9
330
1F
100
AcDbEntity
  8
Layer 1
 62
   250
370
    18
100
AcDbSpline
210
0.0
220
0.0
230
1.0
 70
     8
 71
     3
 72
    12
 73
     8
 74
     0
 42
0.000000001
 43
0.0000000001
 40
0.0
 40
0.0
 40
0.0
 40
0.0
 40
0.3333333333333333
 40
0.3333333333333333
 40
0.3333333333333333
 40
0.3333333333333333
 40
1.0
 40
1.0
 40
1.0
 40
1.0
 10
-6.401267716535433
 20
3.37115748031496
 30
0.0
 10
-6.381696850393701
 20
3.307933070866142
 30
0.0
 10
-6.362125984251969
 20
3.244700787401575
 30
0.0
 10
-6.321476377952756
 20
3.176212598425197
 30
0.0
 10
-6.321476377952756
 20
3.176212598425197
 30
0.0
 10
-6.280834645669291
 20
3.107712598425197
 30
0.0
 10
-6.219114173228347
 20
3.033948818897638
 30
0.0
 10
-6.157389763779528
 20
2.960185039370079
 30
0.0
  0
ENDSEC
  0
SECTION
  2
OBJECTS
  0
DICTIONARY
  5
C
330
0
100
AcDbDictionary
281
     1
  3
ACAD_DETAILVIEWSTYLE
350
E5
  3
ACAD_GROUP
350
D
  3
ACAD_LAYOUT
350
1A
  3
ACAD_MATERIAL
350
43
  3
ACAD_MLEADERSTYLE
350
6B
  3
ACAD_MLINESTYLE
350
17
  3
ACAD_PLOTSETTINGS
350
19
  3
ACAD_PLOTSTYLENAME
350
E
  3
ACAD_SCALELIST
350
47
  3
ACAD_SECTIONVIEWSTYLE
350
E6
  3
ACAD_TABLESTYLE
350
69
  3
ACAD_VISUALSTYLE
350
2A
  3
ACDB_RECOMPOSE_DATA
350
E2
  3
AcDbVariableDictionary
350
AA
  0
SUN
  5
6D
330
29
100
AcDbSun
 90
        1
290
     0
 63
     7
421
 16777215
 40
1.0
291
     1
 91
  2455826
 92
 54000000
292
     0
 70
     2
 71
   256
280
     1
  0
DICTIONARY
  5
E5
102
{ACAD_REACTORS
330
C
102
}
330
C
100
AcDbDictionary
281
     1
  0
DICTIONARY
  5
D
102
{ACAD_REACTORS
330
C
102
}
330
C
100
AcDbDictionary
281
     1
  0
DICTIONARY
  5
1A
102
{ACAD_REACTORS
330
C
102
}
330
C
100
AcDbDictionary
281
     1
  3
Layout1
350
1E
  3
Layout2
350
26
  3
Model
350
22
  0
DICTIONARY
  5
43
102
{ACAD_REACTORS
330
C
102
}
330
C
100
AcDbDictionary
281
     1
  3
ByBlock
350
45
  3
ByLayer
350
44
  3
Global
350
46
  0
DICTIONARY
  5
6B
102
{ACAD_REACTORS
330
C
102
}
330
C
100
AcDbDictionary
281
     1
  3
Standard
350
6C
  0
DICTIONARY
  5
17
102
{ACAD_REACTORS
330
C
102
}
330
C
100
AcDbDictionary
281
     1
  3
Standard
350
18
  0
DICTIONARY
  5
19
102
{ACAD_REACTORS
330
C
102
}
330
C
100
AcDbDictionary
281
     1
  0
ACDBDICTIONARYWDFLT
  5
E
102
{ACAD_REACTORS
330
C
102
}
330
C
100
AcDbDictionary
281
     1
  3
Normal
350
F
100
AcDbDictionaryWithDefault
340
F
  0
DICTIONARY
  5
47
102
{ACAD_REACTORS
330
C
102
}
330
C
100
AcDbDictionary
281
     1
  3
A0
350
48
  3
A1
350
49
  3
A2
350
4A
  3
A3
350
4B
  3
A4
350
4C
  3
A5
350
4D
  3
A6
350
4E
  3
A7
350
4F
  3
A8
350
50
  3
A9
350
51
  3
B0
350
52
  3
B1
350
53
  3
B2
350
54
  3
B3
350
55
  3
B4
350
56
  3
B5
350
57
  3
B6
350
58
  3
B7
350
59
  3
B8
350
5A
  3
B9
350
5B
  3
C0
350
5C
  3
C1
350
5D
  3
C2
350
5E
  3
C3
350
5F
  3
C4
350
60
  3
C5
350
61
  3
C6
350
62
  3
C7
350
63
  3
C8
350
64
  3
C9
350
65
  3
D0
350
66
  3
D1
350
67
  3
D2
350
68
  0
DICTIONARY
  5
E6
102
{ACAD_REACTORS
330
C
102
}
330
C
100
AcDbDictionary
281
     1
  0
DICTIONARY
  5
69
102
{ACAD_REACTORS
330
C
102
}
330
C
100
AcDbDictionary
281
     1
  3
Standard
350
6A
  0
DICTIONARY
  5
2A
102
{ACAD_REACTORS
330
C
102
}
330
C
100
AcDbDictionary
281
     1
  3
2dWireframe
350
2F
  3
Basic
350
32
  3
Brighten
350
36
  3
ColorChange
350
3A
  3
Conceptual
350
34
  3
Dim
350
35
  3
EdgeColorOff
350
3D
  3
Facepattern
350
39
  3
Flat
350
2B
  3
FlatWithEdges
350
2C
  3
Gouraud
350
2D
  3
GouraudWithEdges
350
2E
  3
Hidden
350
31
  3
JitterOff
350
3B
  3
Linepattern
350
38
  3
OverhangOff
350
3C
  3
Realistic
350
33
  3
Shaded
350
42
  3
Shaded with edges
350
41
  3
Shades of Gray
350
3E
  3
Sketchy
350
3F
  3
Thicken
350
37
  3
Wireframe
350
30
  3
X-Ray
350
40
  0
XRECORD
  5
E2
102
{ACAD_REACTORS
330
C
102
}
330
C
100
AcDbXrecord
280
     1
 90
        1
330
6A
  0
DICTIONARY
  5
AA
102
{ACAD_REACTORS
330
C
102
}
330
C
100
AcDbDictionary
281
     1
  3
CANNOSCALE
350
AB
  3
CMLEADERSTYLE
350
E4
  3
CTABLESTYLE
350
E3
  3
XCLIPFRAME
350
AC
  0
LAYOUT
  5
1E
102
{ACAD_REACTORS
330
1A
102
}
330
1A
100
AcDbPlotSettings
  1

  2
none_device
  4

  6

 40
0.0
 41
0.0
 42
0.0
 43
0.0
 44
0.0
 45
0.0
 46
0.0
 47
0.0
 48
0.0
 49
0.0
140
0.0
141
0.0
142
1.0
143
1.0
 70
   688
 72
     0
 73
     0
 74
     5
  7

 75
    16
 76
     0
 77
     2
 78
   300
147
1.0
148
0.0
149
0.0
100
AcDbLayout
  1
Layout1
 70
     1
 71
     1
 10
0.0
 20
0.0
 11
12.0
 21
9.0
 12
0.0
 22
0.0
 32
0.0
 14
1.000000000000000E+20
 24
1.000000000000000E+20
 34
1.000000000000000E+20
 15
-1.000000000000000E+20
 25
-1.000000000000000E+20
 35
-1.000000000000000E+20
146
0.0
 13
0.0
 23
0.0
 33
0.0
 16
1.0
 26
0.0
 36
0.0
 17
0.0
 27
1.0
 37
0.0
 76
     0
330
1B
  0
LAYOUT
  5
26
102
{ACAD_REACTORS
330
1A
102
}
330
1A
100
AcDbPlotSettings
  1

  2
none_device
  4

  6

 40
0.0
 41
0.0
 42
0.0
 43
0.0
 44
0.0
 45
0.0
 46
0.0
 47
0.0
 48
0.0
 49
0.0
140
0.0
141
0.0
142
1.0
143
1.0
 70
   688
 72
     0
 73
     0
 74
     5
  7

 75
    16
 76
     0
 77
     2
 78
   300
147
1.0
148
0.0
149
0.0
100
AcDbLayout
  1
Layout2
 70
     1
 71
     2
 10
0.0
 20
0.0
 11
0.0
 21
0.0
 12
0.0
 22
0.0
 32
0.0
 14
0.0
 24
0.0
 34
0.0
 15
0.0
 25
0.0
 35
0.0
146
0.0
 13
0.0
 23
0.0
 33
0.0
 16
1.0
 26
0.0
 36
0.0
 17
0.0
 27
1.0
 37
0.0
 76
     0
330
23
  0
LAYOUT
  5
22
102
{ACAD_REACTORS
330
1A
102
}
330
1A
100
AcDbPlotSettings
  1

  2
none_device
  4
Letter_(8.50_x_11.00_Inches)
  6

 40
6.35
 41
6.35
 42
6.35000508
 43
6.35000508
 44
215.9
 45
279.4
 46
0.0
 47
0.0
 48
0.0
 49
0.0
140
0.0
141
0.0
142
1.0
143
1.0
 70
  1712
 72
     0
 73
     0
 74
     0
  7

 75
     0
 76
     0
 77
     2
 78
   300
147
1.0
148
0.0
149
0.0
100
AcDbLayout
  1
Model
 70
     1
 71
     0
 10
0.0
 20
0.0
 11
12.0
 21
9.0
 12
0.0
 22
0.0
 32
0.0
 14
-13.33488188976378
 24
-12.00347244094488
 34
0.0
 15
13.33494881889764
 25
12.00346850393701
 35
0.0
146
0.0
 13
0.0
 23
0.0
 33
0.0
 16
1.0
 26
0.0
 36
0.0
 17
0.0
 27
1.0
 37
0.0
 76
     0
330
1F
331
29
  0
MATERIAL
  5
45
102
{ACAD_REACTORS
330
43
102
}
330
43
100
AcDbMaterial
  1
ByBlock
 72
     1
 94
      127
  0
MATERIAL
  5
44
102
{ACAD_REACTORS
330
43
102
}
330
43
100
AcDbMaterial
  1
ByLayer
 72
     1
 94
      127
  0
MATERIAL
  5
46
102
{ACAD_REACTORS
330
43
102
}
330
43
100
AcDbMaterial
  1
Global
 72
     1
 94
      127
  0
MLEADERSTYLE
  5
6C
102
{ACAD_REACTORS
330
6B
102
}
102
{ACAD_XDICTIONARY
360
E0
102
}
330
6B
100
AcDbMLeaderStyle
170
     2
171
     1
172
     0
 90
        2
 40
0.0
 41
0.0
173
     1
 91
-1056964608
340
14
 92
       -2
290
     1
 42
0.09
291
     1
 43
0.36
  3
Standard
341
0
 44
0.18
300

342
11
174
     1
178
     6
175
     1
176
     0
 93
-1056964608
 45
0.18
292
     0
297
     0
 46
0.18
343
0
 94
-1056964608
 47
1.0
 49
1.0
140
1.0
293
     1
141
0.0
294
     1
177
     0
142
1.0
295
     0
296
     0
143
0.125
1001
ACAD_MLEADERVER
1070
     2
  0
MLINESTYLE
  5
18
102
{ACAD_REACTORS
330
17
102
}
330
17
100
AcDbMlineStyle
  2
Standard
 70
     0
  3

 62
   256
 51
90.0
 52
90.0
 71
     2
 49
0.5
 62
   256
  6
BYLAYER
 49
-0.5
 62
   256
  6
BYLAYER
  0
ACDBPLACEHOLDER
  5
F
102
{ACAD_REACTORS
330
E
102
}
330
E
  0
SCALE
  5
48
102
{ACAD_REACTORS
330
47
102
}
330
47
100
AcDbScale
 70
     0
300
1:1
140
1.0
141
1.0
290
     1
  0
SCALE
  5
49
102
{ACAD_REACTORS
330
47
102
}
330
47
100
AcDbScale
 70
     0
300
1:2
140
1.0
141
2.0
290
     0
  0
SCALE
  5
4A
102
{ACAD_REACTORS
330
47
102
}
330
47
100
AcDbScale
 70
     0
300
1:4
140
1.0
141
4.0
290
     0
  0
SCALE
  5
4B
102
{ACAD_REACTORS
330
47
102
}
330
47
100
AcDbScale
 70
     0
300
1:5
140
1.0
141
5.0
290
     0
  0
SCALE
  5
4C
102
{ACAD_REACTORS
330
47
102
}
330
47
100
AcDbScale
 70
     0
300
1:8
140
1.0
141
8.0
290
     0
  0
SCALE
  5
4D
102
{ACAD_REACTORS
330
47
102
}
330
47
100
AcDbScale
 70
     0
300
1:10
140
1.0
141
10.0
290
     0
  0
SCALE
  5
4E
102
{ACAD_REACTORS
330
47
102
}
330
47
100
AcDbScale
 70
     0
300
1:16
140
1.0
141
16.0
290
     0
  0
SCALE
  5
4F
102
{ACAD_REACTORS
330
47
102
}
330
47
100
AcDbScale
 70
     0
300
1:20
140
1.0
141
20.0
290
     0
  0
SCALE
  5
50
102
{ACAD_REACTORS
330
47
102
}
330
47
100
AcDbScale
 70
     0
300
1:30
140
1.0
141
30.0
290
     0
  0
SCALE
  5
51
102
{ACAD_REACTORS
330
47
102
}
330
47
100
AcDbScale
 70
     0
300
1:40
140
1.0
141
40.0
290
     0
  0
SCALE
  5
52
102
{ACAD_REACTORS
330
47
102
}
330
47
100
AcDbScale
 70
     0
300
1:50
140
1.0
141
50.0
290
     0
  0
SCALE
  5
53
102
{ACAD_REACTORS
330
47
102
}
330
47
100
AcDbScale
 70
     0
300
1:100
140
1.0
141
100.0
290
     0
  0
SCALE
  5
54
102
{ACAD_REACTORS
330
47
102
}
330
47
100
AcDbScale
 70
     0
300
2:1
140
2.0
141
1.0
290
     0
  0
SCALE
  5
55
102
{ACAD_REACTORS
330
47
102
}
330
47
100
AcDbScale
 70
     0
300
4:1
140
4.0
141
1.0
290
     0
  0
SCALE
  5
56
102
{ACAD_REACTORS
330
47
102
}
330
47
100
AcDbScale
 70
     0
300
8:1
140
8.0
141
1.0
290
     0
  0
SCALE
  5
57
102
{ACAD_REACTORS
330
47
102
}
330
47
100
AcDbScale
 70
     0
300
10:1
140
10.0
141
1.0
290
     0
  0
SCALE
  5
58
102
{ACAD_REACTORS
330
47
102
}
330
47
100
AcDbScale
 70
     0
300
100:1
140
100.0
141
1.0
290
     0
  0
SCALE
  5
59
102
{ACAD_REACTORS
330
47
102
}
330
47
100
AcDbScale
 70
     0
300
1/128" = 1'-0"
140
0.0078125
141
12.0
290
     0
  0
SCALE
  5
5A
102
{ACAD_REACTORS
330
47
102
}
330
47
100
AcDbScale
 70
     0
300
1/64" = 1'-0"
140
0.015625
141
12.0
290
     0
  0
SCALE
  5
5B
102
{ACAD_REACTORS
330
47
102
}
330
47
100
AcDbScale
 70
     0
300
1/32" = 1'-0"
140
0.03125
141
12.0
290
     0
  0
SCALE
  5
5C
102
{ACAD_REACTORS
330
47
102
}
330
47
100
AcDbScale
 70
     0
300
1/16" = 1'-0"
140
0.0625
141
12.0
290
     0
  0
SCALE
  5
5D
102
{ACAD_REACTORS
330
47
102
}
330
47
100
AcDbScale
 70
     0
300
3/32" = 1'-0"
140
0.09375
141
12.0
290
     0
  0
SCALE
  5
5E
102
{ACAD_REACTORS
330
47
102
}
330
47
100
AcDbScale
 70
     0
300
1/8" = 1'-0"
140
0.125
141
12.0
290
     0
  0
SCALE
  5
5F
102
{ACAD_REACTORS
330
47
102
}
330
47
100
AcDbScale
 70
     0
300
3/16" = 1'-0"
140
0.1875
141
12.0
290
     0
  0
SCALE
  5
60
102
{ACAD_REACTORS
330
47
102
}
330
47
100
AcDbScale
 70
     0
300
1/4" = 1'-0"
140
0.25
141
12.0
290
     0
  0
SCALE
  5
61
102
{ACAD_REACTORS
330
47
102
}
330
47
100
AcDbScale
 70
     0
300
3/8" = 1'-0"
140
0.375
141
12.0
290
     0
  0
SCALE
  5
62
102
{ACAD_REACTORS
330
47
102
}
330
47
100
AcDbScale
 70
     0
300
1/2" = 1'-0"
140
0.5
141
12.0
290
     0
  0
SCALE
  5
63
102
{ACAD_REACTORS
330
47
102
}
330
47
100
AcDbScale
 70
     0
300
3/4" = 1'-0"
140
0.75
141
12.0
290
     0
  0
SCALE
  5
64
102
{ACAD_REACTORS
330
47
102
}
330
47
100
AcDbScale
 70
     0
300
1" = 1'-0"
140
1.0
141
12.0
290
     0
  0
SCALE
  5
65
102
{ACAD_REACTORS
330
47
102
}
330
47
100
AcDbScale
 70
     0
300
1-1/2" = 1'-0"
140
1.5
141
12.0
290
     0
  0
SCALE
  5
66
102
{ACAD_REACTORS
330
47
102
}
330
47
100
AcDbScale
 70
     0
300
3" = 1'-0"
140
3.0
141
12.0
290
     0
  0
SCALE
  5
67
102
{ACAD_REACTORS
330
47
102
}
330
47
100
AcDbScale
 70
     0
300
6" = 1'-0"
140
6.0
141
12.0
290
     0
  0
SCALE
  5
68
102
{ACAD_REACTORS
330
47
102
}
330
47
100
AcDbScale
 70
     0
300
1'-0" = 1'-0"
140
12.0
141
12.0
290
     0
  0
TABLESTYLE
  5
6A
102
{ACAD_REACTORS
330
69
102
}
102
{ACAD_XDICTIONARY
360
DD
102
}
330
69
100
AcDbTableStyle
  3
Standard
 70
     0
 71
     0
 40
0.06
 41
0.06
280
     0
281
     0
  7
Standard
140
0.18
170
     2
 62
     0
 63
   257
283
     0
 90
        4
 91
        0
  1

274
    -2
284
     1
 64
     0
275
    -2
285
     1
 65
     0
276
    -2
286
     1
 66
     0
277
    -2
287
     1
 67
     0
278
    -2
288
     1
 68
     0
279
    -2
289
     1
 69
     0
  7
Standard
140
0.25
170
     5
 62
     0
 63
   257
283
     0
 90
        4
 91
        0
  1

274
    -2
284
     1
 64
     0
275
    -2
285
     1
 65
     0
276
    -2
286
     1
 66
     0
277
    -2
287
     1
 67
     0
278
    -2
288
     1
 68
     0
279
    -2
289
     1
 69
     0
  7
Standard
140
0.18
170
     5
 62
     0
 63
   257
283
     0
 90
        4
 91
        0
  1

274
    -2
284
     1
 64
     0
275
    -2
285
     1
 65
     0
276
    -2
286
     1
 66
     0
277
    -2
287
     1
 67
     0
278
    -2
288
     1
 68
     0
279
    -2
289
     1
 69
     0
  0
VISUALSTYLE
  5
2F
102
{ACAD_REACTORS
330
2A
102
}
102
{ACAD_XDICTIONARY
360
B5
102
}
330
2A
100
AcDbVisualStyle
  2
2dWireframe
 70
     4
 71
     0
 72
     2
 73
     0
 90
        0
 40
0.6
 41
30.0
 62
     5
 63
     7
421
 16777215
 74
     1
 91
        4
 64
     7
 65
   257
 75
     1
175
     1
 42
1.0
 92
        0
 66
   257
 43
1.0
 76
     1
 77
     6
 78
     2
 67
     7
 79
     5
170
     0
171
     0
290
     0
174
     0
 93
        1
 44
0.0
173
     0
291
     0
 45
0.0
  0
VISUALSTYLE
  5
32
102
{ACAD_REACTORS
330
2A
102
}
102
{ACAD_XDICTIONARY
360
BB
102
}
330
2A
100
AcDbVisualStyle
  2
Basic
 70
     7
 71
     1
 72
     0
 73
     1
 90
        0
 40
0.6
 41
30.0
 62
     5
 63
     7
421
 16777215
 74
     0
 91
        4
 64
     7
 65
   257
 75
     1
175
     1
 42
1.0
 92
        8
 66
     7
 43
1.0
 76
     1
 77
     6
 78
     2
 67
     7
 79
     5
170
     0
171
     0
290
     0
174
     0
 93
        1
 44
0.0
173
     0
291
     1
 45
0.0
  0
VISUALSTYLE
  5
36
102
{ACAD_REACTORS
330
2A
102
}
102
{ACAD_XDICTIONARY
360
C3
102
}
330
2A
100
AcDbVisualStyle
  2
Brighten
 70
    12
 71
     2
 72
     2
 73
     0
 90
        0
 40
0.6
 41
30.0
 62
     5
 63
     7
421
 16777215
 74
     1
 91
        4
 64
     7
 65
   257
 75
     1
175
     1
 42
1.0
 92
        8
 66
     7
 43
1.0
 76
     1
 77
     6
 78
     2
 67
     7
 79
     5
170
     0
171
     0
290
     0
174
     0
 93
        1
 44
50.0
173
     0
291
     1
 45
0.0
  0
VISUALSTYLE
  5
3A
102
{ACAD_REACTORS
330
2A
102
}
102
{ACAD_XDICTIONARY
360
CB
102
}
330
2A
100
AcDbVisualStyle
  2
ColorChange
 70
    16
 71
     2
 72
     2
 73
     3
 90
        0
 40
0.6
 41
30.0
 62
     5
 63
     8
421
  8421504
 74
     1
 91
        4
 64
     7
 65
   257
 75
     1
175
     1
 42
1.0
 92
        8
 66
     8
424
  8421504
 43
1.0
 76
     1
 77
     6
 78
     2
 67
     7
 79
     5
170
     0
171
     0
290
     0
174
     0
 93
        1
 44
0.0
173
     0
291
     1
 45
0.0
  0
VISUALSTYLE
  5
34
102
{ACAD_REACTORS
330
2A
102
}
102
{ACAD_XDICTIONARY
360
BF
102
}
330
2A
100
AcDbVisualStyle
  2
Conceptual
 70
     9
 71
     3
 72
     2
 73
     0
 90
        0
 40
0.6
 41
30.0
 62
     5
 63
     7
421
 16777215
 74
     2
 91
        2
 64
     7
 65
   257
 75
     1
175
     1
 42
179.0
 92
        8
 66
     7
 43
1.0
 76
     1
 77
     6
 78
     2
 67
     7
 79
     3
170
     0
171
     0
290
     0
174
     0
 93
        1
 44
0.0
173
     0
291
     0
 45
0.0
  0
VISUALSTYLE
  5
35
102
{ACAD_REACTORS
330
2A
102
}
102
{ACAD_XDICTIONARY
360
C1
102
}
330
2A
100
AcDbVisualStyle
  2
Dim
 70
    11
 71
     2
 72
     2
 73
     0
 90
        0
 40
0.6
 41
30.0
 62
     5
 63
     7
421
 16777215
 74
     1
 91
        4
 64
     7
 65
   257
 75
     1
175
     1
 42
1.0
 92
        8
 66
     7
 43
1.0
 76
     1
 77
     6
 78
     2
 67
     7
 79
     5
170
     0
171
     0
290
     0
174
     0
 93
        1
 44
-50.0
173
     0
291
     1
 45
0.0
  0
VISUALSTYLE
  5
3D
102
{ACAD_REACTORS
330
2A
102
}
102
{ACAD_XDICTIONARY
360
D1
102
}
330
2A
100
AcDbVisualStyle
  2
EdgeColorOff
 70
    22
 71
     2
 72
     2
 73
     0
 90
        0
 40
0.6
 41
30.0
 62
     5
 63
     7
421
 16777215
 74
     1
 91
        4
 64
     7
 65
   257
 75
     1
175
     1
 42
1.0
 92
        8
 66
     7
 43
1.0
 76
     1
 77
     6
 78
     2
 67
     7
 79
     5
170
     0
171
     0
290
     0
174
     0
 93
        1
 44
0.0
173
     0
291
     1
 45
0.0
  0
VISUALSTYLE
  5
39
102
{ACAD_REACTORS
330
2A
102
}
102
{ACAD_XDICTIONARY
360
C9
102
}
330
2A
100
AcDbVisualStyle
  2
Facepattern
 70
    15
 71
     2
 72
     2
 73
     0
 90
        0
 40
0.6
 41
30.0
 62
     5
 63
     7
421
 16777215
 74
     1
 91
        4
 64
     7
 65
   257
 75
     1
175
     1
 42
1.0
 92
        8
 66
     7
 43
1.0
 76
     1
 77
     6
 78
     2
 67
     7
 79
     5
170
     0
171
     0
290
     0
174
     0
 93
        1
 44
0.0
173
     0
291
     1
 45
0.0
  0
VISUALSTYLE
  5
2B
102
{ACAD_REACTORS
330
2A
102
}
102
{ACAD_XDICTIONARY
360
AD
102
}
330
2A
100
AcDbVisualStyle
  2
Flat
 70
     0
 71
     2
 72
     1
 73
     1
 90
        2
 40
0.6
 41
30.0
 62
     5
 63
     7
421
 16777215
 74
     0
 91
        0
 64
     7
 65
   257
 75
     1
175
     1
 42
1.0
 92
        8
 66
     7
 43
1.0
 76
     1
 77
     6
 78
     2
 67
     7
 79
     5
170
     0
171
     0
290
     0
174
     0
 93
       13
 44
0.0
173
     0
291
     1
 45
0.0
  0
VISUALSTYLE
  5
2C
102
{ACAD_REACTORS
330
2A
102
}
102
{ACAD_XDICTIONARY
360
AF
102
}
330
2A
100
AcDbVisualStyle
  2
FlatWithEdges
 70
     1
 71
     2
 72
     1
 73
     1
 90
        2
 40
0.6
 41
30.0
 62
     5
 63
     7
421
 16777215
 74
     1
 91
        0
 64
     7
 65
   257
 75
     1
175
     1
 42
1.0
 92
        0
 66
   257
 43
1.0
 76
     1
 77
     6
 78
     2
 67
     7
 79
     5
170
     0
171
     0
290
     0
174
     0
 93
       13
 44
0.0
173
     0
291
     1
 45
0.0
  0
VISUALSTYLE
  5
2D
102
{ACAD_REACTORS
330
2A
102
}
102
{ACAD_XDICTIONARY
360
B1
102
}
330
2A
100
AcDbVisualStyle
  2
Gouraud
 70
     2
 71
     2
 72
     2
 73
     1
 90
        2
 40
0.6
 41
30.0
 62
     5
 63
     7
421
 16777215
 74
     0
 91
        0
 64
     7
 65
   257
 75
     1
175
     1
 42
1.0
 92
        0
 66
     7
 43
1.0
 76
     1
 77
     6
 78
     2
 67
     7
 79
     5
170
     0
171
     0
290
     0
174
     0
 93
       13
 44
0.0
173
     0
291
     1
 45
0.0
  0
VISUALSTYLE
  5
2E
102
{ACAD_REACTORS
330
2A
102
}
102
{ACAD_XDICTIONARY
360
B3
102
}
330
2A
100
AcDbVisualStyle
  2
GouraudWithEdges
 70
     3
 71
     2
 72
     2
 73
     1
 90
        2
 40
0.6
 41
30.0
 62
     5
 63
     7
421
 16777215
 74
     1
 91
        0
 64
     7
 65
   257
 75
     1
175
     1
 42
1.0
 92
        0
 66
   257
 43
1.0
 76
     1
 77
     6
 78
     2
 67
     7
 79
     5
170
     0
171
     0
290
     0
174
     0
 93
       13
 44
0.0
173
     0
291
     1
 45
0.0
  0
VISUALSTYLE
  5
31
102
{ACAD_REACTORS
330
2A
102
}
102
{ACAD_XDICTIONARY
360
B9
102
}
330
2A
100
AcDbVisualStyle
  2
Hidden
 70
     6
 71
     1
 72
     2
 73
     2
 90
        0
 40
0.6
 41
30.0
 62
     5
 63
     7
421
 16777215
 74
     2
 91
        2
 64
     7
 65
   257
 75
     2
175
     1
 42
40.0
 92
        0
 66
   257
 43
1.0
 76
     1
 77
     6
 78
     2
 67
     7
 79
     3
170
     0
171
     0
290
     0
174
     0
 93
        1
 44
0.0
173
     0
291
     0
 45
0.0
  0
VISUALSTYLE
  5
3B
102
{ACAD_REACTORS
330
2A
102
}
102
{ACAD_XDICTIONARY
360
CD
102
}
330
2A
100
AcDbVisualStyle
  2
JitterOff
 70
    20
 71
     2
 72
     2
 73
     0
 90
        0
 40
0.6
 41
30.0
 62
     5
 63
     7
421
 16777215
 74
     1
 91
        4
 64
     7
 65
   257
 75
     1
175
     1
 42
1.0
 92
       10
 66
     7
 43
1.0
 76
     1
 77
     6
 78
     2
 67
     7
 79
     5
170
     0
171
     0
290
     0
174
     0
 93
        1
 44
0.0
173
     0
291
     1
 45
0.0
  0
VISUALSTYLE
  5
38
102
{ACAD_REACTORS
330
2A
102
}
102
{ACAD_XDICTIONARY
360
C7
102
}
330
2A
100
AcDbVisualStyle
  2
Linepattern
 70
    14
 71
     2
 72
     2
 73
     0
 90
        0
 40
0.6
 41
30.0
 62
     5
 63
     7
421
 16777215
 74
     1
 91
        4
 64
     7
 65
   257
 75
     7
175
     7
 42
1.0
 92
        8
 66
     7
 43
1.0
 76
     1
 77
     6
 78
     2
 67
     7
 79
     5
170
     0
171
     0
290
     0
174
     0
 93
        1
 44
0.0
173
     0
291
     1
 45
0.0
  0
VISUALSTYLE
  5
3C
102
{ACAD_REACTORS
330
2A
102
}
102
{ACAD_XDICTIONARY
360
CF
102
}
330
2A
100
AcDbVisualStyle
  2
OverhangOff
 70
    21
 71
     2
 72
     2
 73
     0
 90
        0
 40
0.6
 41
30.0
 62
     5
 63
     7
421
 16777215
 74
     1
 91
        4
 64
     7
 65
   257
 75
     1
175
     1
 42
1.0
 92
        9
 66
     7
 43
1.0
 76
     1
 77
     6
 78
     2
 67
     7
 79
     5
170
     0
171
     0
290
     0
174
     0
 93
        1
 44
0.0
173
     0
291
     1
 45
0.0
  0
VISUALSTYLE
  5
33
102
{ACAD_REACTORS
330
2A
102
}
102
{ACAD_XDICTIONARY
360
BD
102
}
330
2A
100
AcDbVisualStyle
  2
Realistic
 70
     8
 71
     2
 72
     3
 73
     0
 90
        2
 40
0.6
 41
30.0
 62
     5
 63
     7
421
 16777215
 74
     0
 91
        0
 64
     7
 65
   257
 75
     1
175
     1
 42
1.0
 92
        8
 66
   257
 43
1.0
 76
     1
 77
     6
 78
     2
 67
     7
 79
     3
170
     0
171
     0
290
     0
174
     0
 93
       13
 44
0.0
173
     0
291
     0
 45
0.0
  0
VISUALSTYLE
  5
42
102
{ACAD_REACTORS
330
2A
102
}
102
{ACAD_XDICTIONARY
360
DB
102
}
330
2A
100
AcDbVisualStyle
  2
Shaded
 70
    27
 71
     2
 72
     2
 73
     1
 90
        2
 40
0.6
 41
30.0
 62
     5
 63
     7
421
 16777215
 74
     0
 91
        4
 64
     7
 65
   257
 75
     1
175
     1
 42
1.0
 92
        8
 66
   257
 43
1.0
 76
     1
 77
     6
 78
     2
 67
     8
425
  7895160
 79
     3
170
     0
171
     0
290
     0
174
     0
 93
        5
 44
0.0
173
     0
291
     0
 45
0.0
  0
VISUALSTYLE
  5
41
102
{ACAD_REACTORS
330
2A
102
}
102
{ACAD_XDICTIONARY
360
D9
102
}
330
2A
100
AcDbVisualStyle
  2
Shaded with edges
 70
    26
 71
     2
 72
     2
 73
     1
 90
        2
 40
0.6
 41
30.0
 62
     5
 63
     7
421
 16777215
 74
     1
 91
       10
 64
     7
 65
   257
 75
     2
175
     1
 42
1.0
 92
        8
 66
   257
 43
1.0
 76
     1
 77
     6
 78
     2
 67
     7
 79
     3
170
     0
171
     0
290
     0
174
     0
 93
        5
 44
0.0
173
     0
291
     0
 45
0.0
  0
VISUALSTYLE
  5
3E
102
{ACAD_REACTORS
330
2A
102
}
102
{ACAD_XDICTIONARY
360
D3
102
}
330
2A
100
AcDbVisualStyle
  2
Shades of Gray
 70
    23
 71
     2
 72
     2
 73
     3
 90
        0
 40
0.6
 41
30.0
 62
     5
 63
     7
421
 16777215
 74
     2
 91
        2
 64
     7
 65
     7
 75
     1
175
     1
 42
40.0
 92
        8
 66
     7
 43
1.0
 76
     1
 77
     6
 78
     2
 67
     7
 79
     3
170
     0
171
     0
290
     0
174
     0
 93
        1
 44
0.0
173
     0
291
     0
 45
0.0
  0
VISUALSTYLE
  5
3F
102
{ACAD_REACTORS
330
2A
102
}
102
{ACAD_XDICTIONARY
360
D5
102
}
330
2A
100
AcDbVisualStyle
  2
Sketchy
 70
    24
 71
     1
 72
     2
 73
     2
 90
        0
 40
0.6
 41
30.0
 62
     5
 63
     7
421
 16777215
 74
     2
 91
        2
 64
     7
 65
     7
 75
     1
175
     1
 42
40.0
 92
       11
 66
     7
 43
1.0
 76
     1
 77
     6
 78
     2
 67
     7
 79
     6
170
     0
171
     0
290
     0
174
     0
 93
        1
 44
0.0
173
     0
291
     0
 45
0.0
  0
VISUALSTYLE
  5
37
102
{ACAD_REACTORS
330
2A
102
}
102
{ACAD_XDICTIONARY
360
C5
102
}
330
2A
100
AcDbVisualStyle
  2
Thicken
 70
    13
 71
     2
 72
     2
 73
     0
 90
        0
 40
0.6
 41
30.0
 62
     5
 63
     7
421
 16777215
 74
     1
 91
        4
 64
     7
 65
   257
 75
     1
175
     1
 42
1.0
 92
       12
 66
     7
 43
1.0
 76
     1
 77
     6
 78
     2
 67
     7
 79
     5
170
     0
171
     0
290
     0
174
     0
 93
        1
 44
0.0
173
     0
291
     1
 45
0.0
  0
VISUALSTYLE
  5
30
102
{ACAD_REACTORS
330
2A
102
}
102
{ACAD_XDICTIONARY
360
B7
102
}
330
2A
100
AcDbVisualStyle
  2
Wireframe
 70
     5
 71
     0
 72
     2
 73
     0
 90
        0
 40
0.6
 41
30.0
 62
     5
 63
     7
421
 16777215
 74
     1
 91
        4
 64
     7
 65
   257
 75
     1
175
     1
 42
1.0
 92
        0
 66
   257
 43
1.0
 76
     1
 77
     6
 78
     2
 67
     7
 79
     3
170
     0
171
     0
290
     0
174
     0
 93
        1
 44
0.0
173
     0
291
     0
 45
0.0
  0
VISUALSTYLE
  5
40
102
{ACAD_REACTORS
330
2A
102
}
102
{ACAD_XDICTIONARY
360
D7
102
}
330
2A
100
AcDbVisualStyle
  2
X-Ray
 70
    25
 71
     2
 72
     2
 73
     1
 90
        1
 40
0.5
 41
30.0
 62
     5
 63
     7
421
 16777215
 74
     1
 91
        0
 64
     7
 65
   257
 75
     1
175
     1
 42
1.0
 92
        8
 66
     7
 43
1.0
 76
     1
 77
     6
 78
     2
 67
     7
 79
     3
170
     0
171
     0
290
     0
174
     0
 93
       13
 44
0.0
173
     0
291
     0
 45
0.0
  0
DICTIONARYVAR
  5
AB
102
{ACAD_REACTORS
330
AA
102
}
330
AA
100
DictionaryVariables
280
     0
  1
1:1
  0
DICTIONARYVAR
  5
E4
102
{ACAD_REACTORS
330
AA
102
}
330
AA
100
DictionaryVariables
280
     0
  1
Standard
  0
DICTIONARYVAR
  5
E3
102
{ACAD_REACTORS
330
AA
102
}
330
AA
100
DictionaryVariables
280
     0
  1
Standard
  0
DICTIONARYVAR
  5
AC
102
{ACAD_REACTORS
330
AA
102
}
330
AA
100
DictionaryVariables
280
     0
  1
2
  0
DICTIONARY
  5
E0
330
6C
100
AcDbDictionary
280
     1
281
     1
  3
ACAD_XREC_ROUNDTRIP
360
E1
  0
DICTIONARY
  5
DD
330
6A
100
AcDbDictionary
280
     1
281
     1
  3
ACAD_ROUNDTRIP_2008_TABLESTYLE_CELLSTYLEMAP
360
DE
  0
DICTIONARY
  5
B5
330
2F
100
AcDbDictionary
280
     1
281
     1
  3
ACAD_XREC_ROUNDTRIP
360
B6
  0
DICTIONARY
  5
BB
330
32
100
AcDbDictionary
280
     1
281
     1
  3
ACAD_XREC_ROUNDTRIP
360
BC
  0
DICTIONARY
  5
C3
330
36
100
AcDbDictionary
280
     1
281
     1
  3
ACAD_XREC_ROUNDTRIP
360
C4
  0
DICTIONARY
  5
CB
330
3A
100
AcDbDictionary
280
     1
281
     1
  3
ACAD_XREC_ROUNDTRIP
360
CC
  0
DICTIONARY
  5
BF
330
34
100
AcDbDictionary
280
     1
281
     1
  3
ACAD_XREC_ROUNDTRIP
360
C0
  0
DICTIONARY
  5
C1
330
35
100
AcDbDictionary
280
     1
281
     1
  3
ACAD_XREC_ROUNDTRIP
360
C2
  0
DICTIONARY
  5
D1
330
3D
100
AcDbDictionary
280
     1
281
     1
  3
ACAD_XREC_ROUNDTRIP
360
D2
  0
DICTIONARY
  5
C9
330
39
100
AcDbDictionary
280
     1
281
     1
  3
ACAD_XREC_ROUNDTRIP
360
CA
  0
DICTIONARY
  5
AD
330
2B
100
AcDbDictionary
280
     1
281
     1
  3
ACAD_XREC_ROUNDTRIP
360
AE
  0
DICTIONARY
  5
AF
330
2C
100
AcDbDictionary
280
     1
281
     1
  3
ACAD_XREC_ROUNDTRIP
360
B0
  0
DICTIONARY
  5
B1
330
2D
100
AcDbDictionary
280
     1
281
     1
  3
ACAD_XREC_ROUNDTRIP
360
B2
  0
DICTIONARY
  5
B3
330
2E
100
AcDbDictionary
280
     1
281
     1
  3
ACAD_XREC_ROUNDTRIP
360
B4
  0
DICTIONARY
  5
B9
330
31
100
AcDbDictionary
280
     1
281
     1
  3
ACAD_XREC_ROUNDTRIP
360
BA
  0
DICTIONARY
  5
CD
330
3B
100
AcDbDictionary
280
     1
281
     1
  3
ACAD_XREC_ROUNDTRIP
360
CE
  0
DICTIONARY
  5
C7
330
38
100
AcDbDictionary
280
     1
281
     1
  3
ACAD_XREC_ROUNDTRIP
360
C8
  0
DICTIONARY
  5
CF
330
3C
100
AcDbDictionary
280
     1
281
     1
  3
ACAD_XREC_ROUNDTRIP
360
D0
  0
DICTIONARY
  5
BD
330
33
100
AcDbDictionary
280
     1
281
     1
  3
ACAD_XREC_ROUNDTRIP
360
BE
  0
DICTIONARY
  5
DB
330
42
100
AcDbDictionary
280
     1
281
     1
  3
ACAD_XREC_ROUNDTRIP
360
DC
  0
DICTIONARY
  5
D9
330
41
100
AcDbDictionary
280
     1
281
     1
  3
ACAD_XREC_ROUNDTRIP
360
DA
  0
DICTIONARY
  5
D3
330
3E
100
AcDbDictionary
280
     1
281
     1
  3
ACAD_XREC_ROUNDTRIP
360
D4
  0
DICTIONARY
  5
D5
330
3F
100
AcDbDictionary
280
     1
281
     1
  3
ACAD_XREC_ROUNDTRIP
360
D6
  0
DICTIONARY
  5
C5
330
37
100
AcDbDictionary
280
     1
281
     1
  3
ACAD_XREC_ROUNDTRIP
360
C6
  0
DICTIONARY
  5
B7
330
30
100
AcDbDictionary
280
     1
281
     1
  3
ACAD_XREC_ROUNDTRIP
360
B8
  0
DICTIONARY
  5
D7
330
40
100
AcDbDictionary
280
     1
281
     1
  3
ACAD_XREC_ROUNDTRIP
360
D8
  0
XRECORD
  5
E1
102
{ACAD_REACTORS
330
E0
102
}
330
E0
100
AcDbXrecord
280
     1
102
ACAD_ROUNDTRIP_2010_MLEADER_STYLE
  0
CELLSTYLEMAP
  5
DE
102
{ACAD_REACTORS
330
DD
102
}
330
DD
100
AcDbCellStyleMap
 90
        3
300
CELLSTYLE
  1
TABLEFORMAT_BEGIN
 90
        5
170
     1
 91
        0
 92
    32768
 62
   257
 93
        1
300
CONTENTFORMAT
  1
CONTENTFORMAT_BEGIN
 90
        0
 91
        0
 92
        4
 93
        0
300

 40
0.0
140
1.0
 94
        5
 62
     0
340
11
144
0.25
309
CONTENTFORMAT_END
171
     1
301
MARGIN
  1
CELLMARGIN_BEGIN
 40
0.06
 40
0.06
 40
0.06
 40
0.06
 40
0.06
 40
0.06
309
CELLMARGIN_END
 94
        6
 95
        1
302
GRIDFORMAT
  1
GRIDFORMAT_BEGIN
 90
        0
 91
        1
 62
     0
 92
       -2
340
14
 93
        0
 40
0.045
309
GRIDFORMAT_END
 95
        2
302
GRIDFORMAT
  1
GRIDFORMAT_BEGIN
 90
        0
 91
        1
 62
     0
 92
       -2
340
14
 93
        0
 40
0.045
309
GRIDFORMAT_END
 95
        4
302
GRIDFORMAT
  1
GRIDFORMAT_BEGIN
 90
        0
 91
        1
 62
     0
 92
       -2
340
14
 93
        0
 40
0.045
309
GRIDFORMAT_END
 95
        8
302
GRIDFORMAT
  1
GRIDFORMAT_BEGIN
 90
        0
 91
        1
 62
     0
 92
       -2
340
14
 93
        0
 40
0.045
309
GRIDFORMAT_END
 95
       16
302
GRIDFORMAT
  1
GRIDFORMAT_BEGIN
 90
        0
 91
        1
 62
     0
 92
       -2
340
14
 93
        0
 40
0.045
309
GRIDFORMAT_END
 95
       32
302
GRIDFORMAT
  1
GRIDFORMAT_BEGIN
 90
        0
 91
        1
 62
     0
 92
       -2
340
14
 93
        0
 40
0.045
309
GRIDFORMAT_END
309
TABLEFORMAT_END
  1
CELLSTYLE_BEGIN
 90
        1
 91
        1
300
_TITLE
309
CELLSTYLE_END
300
CELLSTYLE
  1
TABLEFORMAT_BEGIN
 90
        5
170
     1
 91
        0
 92
        0
 62
   257
 93
        1
300
CONTENTFORMAT
  1
CONTENTFORMAT_BEGIN
 90
        0
 91
        0
 92
        4
 93
        0
300

 40
0.0
140
1.0
 94
        5
 62
     0
340
11
144
0.18
309
CONTENTFORMAT_END
171
     1
301
MARGIN
  1
CELLMARGIN_BEGIN
 40
0.06
 40
0.06
 40
0.06
 40
0.06
 40
0.06
 40
0.06
309
CELLMARGIN_END
 94
        6
 95
        1
302
GRIDFORMAT
  1
GRIDFORMAT_BEGIN
 90
        0
 91
        1
 62
     0
 92
       -2
340
14
 93
        0
 40
0.045
309
GRIDFORMAT_END
 95
        2
302
GRIDFORMAT
  1
GRIDFORMAT_BEGIN
 90
        0
 91
        1
 62
     0
 92
       -2
340
14
 93
        0
 40
0.045
309
GRIDFORMAT_END
 95
        4
302
GRIDFORMAT
  1
GRIDFORMAT_BEGIN
 90
        0
 91
        1
 62
     0
 92
       -2
340
14
 93
        0
 40
0.045
309
GRIDFORMAT_END
 95
        8
302
GRIDFORMAT
  1
GRIDFORMAT_BEGIN
 90
        0
 91
        1
 62
     0
 92
       -2
340
14
 93
        0
 40
0.045
309
GRIDFORMAT_END
 95
       16
302
GRIDFORMAT
  1
GRIDFORMAT_BEGIN
 90
        0
 91
        1
 62
     0
 92
       -2
340
14
 93
        0
 40
0.045
309
GRIDFORMAT_END
 95
       32
302
GRIDFORMAT
  1
GRIDFORMAT_BEGIN
 90
        0
 91
        1
 62
     0
 92
       -2
340
14
 93
        0
 40
0.045
309
GRIDFORMAT_END
309
TABLEFORMAT_END
  1
CELLSTYLE_BEGIN
 90
        2
 91
        1
300
_HEADER
309
CELLSTYLE_END
300
CELLSTYLE
  1
TABLEFORMAT_BEGIN
 90
        5
170
     1
 91
        0
 92
        0
 62
   257
 93
        1
300
CONTENTFORMAT
  1
CONTENTFORMAT_BEGIN
 90
        0
 91
        0
 92
        4
 93
        0
300

 40
0.0
140
1.0
 94
        2
 62
     0
340
11
144
0.18
309
CONTENTFORMAT_END
171
     1
301
MARGIN
  1
CELLMARGIN_BEGIN
 40
0.06
 40
0.06
 40
0.06
 40
0.06
 40
0.06
 40
0.06
309
CELLMARGIN_END
 94
        6
 95
        1
302
GRIDFORMAT
  1
GRIDFORMAT_BEGIN
 90
        0
 91
        1
 62
     0
 92
       -2
340
14
 93
        0
 40
0.045
309
GRIDFORMAT_END
 95
        2
302
GRIDFORMAT
  1
GRIDFORMAT_BEGIN
 90
        0
 91
        1
 62
     0
 92
       -2
340
14
 93
        0
 40
0.045
309
GRIDFORMAT_END
 95
        4
302
GRIDFORMAT
  1
GRIDFORMAT_BEGIN
 90
        0
 91
        1
 62
     0
 92
       -2
340
14
 93
        0
 40
0.045
309
GRIDFORMAT_END
 95
        8
302
GRIDFORMAT
  1
GRIDFORMAT_BEGIN
 90
        0
 91
        1
 62
     0
 92
       -2
340
14
 93
        0
 40
0.045
309
GRIDFORMAT_END
 95
       16
302
GRIDFORMAT
  1
GRIDFORMAT_BEGIN
 90
        0
 91
        1
 62
     0
 92
       -2
340
14
 93
        0
 40
0.045
309
GRIDFORMAT_END
 95
       32
302
GRIDFORMAT
  1
GRIDFORMAT_BEGIN
 90
        0
 91
        1
 62
     0
 92
       -2
340
14
 93
        0
 40
0.045
309
GRIDFORMAT_END
309
TABLEFORMAT_END
  1
CELLSTYLE_BEGIN
 90
        3
 91
        2
300
_DATA
309
CELLSTYLE_END
  0
XRECORD
  5
B6
102
{ACAD_REACTORS
330
B5
102
}
330
B5
100
AcDbXrecord
280
     1
102
RTVSPropertyOp0
 70
     1
102
RTVSPropertyOp1
 70
     1
102
RTVSPropertyOp2
 70
     1
102
RTVSPropertyOp3
 70
     1
102
RTVSPropertyOp4
 70
     1
102
RTVSPropertyOp5
 70
     1
102
RTVSPropertyOp6
 70
     1
102
RTVSPropertyOp7
 70
     1
102
RTVSPropertyOp8
 70
     1
102
RTVSPropertyOp9
 70
     1
102
RTVSPropertyOp10
 70
     1
102
RTVSPropertyOp11
 70
     1
102
RTVSPropertyOp12
 70
     1
102
RTVSPropertyOp13
 70
     1
102
RTVSPropertyOp14
 70
     1
102
RTVSPropertyOp15
 70
     1
102
RTVSPropertyOp16
 70
     1
102
RTVSPropertyOp17
 70
     1
102
RTVSPropertyOp18
 70
     1
102
RTVSPropertyOp19
 70
     1
102
RTVSPropertyOp20
 70
     1
102
RTVSPropertyOp21
 70
     1
102
RTVSPropertyOp22
 70
     1
102
RTVSPropertyOp23
 70
     1
102
RTVSPropertyOp24
 70
     1
102
RTVSPropertyOp25
 70
     1
102
RTVSPropertyOp26
 70
     1
102
RTVSPropertyOp27
 70
     1
102
RTVSPropertyOp28
 70
     1
102
RTVSPropertyOp29
 70
     1
102
RTVSPropertyOp30
 70
     1
102
RTVSPropertyOp31
 70
     1
102
RTVSPropertyOp32
 70
     1
102
RTVSPropertyOp33
 70
     1
102
RTVSPropertyOp34
 70
     1
102
RTVSPropertyOp35
 70
     1
102
RTVSPropertyOp36
 70
     1
102
RTVSPropertyOp37
 70
     1
102
RTVSPropertyOp38
 70
     1
102
RTVSPropertyOp39
 70
     1
102
RTVSPropertyOp40
 70
     1
102
RTVSPropertyOp41
 70
     1
102
RTVSPropertyOp42
 70
     1
102
RTVSPropertyOp43
 70
     1
102
RTVSPropertyOp44
 70
     1
102
RTVSPropertyOp45
 70
     1
102
RTVSPropertyOp46
 70
     1
102
RTVSPropertyOp47
 70
     1
102
RTVSPropertyOp48
 70
     1
102
RTVSPropertyOp49
 70
     1
102
RTVSPropertyOp50
 70
     1
102
RTVSPropertyOp51
 70
     0
102
RTVSPropertyOp52
 70
     0
102
RTVSPropertyOp53
 70
     1
102
RTVSPropertyOp54
 70
     1
102
RTVSPropertyOp55
 70
     1
102
RTVSPropertyOp56
 70
     1
102
RTVSPropertyOp57
 70
     1
102
RTVSPost2010Prop28
280
     1
102
RTVSPost2010PropOp28
 70
     1
102
RTVSPost2010Prop29
280
     1
102
RTVSPost2010PropOp29
 70
     1
102
RTVSPost2010Prop30
280
     0
102
RTVSPost2010PropOp30
 70
     1
102
RTVSPost2010Prop31
280
     0
102
RTVSPost2010PropOp31
 70
     1
102
RTVSPost2010Prop32
280
     0
102
RTVSPost2010PropOp32
 70
     1
102
RTVSPost2010Prop33
280
     0
102
RTVSPost2010PropOp33
 70
     1
102
RTVSPost2010Prop34
280
     0
102
RTVSPost2010PropOp34
 70
     1
102
RTVSPost2010Prop35
280
     0
102
RTVSPost2010PropOp35
 70
     1
102
RTVSPost2010Prop36
280
     0
102
RTVSPost2010PropOp36
 70
     1
102
RTVSPost2010Prop37
 90
       50
102
RTVSPost2010PropOp37
 70
     1
102
RTVSPost2010Prop38
140
0.0
102
RTVSPost2010PropOp38
 70
     1
102
RTVSPost2010Prop39
140
1.0
102
RTVSPost2010PropOp39
 70
     1
102
RTVSPost2010Prop40
 90
        0
102
RTVSPost2010PropOp40
 70
     1
102
RTVSPost2010Prop41ColorIndex
 90
       18
102
RTVSPost2010Prop41ColorRGB
 90
        0
102
RTVSPost2010PropOp41
 70
     1
102
RTVSPost2010Prop42
 90
       50
102
RTVSPost2010PropOp42
 70
     1
102
RTVSPost2010Prop43
 90
        3
102
RTVSPost2010PropOp43
 70
     1
102
RTVSPost2010Prop44ColorIndex
 90
        5
102
RTVSPost2010Prop44ColorRGB
 90
      255
102
RTVSPost2010PropOp44
 70
     1
102
RTVSPost2010Prop45
280
     0
102
RTVSPost2010PropOp45
 70
     1
102
RTVSPost2010Prop46
 90
       50
102
RTVSPost2010PropOp46
 70
     1
102
RTVSPost2010Prop47
 90
       50
102
RTVSPost2010PropOp47
 70
     1
102
RTVSPost2010Prop48
 90
       50
102
RTVSPost2010PropOp48
 70
     1
102
RTVSPost2010Prop49
280
     0
102
RTVSPost2010PropOp49
 70
     1
102
RTVSPost2010Prop50
 90
       50
102
RTVSPost2010PropOp50
 70
     1
102
RTVSPost2010Prop51ColorIndex
 90
      256
102
RTVSPost2010Prop51ColorRGB
 90
-16777216
102
RTVSPost2010PropOp51
 70
     0
102
RTVSPost2010Prop52
140
1.0
102
RTVSPost2010PropOp52
 70
     0
102
RTVSPost2010Prop53
 90
        2
102
RTVSPost2010PropOp53
 70
     1
102
RTVSPost2010Prop54
  1
strokes_ogs.tif
102
RTVSPost2010PropOp54
 70
     1
102
RTVSPost2010Prop55
280
     0
102
RTVSPost2010PropOp55
 70
     1
102
RTVSPost2010Prop56
140
1.0
102
RTVSPost2010PropOp56
 70
     1
102
RTVSPost2010Prop57
140
1.0
102
RTVSPost2010PropOp57
 70
     1
  0
XRECORD
  5
BC
102
{ACAD_REACTORS
330
BB
102
}
330
BB
100
AcDbXrecord
280
     1
102
RTVSPropertyOp0
 70
     1
102
RTVSPropertyOp1
 70
     1
102
RTVSPropertyOp2
 70
     1
102
RTVSPropertyOp3
 70
     1
102
RTVSPropertyOp4
 70
     1
102
RTVSPropertyOp5
 70
     1
102
RTVSPropertyOp6
 70
     1
102
RTVSPropertyOp7
 70
     1
102
RTVSPropertyOp8
 70
     1
102
RTVSPropertyOp9
 70
     1
102
RTVSPropertyOp10
 70
     1
102
RTVSPropertyOp11
 70
     1
102
RTVSPropertyOp12
 70
     1
102
RTVSPropertyOp13
 70
     1
102
RTVSPropertyOp14
 70
     1
102
RTVSPropertyOp15
 70
     1
102
RTVSPropertyOp16
 70
     1
102
RTVSPropertyOp17
 70
     1
102
RTVSPropertyOp18
 70
     1
102
RTVSPropertyOp19
 70
     1
102
RTVSPropertyOp20
 70
     1
102
RTVSPropertyOp21
 70
     1
102
RTVSPropertyOp22
 70
     1
102
RTVSPropertyOp23
 70
     1
102
RTVSPropertyOp24
 70
     1
102
RTVSPropertyOp25
 70
     1
102
RTVSPropertyOp26
 70
     1
102
RTVSPropertyOp27
 70
     1
102
RTVSPropertyOp28
 70
     1
102
RTVSPropertyOp29
 70
     1
102
RTVSPropertyOp30
 70
     1
102
RTVSPropertyOp31
 70
     1
102
RTVSPropertyOp32
 70
     1
102
RTVSPropertyOp33
 70
     1
102
RTVSPropertyOp34
 70
     1
102
RTVSPropertyOp35
 70
     1
102
RTVSPropertyOp36
 70
     1
102
RTVSPropertyOp37
 70
     1
102
RTVSPropertyOp38
 70
     1
102
RTVSPropertyOp39
 70
     1
102
RTVSPropertyOp40
 70
     1
102
RTVSPropertyOp41
 70
     1
102
RTVSPropertyOp42
 70
     1
102
RTVSPropertyOp43
 70
     1
102
RTVSPropertyOp44
 70
     1
102
RTVSPropertyOp45
 70
     1
102
RTVSPropertyOp46
 70
     1
102
RTVSPropertyOp47
 70
     1
102
RTVSPropertyOp48
 70
     1
102
RTVSPropertyOp49
 70
     1
102
RTVSPropertyOp50
 70
     1
102
RTVSPropertyOp51
 70
     0
102
RTVSPropertyOp52
 70
     0
102
RTVSPropertyOp53
 70
     1
102
RTVSPropertyOp54
 70
     1
102
RTVSPropertyOp55
 70
     1
102
RTVSPropertyOp56
 70
     1
102
RTVSPropertyOp57
 70
     1
102
RTVSPost2010Prop28
280
     0
102
RTVSPost2010PropOp28
 70
     1
102
RTVSPost2010Prop29
280
     1
102
RTVSPost2010PropOp29
 70
     1
102
RTVSPost2010Prop30
280
     1
102
RTVSPost2010PropOp30
 70
     1
102
RTVSPost2010Prop31
280
     0
102
RTVSPost2010PropOp31
 70
     1
102
RTVSPost2010Prop32
280
     0
102
RTVSPost2010PropOp32
 70
     1
102
RTVSPost2010Prop33
280
     0
102
RTVSPost2010PropOp33
 70
     1
102
RTVSPost2010Prop34
280
     0
102
RTVSPost2010PropOp34
 70
     1
102
RTVSPost2010Prop35
280
     0
102
RTVSPost2010PropOp35
 70
     1
102
RTVSPost2010Prop36
280
     0
102
RTVSPost2010PropOp36
 70
     1
102
RTVSPost2010Prop37
 90
       50
102
RTVSPost2010PropOp37
 70
     1
102
RTVSPost2010Prop38
140
0.0
102
RTVSPost2010PropOp38
 70
     1
102
RTVSPost2010Prop39
140
1.0
102
RTVSPost2010PropOp39
 70
     1
102
RTVSPost2010Prop40
 90
        0
102
RTVSPost2010PropOp40
 70
     1
102
RTVSPost2010Prop41ColorIndex
 90
       18
102
RTVSPost2010Prop41ColorRGB
 90
        0
102
RTVSPost2010PropOp41
 70
     1
102
RTVSPost2010Prop42
 90
       50
102
RTVSPost2010PropOp42
 70
     1
102
RTVSPost2010Prop43
 90
        3
102
RTVSPost2010PropOp43
 70
     1
102
RTVSPost2010Prop44ColorIndex
 90
        5
102
RTVSPost2010Prop44ColorRGB
 90
      255
102
RTVSPost2010PropOp44
 70
     1
102
RTVSPost2010Prop45
280
     0
102
RTVSPost2010PropOp45
 70
     1
102
RTVSPost2010Prop46
 90
       50
102
RTVSPost2010PropOp46
 70
     1
102
RTVSPost2010Prop47
 90
       50
102
RTVSPost2010PropOp47
 70
     1
102
RTVSPost2010Prop48
 90
       50
102
RTVSPost2010PropOp48
 70
     1
102
RTVSPost2010Prop49
280
     0
102
RTVSPost2010PropOp49
 70
     1
102
RTVSPost2010Prop50
 90
       50
102
RTVSPost2010PropOp50
 70
     1
102
RTVSPost2010Prop51ColorIndex
 90
      256
102
RTVSPost2010Prop51ColorRGB
 90
-16777216
102
RTVSPost2010PropOp51
 70
     0
102
RTVSPost2010Prop52
140
1.0
102
RTVSPost2010PropOp52
 70
     0
102
RTVSPost2010Prop53
 90
        2
102
RTVSPost2010PropOp53
 70
     1
102
RTVSPost2010Prop54
  1
strokes_ogs.tif
102
RTVSPost2010PropOp54
 70
     1
102
RTVSPost2010Prop55
280
     0
102
RTVSPost2010PropOp55
 70
     1
102
RTVSPost2010Prop56
140
1.0
102
RTVSPost2010PropOp56
 70
     1
102
RTVSPost2010Prop57
140
1.0
102
RTVSPost2010PropOp57
 70
     1
  0
XRECORD
  5
C4
102
{ACAD_REACTORS
330
C3
102
}
330
C3
100
AcDbXrecord
280
     1
102
RTVSPropertyOp0
 70
     1
102
RTVSPropertyOp1
 70
     1
102
RTVSPropertyOp2
 70
     1
102
RTVSPropertyOp3
 70
     1
102
RTVSPropertyOp4
 70
     1
102
RTVSPropertyOp5
 70
     1
102
RTVSPropertyOp6
 70
     1
102
RTVSPropertyOp7
 70
     1
102
RTVSPropertyOp8
 70
     1
102
RTVSPropertyOp9
 70
     1
102
RTVSPropertyOp10
 70
     1
102
RTVSPropertyOp11
 70
     1
102
RTVSPropertyOp12
 70
     1
102
RTVSPropertyOp13
 70
     1
102
RTVSPropertyOp14
 70
     1
102
RTVSPropertyOp15
 70
     1
102
RTVSPropertyOp16
 70
     1
102
RTVSPropertyOp17
 70
     1
102
RTVSPropertyOp18
 70
     1
102
RTVSPropertyOp19
 70
     1
102
RTVSPropertyOp20
 70
     1
102
RTVSPropertyOp21
 70
     1
102
RTVSPropertyOp22
 70
     1
102
RTVSPropertyOp23
 70
     1
102
RTVSPropertyOp24
 70
     1
102
RTVSPropertyOp25
 70
     1
102
RTVSPropertyOp26
 70
     1
102
RTVSPropertyOp27
 70
     1
102
RTVSPropertyOp28
 70
     1
102
RTVSPropertyOp29
 70
     1
102
RTVSPropertyOp30
 70
     1
102
RTVSPropertyOp31
 70
     1
102
RTVSPropertyOp32
 70
     1
102
RTVSPropertyOp33
 70
     1
102
RTVSPropertyOp34
 70
     1
102
RTVSPropertyOp35
 70
     1
102
RTVSPropertyOp36
 70
     1
102
RTVSPropertyOp37
 70
     1
102
RTVSPropertyOp38
 70
     1
102
RTVSPropertyOp39
 70
     1
102
RTVSPropertyOp40
 70
     1
102
RTVSPropertyOp41
 70
     1
102
RTVSPropertyOp42
 70
     1
102
RTVSPropertyOp43
 70
     1
102
RTVSPropertyOp44
 70
     1
102
RTVSPropertyOp45
 70
     1
102
RTVSPropertyOp46
 70
     1
102
RTVSPropertyOp47
 70
     1
102
RTVSPropertyOp48
 70
     1
102
RTVSPropertyOp49
 70
     1
102
RTVSPropertyOp50
 70
     1
102
RTVSPropertyOp51
 70
     0
102
RTVSPropertyOp52
 70
     0
102
RTVSPropertyOp53
 70
     1
102
RTVSPropertyOp54
 70
     1
102
RTVSPropertyOp55
 70
     1
102
RTVSPropertyOp56
 70
     1
102
RTVSPropertyOp57
 70
     1
102
RTVSPost2010Prop28
280
     0
102
RTVSPost2010PropOp28
 70
     1
102
RTVSPost2010Prop29
280
     1
102
RTVSPost2010PropOp29
 70
     1
102
RTVSPost2010Prop30
280
     1
102
RTVSPost2010PropOp30
 70
     1
102
RTVSPost2010Prop31
280
     0
102
RTVSPost2010PropOp31
 70
     1
102
RTVSPost2010Prop32
280
     0
102
RTVSPost2010PropOp32
 70
     1
102
RTVSPost2010Prop33
280
     0
102
RTVSPost2010PropOp33
 70
     1
102
RTVSPost2010Prop34
280
     0
102
RTVSPost2010PropOp34
 70
     1
102
RTVSPost2010Prop35
280
     0
102
RTVSPost2010PropOp35
 70
     1
102
RTVSPost2010Prop36
280
     0
102
RTVSPost2010PropOp36
 70
     1
102
RTVSPost2010Prop37
 90
       50
102
RTVSPost2010PropOp37
 70
     1
102
RTVSPost2010Prop38
140
0.0
102
RTVSPost2010PropOp38
 70
     1
102
RTVSPost2010Prop39
140
1.0
102
RTVSPost2010PropOp39
 70
     1
102
RTVSPost2010Prop40
 90
        0
102
RTVSPost2010PropOp40
 70
     1
102
RTVSPost2010Prop41ColorIndex
 90
       18
102
RTVSPost2010Prop41ColorRGB
 90
        0
102
RTVSPost2010PropOp41
 70
     1
102
RTVSPost2010Prop42
 90
       50
102
RTVSPost2010PropOp42
 70
     1
102
RTVSPost2010Prop43
 90
        3
102
RTVSPost2010PropOp43
 70
     1
102
RTVSPost2010Prop44ColorIndex
 90
        5
102
RTVSPost2010Prop44ColorRGB
 90
      255
102
RTVSPost2010PropOp44
 70
     1
102
RTVSPost2010Prop45
280
     0
102
RTVSPost2010PropOp45
 70
     1
102
RTVSPost2010Prop46
 90
       50
102
RTVSPost2010PropOp46
 70
     1
102
RTVSPost2010Prop47
 90
       50
102
RTVSPost2010PropOp47
 70
     1
102
RTVSPost2010Prop48
 90
       50
102
RTVSPost2010PropOp48
 70
     1
102
RTVSPost2010Prop49
280
     0
102
RTVSPost2010PropOp49
 70
     1
102
RTVSPost2010Prop50
 90
       50
102
RTVSPost2010PropOp50
 70
     1
102
RTVSPost2010Prop51ColorIndex
 90
      256
102
RTVSPost2010Prop51ColorRGB
 90
-16777216
102
RTVSPost2010PropOp51
 70
     0
102
RTVSPost2010Prop52
140
1.0
102
RTVSPost2010PropOp52
 70
     0
102
RTVSPost2010Prop53
 90
        2
102
RTVSPost2010PropOp53
 70
     1
102
RTVSPost2010Prop54
  1
strokes_ogs.tif
102
RTVSPost2010PropOp54
 70
     1
102
RTVSPost2010Prop55
280
     0
102
RTVSPost2010PropOp55
 70
     1
102
RTVSPost2010Prop56
140
1.0
102
RTVSPost2010PropOp56
 70
     1
102
RTVSPost2010Prop57
140
1.0
102
RTVSPost2010PropOp57
 70
     1
  0
XRECORD
  5
CC
102
{ACAD_REACTORS
330
CB
102
}
330
CB
100
AcDbXrecord
280
     1
102
RTVSPropertyOp0
 70
     1
102
RTVSPropertyOp1
 70
     1
102
RTVSPropertyOp2
 70
     1
102
RTVSPropertyOp3
 70
     1
102
RTVSPropertyOp4
 70
     1
102
RTVSPropertyOp5
 70
     1
102
RTVSPropertyOp6
 70
     1
102
RTVSPropertyOp7
 70
     1
102
RTVSPropertyOp8
 70
     1
102
RTVSPropertyOp9
 70
     1
102
RTVSPropertyOp10
 70
     1
102
RTVSPropertyOp11
 70
     1
102
RTVSPropertyOp12
 70
     1
102
RTVSPropertyOp13
 70
     1
102
RTVSPropertyOp14
 70
     1
102
RTVSPropertyOp15
 70
     1
102
RTVSPropertyOp16
 70
     1
102
RTVSPropertyOp17
 70
     1
102
RTVSPropertyOp18
 70
     1
102
RTVSPropertyOp19
 70
     1
102
RTVSPropertyOp20
 70
     1
102
RTVSPropertyOp21
 70
     1
102
RTVSPropertyOp22
 70
     1
102
RTVSPropertyOp23
 70
     1
102
RTVSPropertyOp24
 70
     1
102
RTVSPropertyOp25
 70
     1
102
RTVSPropertyOp26
 70
     1
102
RTVSPropertyOp27
 70
     1
102
RTVSPropertyOp28
 70
     1
102
RTVSPropertyOp29
 70
     1
102
RTVSPropertyOp30
 70
     1
102
RTVSPropertyOp31
 70
     1
102
RTVSPropertyOp32
 70
     1
102
RTVSPropertyOp33
 70
     1
102
RTVSPropertyOp34
 70
     1
102
RTVSPropertyOp35
 70
     1
102
RTVSPropertyOp36
 70
     1
102
RTVSPropertyOp37
 70
     1
102
RTVSPropertyOp38
 70
     1
102
RTVSPropertyOp39
 70
     1
102
RTVSPropertyOp40
 70
     1
102
RTVSPropertyOp41
 70
     1
102
RTVSPropertyOp42
 70
     1
102
RTVSPropertyOp43
 70
     1
102
RTVSPropertyOp44
 70
     1
102
RTVSPropertyOp45
 70
     1
102
RTVSPropertyOp46
 70
     1
102
RTVSPropertyOp47
 70
     1
102
RTVSPropertyOp48
 70
     1
102
RTVSPropertyOp49
 70
     1
102
RTVSPropertyOp50
 70
     1
102
RTVSPropertyOp51
 70
     0
102
RTVSPropertyOp52
 70
     0
102
RTVSPropertyOp53
 70
     1
102
RTVSPropertyOp54
 70
     1
102
RTVSPropertyOp55
 70
     1
102
RTVSPropertyOp56
 70
     1
102
RTVSPropertyOp57
 70
     1
102
RTVSPost2010Prop28
280
     0
102
RTVSPost2010PropOp28
 70
     1
102
RTVSPost2010Prop29
280
     1
102
RTVSPost2010PropOp29
 70
     1
102
RTVSPost2010Prop30
280
     1
102
RTVSPost2010PropOp30
 70
     1
102
RTVSPost2010Prop31
280
     0
102
RTVSPost2010PropOp31
 70
     1
102
RTVSPost2010Prop32
280
     0
102
RTVSPost2010PropOp32
 70
     1
102
RTVSPost2010Prop33
280
     0
102
RTVSPost2010PropOp33
 70
     1
102
RTVSPost2010Prop34
280
     0
102
RTVSPost2010PropOp34
 70
     1
102
RTVSPost2010Prop35
280
     0
102
RTVSPost2010PropOp35
 70
     1
102
RTVSPost2010Prop36
280
     0
102
RTVSPost2010PropOp36
 70
     1
102
RTVSPost2010Prop37
 90
       50
102
RTVSPost2010PropOp37
 70
     1
102
RTVSPost2010Prop38
140
0.0
102
RTVSPost2010PropOp38
 70
     1
102
RTVSPost2010Prop39
140
1.0
102
RTVSPost2010PropOp39
 70
     1
102
RTVSPost2010Prop40
 90
        0
102
RTVSPost2010PropOp40
 70
     1
102
RTVSPost2010Prop41ColorIndex
 90
       18
102
RTVSPost2010Prop41ColorRGB
 90
        0
102
RTVSPost2010PropOp41
 70
     1
102
RTVSPost2010Prop42
 90
       50
102
RTVSPost2010PropOp42
 70
     1
102
RTVSPost2010Prop43
 90
        3
102
RTVSPost2010PropOp43
 70
     1
102
RTVSPost2010Prop44ColorIndex
 90
        5
102
RTVSPost2010Prop44ColorRGB
 90
      255
102
RTVSPost2010PropOp44
 70
     1
102
RTVSPost2010Prop45
280
     0
102
RTVSPost2010PropOp45
 70
     1
102
RTVSPost2010Prop46
 90
       50
102
RTVSPost2010PropOp46
 70
     1
102
RTVSPost2010Prop47
 90
       50
102
RTVSPost2010PropOp47
 70
     1
102
RTVSPost2010Prop48
 90
       50
102
RTVSPost2010PropOp48
 70
     1
102
RTVSPost2010Prop49
280
     0
102
RTVSPost2010PropOp49
 70
     1
102
RTVSPost2010Prop50
 90
       50
102
RTVSPost2010PropOp50
 70
     1
102
RTVSPost2010Prop51ColorIndex
 90
      256
102
RTVSPost2010Prop51ColorRGB
 90
-16777216
102
RTVSPost2010PropOp51
 70
     0
102
RTVSPost2010Prop52
140
1.0
102
RTVSPost2010PropOp52
 70
     0
102
RTVSPost2010Prop53
 90
        2
102
RTVSPost2010PropOp53
 70
     1
102
RTVSPost2010Prop54
  1
strokes_ogs.tif
102
RTVSPost2010PropOp54
 70
     1
102
RTVSPost2010Prop55
280
     0
102
RTVSPost2010PropOp55
 70
     1
102
RTVSPost2010Prop56
140
1.0
102
RTVSPost2010PropOp56
 70
     1
102
RTVSPost2010Prop57
140
1.0
102
RTVSPost2010PropOp57
 70
     1
  0
XRECORD
  5
C0
102
{ACAD_REACTORS
330
BF
102
}
330
BF
100
AcDbXrecord
280
     1
102
RTVSPropertyOp0
 70
     1
102
RTVSPropertyOp1
 70
     1
102
RTVSPropertyOp2
 70
     1
102
RTVSPropertyOp3
 70
     1
102
RTVSPropertyOp4
 70
     1
102
RTVSPropertyOp5
 70
     1
102
RTVSPropertyOp6
 70
     1
102
RTVSPropertyOp7
 70
     1
102
RTVSPropertyOp8
 70
     1
102
RTVSPropertyOp9
 70
     1
102
RTVSPropertyOp10
 70
     1
102
RTVSPropertyOp11
 70
     1
102
RTVSPropertyOp12
 70
     1
102
RTVSPropertyOp13
 70
     1
102
RTVSPropertyOp14
 70
     1
102
RTVSPropertyOp15
 70
     1
102
RTVSPropertyOp16
 70
     1
102
RTVSPropertyOp17
 70
     1
102
RTVSPropertyOp18
 70
     1
102
RTVSPropertyOp19
 70
     1
102
RTVSPropertyOp20
 70
     1
102
RTVSPropertyOp21
 70
     1
102
RTVSPropertyOp22
 70
     1
102
RTVSPropertyOp23
 70
     1
102
RTVSPropertyOp24
 70
     1
102
RTVSPropertyOp25
 70
     1
102
RTVSPropertyOp26
 70
     1
102
RTVSPropertyOp27
 70
     1
102
RTVSPropertyOp28
 70
     1
102
RTVSPropertyOp29
 70
     1
102
RTVSPropertyOp30
 70
     1
102
RTVSPropertyOp31
 70
     1
102
RTVSPropertyOp32
 70
     1
102
RTVSPropertyOp33
 70
     1
102
RTVSPropertyOp34
 70
     1
102
RTVSPropertyOp35
 70
     1
102
RTVSPropertyOp36
 70
     1
102
RTVSPropertyOp37
 70
     1
102
RTVSPropertyOp38
 70
     1
102
RTVSPropertyOp39
 70
     1
102
RTVSPropertyOp40
 70
     1
102
RTVSPropertyOp41
 70
     1
102
RTVSPropertyOp42
 70
     1
102
RTVSPropertyOp43
 70
     1
102
RTVSPropertyOp44
 70
     1
102
RTVSPropertyOp45
 70
     1
102
RTVSPropertyOp46
 70
     1
102
RTVSPropertyOp47
 70
     1
102
RTVSPropertyOp48
 70
     1
102
RTVSPropertyOp49
 70
     1
102
RTVSPropertyOp50
 70
     1
102
RTVSPropertyOp51
 70
     0
102
RTVSPropertyOp52
 70
     0
102
RTVSPropertyOp53
 70
     1
102
RTVSPropertyOp54
 70
     1
102
RTVSPropertyOp55
 70
     1
102
RTVSPropertyOp56
 70
     1
102
RTVSPropertyOp57
 70
     1
102
RTVSPost2010Prop28
280
     0
102
RTVSPost2010PropOp28
 70
     1
102
RTVSPost2010Prop29
280
     1
102
RTVSPost2010PropOp29
 70
     1
102
RTVSPost2010Prop30
280
     1
102
RTVSPost2010PropOp30
 70
     1
102
RTVSPost2010Prop31
280
     0
102
RTVSPost2010PropOp31
 70
     1
102
RTVSPost2010Prop32
280
     0
102
RTVSPost2010PropOp32
 70
     1
102
RTVSPost2010Prop33
280
     0
102
RTVSPost2010PropOp33
 70
     1
102
RTVSPost2010Prop34
280
     0
102
RTVSPost2010PropOp34
 70
     1
102
RTVSPost2010Prop35
280
     0
102
RTVSPost2010PropOp35
 70
     1
102
RTVSPost2010Prop36
280
     0
102
RTVSPost2010PropOp36
 70
     1
102
RTVSPost2010Prop37
 90
       50
102
RTVSPost2010PropOp37
 70
     1
102
RTVSPost2010Prop38
140
0.0
102
RTVSPost2010PropOp38
 70
     1
102
RTVSPost2010Prop39
140
1.0
102
RTVSPost2010PropOp39
 70
     1
102
RTVSPost2010Prop40
 90
        0
102
RTVSPost2010PropOp40
 70
     1
102
RTVSPost2010Prop41ColorIndex
 90
       18
102
RTVSPost2010Prop41ColorRGB
 90
        0
102
RTVSPost2010PropOp41
 70
     1
102
RTVSPost2010Prop42
 90
       50
102
RTVSPost2010PropOp42
 70
     1
102
RTVSPost2010Prop43
 90
        3
102
RTVSPost2010PropOp43
 70
     1
102
RTVSPost2010Prop44ColorIndex
 90
        5
102
RTVSPost2010Prop44ColorRGB
 90
      255
102
RTVSPost2010PropOp44
 70
     1
102
RTVSPost2010Prop45
280
     0
102
RTVSPost2010PropOp45
 70
     1
102
RTVSPost2010Prop46
 90
       50
102
RTVSPost2010PropOp46
 70
     1
102
RTVSPost2010Prop47
 90
       50
102
RTVSPost2010PropOp47
 70
     1
102
RTVSPost2010Prop48
 90
       50
102
RTVSPost2010PropOp48
 70
     1
102
RTVSPost2010Prop49
280
     0
102
RTVSPost2010PropOp49
 70
     1
102
RTVSPost2010Prop50
 90
       50
102
RTVSPost2010PropOp50
 70
     1
102
RTVSPost2010Prop51ColorIndex
 90
      256
102
RTVSPost2010Prop51ColorRGB
 90
-16777216
102
RTVSPost2010PropOp51
 70
     0
102
RTVSPost2010Prop52
140
1.0
102
RTVSPost2010PropOp52
 70
     0
102
RTVSPost2010Prop53
 90
        2
102
RTVSPost2010PropOp53
 70
     1
102
RTVSPost2010Prop54
  1
strokes_ogs.tif
102
RTVSPost2010PropOp54
 70
     1
102
RTVSPost2010Prop55
280
     0
102
RTVSPost2010PropOp55
 70
     1
102
RTVSPost2010Prop56
140
1.0
102
RTVSPost2010PropOp56
 70
     1
102
RTVSPost2010Prop57
140
1.0
102
RTVSPost2010PropOp57
 70
     1
  0
XRECORD
  5
C2
102
{ACAD_REACTORS
330
C1
102
}
330
C1
100
AcDbXrecord
280
     1
102
RTVSPropertyOp0
 70
     1
102
RTVSPropertyOp1
 70
     1
102
RTVSPropertyOp2
 70
     1
102
RTVSPropertyOp3
 70
     1
102
RTVSPropertyOp4
 70
     1
102
RTVSPropertyOp5
 70
     1
102
RTVSPropertyOp6
 70
     1
102
RTVSPropertyOp7
 70
     1
102
RTVSPropertyOp8
 70
     1
102
RTVSPropertyOp9
 70
     1
102
RTVSPropertyOp10
 70
     1
102
RTVSPropertyOp11
 70
     1
102
RTVSPropertyOp12
 70
     1
102
RTVSPropertyOp13
 70
     1
102
RTVSPropertyOp14
 70
     1
102
RTVSPropertyOp15
 70
     1
102
RTVSPropertyOp16
 70
     1
102
RTVSPropertyOp17
 70
     1
102
RTVSPropertyOp18
 70
     1
102
RTVSPropertyOp19
 70
     1
102
RTVSPropertyOp20
 70
     1
102
RTVSPropertyOp21
 70
     1
102
RTVSPropertyOp22
 70
     1
102
RTVSPropertyOp23
 70
     1
102
RTVSPropertyOp24
 70
     1
102
RTVSPropertyOp25
 70
     1
102
RTVSPropertyOp26
 70
     1
102
RTVSPropertyOp27
 70
     1
102
RTVSPropertyOp28
 70
     1
102
RTVSPropertyOp29
 70
     1
102
RTVSPropertyOp30
 70
     1
102
RTVSPropertyOp31
 70
     1
102
RTVSPropertyOp32
 70
     1
102
RTVSPropertyOp33
 70
     1
102
RTVSPropertyOp34
 70
     1
102
RTVSPropertyOp35
 70
     1
102
RTVSPropertyOp36
 70
     1
102
RTVSPropertyOp37
 70
     1
102
RTVSPropertyOp38
 70
     1
102
RTVSPropertyOp39
 70
     1
102
RTVSPropertyOp40
 70
     1
102
RTVSPropertyOp41
 70
     1
102
RTVSPropertyOp42
 70
     1
102
RTVSPropertyOp43
 70
     1
102
RTVSPropertyOp44
 70
     1
102
RTVSPropertyOp45
 70
     1
102
RTVSPropertyOp46
 70
     1
102
RTVSPropertyOp47
 70
     1
102
RTVSPropertyOp48
 70
     1
102
RTVSPropertyOp49
 70
     1
102
RTVSPropertyOp50
 70
     1
102
RTVSPropertyOp51
 70
     0
102
RTVSPropertyOp52
 70
     0
102
RTVSPropertyOp53
 70
     1
102
RTVSPropertyOp54
 70
     1
102
RTVSPropertyOp55
 70
     1
102
RTVSPropertyOp56
 70
     1
102
RTVSPropertyOp57
 70
     1
102
RTVSPost2010Prop28
280
     0
102
RTVSPost2010PropOp28
 70
     1
102
RTVSPost2010Prop29
280
     1
102
RTVSPost2010PropOp29
 70
     1
102
RTVSPost2010Prop30
280
     1
102
RTVSPost2010PropOp30
 70
     1
102
RTVSPost2010Prop31
280
     0
102
RTVSPost2010PropOp31
 70
     1
102
RTVSPost2010Prop32
280
     0
102
RTVSPost2010PropOp32
 70
     1
102
RTVSPost2010Prop33
280
     0
102
RTVSPost2010PropOp33
 70
     1
102
RTVSPost2010Prop34
280
     0
102
RTVSPost2010PropOp34
 70
     1
102
RTVSPost2010Prop35
280
     0
102
RTVSPost2010PropOp35
 70
     1
102
RTVSPost2010Prop36
280
     0
102
RTVSPost2010PropOp36
 70
     1
102
RTVSPost2010Prop37
 90
       50
102
RTVSPost2010PropOp37
 70
     1
102
RTVSPost2010Prop38
140
0.0
102
RTVSPost2010PropOp38
 70
     1
102
RTVSPost2010Prop39
140
1.0
102
RTVSPost2010PropOp39
 70
     1
102
RTVSPost2010Prop40
 90
        0
102
RTVSPost2010PropOp40
 70
     1
102
RTVSPost2010Prop41ColorIndex
 90
       18
102
RTVSPost2010Prop41ColorRGB
 90
        0
102
RTVSPost2010PropOp41
 70
     1
102
RTVSPost2010Prop42
 90
       50
102
RTVSPost2010PropOp42
 70
     1
102
RTVSPost2010Prop43
 90
        3
102
RTVSPost2010PropOp43
 70
     1
102
RTVSPost2010Prop44ColorIndex
 90
        5
102
RTVSPost2010Prop44ColorRGB
 90
      255
102
RTVSPost2010PropOp44
 70
     1
102
RTVSPost2010Prop45
280
     0
102
RTVSPost2010PropOp45
 70
     1
102
RTVSPost2010Prop46
 90
       50
102
RTVSPost2010PropOp46
 70
     1
102
RTVSPost2010Prop47
 90
       50
102
RTVSPost2010PropOp47
 70
     1
102
RTVSPost2010Prop48
 90
       50
102
RTVSPost2010PropOp48
 70
     1
102
RTVSPost2010Prop49
280
     0
102
RTVSPost2010PropOp49
 70
     1
102
RTVSPost2010Prop50
 90
       50
102
RTVSPost2010PropOp50
 70
     1
102
RTVSPost2010Prop51ColorIndex
 90
      256
102
RTVSPost2010Prop51ColorRGB
 90
-16777216
102
RTVSPost2010PropOp51
 70
     0
102
RTVSPost2010Prop52
140
1.0
102
RTVSPost2010PropOp52
 70
     0
102
RTVSPost2010Prop53
 90
        2
102
RTVSPost2010PropOp53
 70
     1
102
RTVSPost2010Prop54
  1
strokes_ogs.tif
102
RTVSPost2010PropOp54
 70
     1
102
RTVSPost2010Prop55
280
     0
102
RTVSPost2010PropOp55
 70
     1
102
RTVSPost2010Prop56
140
1.0
102
RTVSPost2010PropOp56
 70
     1
102
RTVSPost2010Prop57
140
1.0
102
RTVSPost2010PropOp57
 70
     1
  0
XRECORD
  5
D2
102
{ACAD_REACTORS
330
D1
102
}
330
D1
100
AcDbXrecord
280
     1
102
RTVSPropertyOp0
 70
     0
102
RTVSPropertyOp1
 70
     0
102
RTVSPropertyOp2
 70
     0
102
RTVSPropertyOp3
 70
     0
102
RTVSPropertyOp4
 70
     0
102
RTVSPropertyOp5
 70
     0
102
RTVSPropertyOp6
 70
     0
102
RTVSPropertyOp7
 70
     0
102
RTVSPropertyOp8
 70
     0
102
RTVSPropertyOp9
 70
     0
102
RTVSPropertyOp10
 70
     0
102
RTVSPropertyOp11
 70
     0
102
RTVSPropertyOp12
 70
     0
102
RTVSPropertyOp13
 70
     0
102
RTVSPropertyOp14
 70
     2
102
RTVSPropertyOp15
 70
     0
102
RTVSPropertyOp16
 70
     0
102
RTVSPropertyOp17
 70
     0
102
RTVSPropertyOp18
 70
     0
102
RTVSPropertyOp19
 70
     0
102
RTVSPropertyOp20
 70
     0
102
RTVSPropertyOp21
 70
     0
102
RTVSPropertyOp22
 70
     0
102
RTVSPropertyOp23
 70
     0
102
RTVSPropertyOp24
 70
     0
102
RTVSPropertyOp25
 70
     0
102
RTVSPropertyOp26
 70
     0
102
RTVSPropertyOp27
 70
     0
102
RTVSPropertyOp28
 70
     0
102
RTVSPropertyOp29
 70
     0
102
RTVSPropertyOp30
 70
     0
102
RTVSPropertyOp31
 70
     0
102
RTVSPropertyOp32
 70
     0
102
RTVSPropertyOp33
 70
     0
102
RTVSPropertyOp34
 70
     0
102
RTVSPropertyOp35
 70
     0
102
RTVSPropertyOp36
 70
     0
102
RTVSPropertyOp37
 70
     0
102
RTVSPropertyOp38
 70
     0
102
RTVSPropertyOp39
 70
     0
102
RTVSPropertyOp40
 70
     0
102
RTVSPropertyOp41
 70
     0
102
RTVSPropertyOp42
 70
     0
102
RTVSPropertyOp43
 70
     0
102
RTVSPropertyOp44
 70
     0
102
RTVSPropertyOp45
 70
     0
102
RTVSPropertyOp46
 70
     0
102
RTVSPropertyOp47
 70
     0
102
RTVSPropertyOp48
 70
     0
102
RTVSPropertyOp49
 70
     0
102
RTVSPropertyOp50
 70
     0
102
RTVSPropertyOp51
 70
     0
102
RTVSPropertyOp52
 70
     0
102
RTVSPropertyOp53
 70
     0
102
RTVSPropertyOp54
 70
     0
102
RTVSPropertyOp55
 70
     0
102
RTVSPropertyOp56
 70
     0
102
RTVSPropertyOp57
 70
     0
102
RTVSPost2010Prop28
280
     0
102
RTVSPost2010PropOp28
 70
     0
102
RTVSPost2010Prop29
280
     1
102
RTVSPost2010PropOp29
 70
     0
102
RTVSPost2010Prop30
280
     1
102
RTVSPost2010PropOp30
 70
     0
102
RTVSPost2010Prop31
280
     0
102
RTVSPost2010PropOp31
 70
     0
102
RTVSPost2010Prop32
280
     0
102
RTVSPost2010PropOp32
 70
     0
102
RTVSPost2010Prop33
280
     0
102
RTVSPost2010PropOp33
 70
     0
102
RTVSPost2010Prop34
280
     0
102
RTVSPost2010PropOp34
 70
     0
102
RTVSPost2010Prop35
280
     0
102
RTVSPost2010PropOp35
 70
     0
102
RTVSPost2010Prop36
280
     0
102
RTVSPost2010PropOp36
 70
     0
102
RTVSPost2010Prop37
 90
       50
102
RTVSPost2010PropOp37
 70
     0
102
RTVSPost2010Prop38
140
0.0
102
RTVSPost2010PropOp38
 70
     0
102
RTVSPost2010Prop39
140
1.0
102
RTVSPost2010PropOp39
 70
     0
102
RTVSPost2010Prop40
 90
        0
102
RTVSPost2010PropOp40
 70
     0
102
RTVSPost2010Prop41ColorIndex
 90
       18
102
RTVSPost2010Prop41ColorRGB
 90
        0
102
RTVSPost2010PropOp41
 70
     0
102
RTVSPost2010Prop42
 90
       50
102
RTVSPost2010PropOp42
 70
     0
102
RTVSPost2010Prop43
 90
        3
102
RTVSPost2010PropOp43
 70
     0
102
RTVSPost2010Prop44ColorIndex
 90
        5
102
RTVSPost2010Prop44ColorRGB
 90
      255
102
RTVSPost2010PropOp44
 70
     0
102
RTVSPost2010Prop45
280
     0
102
RTVSPost2010PropOp45
 70
     0
102
RTVSPost2010Prop46
 90
       50
102
RTVSPost2010PropOp46
 70
     0
102
RTVSPost2010Prop47
 90
       50
102
RTVSPost2010PropOp47
 70
     0
102
RTVSPost2010Prop48
 90
       50
102
RTVSPost2010PropOp48
 70
     0
102
RTVSPost2010Prop49
280
     0
102
RTVSPost2010PropOp49
 70
     0
102
RTVSPost2010Prop50
 90
       50
102
RTVSPost2010PropOp50
 70
     0
102
RTVSPost2010Prop51ColorIndex
 90
      256
102
RTVSPost2010Prop51ColorRGB
 90
-16777216
102
RTVSPost2010PropOp51
 70
     0
102
RTVSPost2010Prop52
140
1.0
102
RTVSPost2010PropOp52
 70
     0
102
RTVSPost2010Prop53
 90
        2
102
RTVSPost2010PropOp53
 70
     0
102
RTVSPost2010Prop54
  1
strokes_ogs.tif
102
RTVSPost2010PropOp54
 70
     0
102
RTVSPost2010Prop55
280
     0
102
RTVSPost2010PropOp55
 70
     0
102
RTVSPost2010Prop56
140
1.0
102
RTVSPost2010PropOp56
 70
     0
102
RTVSPost2010Prop57
140
1.0
102
RTVSPost2010PropOp57
 70
     0
  0
XRECORD
  5
CA
102
{ACAD_REACTORS
330
C9
102
}
330
C9
100
AcDbXrecord
280
     1
102
RTVSPropertyOp0
 70
     1
102
RTVSPropertyOp1
 70
     1
102
RTVSPropertyOp2
 70
     1
102
RTVSPropertyOp3
 70
     1
102
RTVSPropertyOp4
 70
     1
102
RTVSPropertyOp5
 70
     1
102
RTVSPropertyOp6
 70
     1
102
RTVSPropertyOp7
 70
     1
102
RTVSPropertyOp8
 70
     1
102
RTVSPropertyOp9
 70
     1
102
RTVSPropertyOp10
 70
     1
102
RTVSPropertyOp11
 70
     1
102
RTVSPropertyOp12
 70
     1
102
RTVSPropertyOp13
 70
     1
102
RTVSPropertyOp14
 70
     1
102
RTVSPropertyOp15
 70
     1
102
RTVSPropertyOp16
 70
     1
102
RTVSPropertyOp17
 70
     1
102
RTVSPropertyOp18
 70
     1
102
RTVSPropertyOp19
 70
     1
102
RTVSPropertyOp20
 70
     1
102
RTVSPropertyOp21
 70
     1
102
RTVSPropertyOp22
 70
     1
102
RTVSPropertyOp23
 70
     1
102
RTVSPropertyOp24
 70
     1
102
RTVSPropertyOp25
 70
     1
102
RTVSPropertyOp26
 70
     1
102
RTVSPropertyOp27
 70
     1
102
RTVSPropertyOp28
 70
     1
102
RTVSPropertyOp29
 70
     1
102
RTVSPropertyOp30
 70
     1
102
RTVSPropertyOp31
 70
     1
102
RTVSPropertyOp32
 70
     1
102
RTVSPropertyOp33
 70
     1
102
RTVSPropertyOp34
 70
     1
102
RTVSPropertyOp35
 70
     1
102
RTVSPropertyOp36
 70
     1
102
RTVSPropertyOp37
 70
     1
102
RTVSPropertyOp38
 70
     1
102
RTVSPropertyOp39
 70
     1
102
RTVSPropertyOp40
 70
     1
102
RTVSPropertyOp41
 70
     1
102
RTVSPropertyOp42
 70
     1
102
RTVSPropertyOp43
 70
     1
102
RTVSPropertyOp44
 70
     1
102
RTVSPropertyOp45
 70
     1
102
RTVSPropertyOp46
 70
     1
102
RTVSPropertyOp47
 70
     1
102
RTVSPropertyOp48
 70
     1
102
RTVSPropertyOp49
 70
     1
102
RTVSPropertyOp50
 70
     1
102
RTVSPropertyOp51
 70
     0
102
RTVSPropertyOp52
 70
     0
102
RTVSPropertyOp53
 70
     1
102
RTVSPropertyOp54
 70
     1
102
RTVSPropertyOp55
 70
     1
102
RTVSPropertyOp56
 70
     1
102
RTVSPropertyOp57
 70
     1
102
RTVSPost2010Prop28
280
     0
102
RTVSPost2010PropOp28
 70
     1
102
RTVSPost2010Prop29
280
     1
102
RTVSPost2010PropOp29
 70
     1
102
RTVSPost2010Prop30
280
     1
102
RTVSPost2010PropOp30
 70
     1
102
RTVSPost2010Prop31
280
     0
102
RTVSPost2010PropOp31
 70
     1
102
RTVSPost2010Prop32
280
     0
102
RTVSPost2010PropOp32
 70
     1
102
RTVSPost2010Prop33
280
     0
102
RTVSPost2010PropOp33
 70
     1
102
RTVSPost2010Prop34
280
     0
102
RTVSPost2010PropOp34
 70
     1
102
RTVSPost2010Prop35
280
     0
102
RTVSPost2010PropOp35
 70
     1
102
RTVSPost2010Prop36
280
     0
102
RTVSPost2010PropOp36
 70
     1
102
RTVSPost2010Prop37
 90
       50
102
RTVSPost2010PropOp37
 70
     1
102
RTVSPost2010Prop38
140
0.0
102
RTVSPost2010PropOp38
 70
     1
102
RTVSPost2010Prop39
140
1.0
102
RTVSPost2010PropOp39
 70
     1
102
RTVSPost2010Prop40
 90
        0
102
RTVSPost2010PropOp40
 70
     1
102
RTVSPost2010Prop41ColorIndex
 90
       18
102
RTVSPost2010Prop41ColorRGB
 90
        0
102
RTVSPost2010PropOp41
 70
     1
102
RTVSPost2010Prop42
 90
       50
102
RTVSPost2010PropOp42
 70
     1
102
RTVSPost2010Prop43
 90
        3
102
RTVSPost2010PropOp43
 70
     1
102
RTVSPost2010Prop44ColorIndex
 90
        5
102
RTVSPost2010Prop44ColorRGB
 90
      255
102
RTVSPost2010PropOp44
 70
     1
102
RTVSPost2010Prop45
280
     0
102
RTVSPost2010PropOp45
 70
     1
102
RTVSPost2010Prop46
 90
       50
102
RTVSPost2010PropOp46
 70
     1
102
RTVSPost2010Prop47
 90
       50
102
RTVSPost2010PropOp47
 70
     1
102
RTVSPost2010Prop48
 90
       50
102
RTVSPost2010PropOp48
 70
     1
102
RTVSPost2010Prop49
280
     0
102
RTVSPost2010PropOp49
 70
     1
102
RTVSPost2010Prop50
 90
       50
102
RTVSPost2010PropOp50
 70
     1
102
RTVSPost2010Prop51ColorIndex
 90
      256
102
RTVSPost2010Prop51ColorRGB
 90
-16777216
102
RTVSPost2010PropOp51
 70
     0
102
RTVSPost2010Prop52
140
1.0
102
RTVSPost2010PropOp52
 70
     0
102
RTVSPost2010Prop53
 90
        2
102
RTVSPost2010PropOp53
 70
     1
102
RTVSPost2010Prop54
  1
strokes_ogs.tif
102
RTVSPost2010PropOp54
 70
     1
102
RTVSPost2010Prop55
280
     0
102
RTVSPost2010PropOp55
 70
     1
102
RTVSPost2010Prop56
140
1.0
102
RTVSPost2010PropOp56
 70
     1
102
RTVSPost2010Prop57
140
1.0
102
RTVSPost2010PropOp57
 70
     1
  0
XRECORD
  5
AE
102
{ACAD_REACTORS
330
AD
102
}
330
AD
100
AcDbXrecord
280
     1
102
RTVSPropertyOp0
 70
     1
102
RTVSPropertyOp1
 70
     1
102
RTVSPropertyOp2
 70
     1
102
RTVSPropertyOp3
 70
     1
102
RTVSPropertyOp4
 70
     1
102
RTVSPropertyOp5
 70
     1
102
RTVSPropertyOp6
 70
     1
102
RTVSPropertyOp7
 70
     1
102
RTVSPropertyOp8
 70
     1
102
RTVSPropertyOp9
 70
     1
102
RTVSPropertyOp10
 70
     1
102
RTVSPropertyOp11
 70
     1
102
RTVSPropertyOp12
 70
     1
102
RTVSPropertyOp13
 70
     1
102
RTVSPropertyOp14
 70
     1
102
RTVSPropertyOp15
 70
     1
102
RTVSPropertyOp16
 70
     1
102
RTVSPropertyOp17
 70
     1
102
RTVSPropertyOp18
 70
     1
102
RTVSPropertyOp19
 70
     1
102
RTVSPropertyOp20
 70
     1
102
RTVSPropertyOp21
 70
     1
102
RTVSPropertyOp22
 70
     1
102
RTVSPropertyOp23
 70
     1
102
RTVSPropertyOp24
 70
     1
102
RTVSPropertyOp25
 70
     1
102
RTVSPropertyOp26
 70
     1
102
RTVSPropertyOp27
 70
     1
102
RTVSPropertyOp28
 70
     1
102
RTVSPropertyOp29
 70
     1
102
RTVSPropertyOp30
 70
     1
102
RTVSPropertyOp31
 70
     1
102
RTVSPropertyOp32
 70
     1
102
RTVSPropertyOp33
 70
     1
102
RTVSPropertyOp34
 70
     1
102
RTVSPropertyOp35
 70
     1
102
RTVSPropertyOp36
 70
     1
102
RTVSPropertyOp37
 70
     1
102
RTVSPropertyOp38
 70
     1
102
RTVSPropertyOp39
 70
     1
102
RTVSPropertyOp40
 70
     1
102
RTVSPropertyOp41
 70
     1
102
RTVSPropertyOp42
 70
     1
102
RTVSPropertyOp43
 70
     1
102
RTVSPropertyOp44
 70
     1
102
RTVSPropertyOp45
 70
     1
102
RTVSPropertyOp46
 70
     1
102
RTVSPropertyOp47
 70
     1
102
RTVSPropertyOp48
 70
     1
102
RTVSPropertyOp49
 70
     1
102
RTVSPropertyOp50
 70
     1
102
RTVSPropertyOp51
 70
     0
102
RTVSPropertyOp52
 70
     0
102
RTVSPropertyOp53
 70
     1
102
RTVSPropertyOp54
 70
     1
102
RTVSPropertyOp55
 70
     1
102
RTVSPropertyOp56
 70
     1
102
RTVSPropertyOp57
 70
     1
102
RTVSPost2010Prop28
280
     0
102
RTVSPost2010PropOp28
 70
     1
102
RTVSPost2010Prop29
280
     1
102
RTVSPost2010PropOp29
 70
     1
102
RTVSPost2010Prop30
280
     1
102
RTVSPost2010PropOp30
 70
     1
102
RTVSPost2010Prop31
280
     0
102
RTVSPost2010PropOp31
 70
     1
102
RTVSPost2010Prop32
280
     0
102
RTVSPost2010PropOp32
 70
     1
102
RTVSPost2010Prop33
280
     0
102
RTVSPost2010PropOp33
 70
     1
102
RTVSPost2010Prop34
280
     0
102
RTVSPost2010PropOp34
 70
     1
102
RTVSPost2010Prop35
280
     0
102
RTVSPost2010PropOp35
 70
     1
102
RTVSPost2010Prop36
280
     0
102
RTVSPost2010PropOp36
 70
     1
102
RTVSPost2010Prop37
 90
       50
102
RTVSPost2010PropOp37
 70
     1
102
RTVSPost2010Prop38
140
0.0
102
RTVSPost2010PropOp38
 70
     1
102
RTVSPost2010Prop39
140
1.0
102
RTVSPost2010PropOp39
 70
     1
102
RTVSPost2010Prop40
 90
        0
102
RTVSPost2010PropOp40
 70
     1
102
RTVSPost2010Prop41ColorIndex
 90
       18
102
RTVSPost2010Prop41ColorRGB
 90
        0
102
RTVSPost2010PropOp41
 70
     1
102
RTVSPost2010Prop42
 90
       50
102
RTVSPost2010PropOp42
 70
     1
102
RTVSPost2010Prop43
 90
        3
102
RTVSPost2010PropOp43
 70
     1
102
RTVSPost2010Prop44ColorIndex
 90
        5
102
RTVSPost2010Prop44ColorRGB
 90
      255
102
RTVSPost2010PropOp44
 70
     1
102
RTVSPost2010Prop45
280
     0
102
RTVSPost2010PropOp45
 70
     1
102
RTVSPost2010Prop46
 90
       50
102
RTVSPost2010PropOp46
 70
     1
102
RTVSPost2010Prop47
 90
       50
102
RTVSPost2010PropOp47
 70
     1
102
RTVSPost2010Prop48
 90
       50
102
RTVSPost2010PropOp48
 70
     1
102
RTVSPost2010Prop49
280
     0
102
RTVSPost2010PropOp49
 70
     1
102
RTVSPost2010Prop50
 90
       50
102
RTVSPost2010PropOp50
 70
     1
102
RTVSPost2010Prop51ColorIndex
 90
      256
102
RTVSPost2010Prop51ColorRGB
 90
-16777216
102
RTVSPost2010PropOp51
 70
     0
102
RTVSPost2010Prop52
140
1.0
102
RTVSPost2010PropOp52
 70
     0
102
RTVSPost2010Prop53
 90
        2
102
RTVSPost2010PropOp53
 70
     1
102
RTVSPost2010Prop54
  1
strokes_ogs.tif
102
RTVSPost2010PropOp54
 70
     1
102
RTVSPost2010Prop55
280
     0
102
RTVSPost2010PropOp55
 70
     1
102
RTVSPost2010Prop56
140
1.0
102
RTVSPost2010PropOp56
 70
     1
102
RTVSPost2010Prop57
140
1.0
102
RTVSPost2010PropOp57
 70
     1
  0
XRECORD
  5
B0
102
{ACAD_REACTORS
330
AF
102
}
330
AF
100
AcDbXrecord
280
     1
102
RTVSPropertyOp0
 70
     1
102
RTVSPropertyOp1
 70
     1
102
RTVSPropertyOp2
 70
     1
102
RTVSPropertyOp3
 70
     1
102
RTVSPropertyOp4
 70
     1
102
RTVSPropertyOp5
 70
     1
102
RTVSPropertyOp6
 70
     1
102
RTVSPropertyOp7
 70
     1
102
RTVSPropertyOp8
 70
     1
102
RTVSPropertyOp9
 70
     1
102
RTVSPropertyOp10
 70
     1
102
RTVSPropertyOp11
 70
     1
102
RTVSPropertyOp12
 70
     1
102
RTVSPropertyOp13
 70
     1
102
RTVSPropertyOp14
 70
     1
102
RTVSPropertyOp15
 70
     1
102
RTVSPropertyOp16
 70
     1
102
RTVSPropertyOp17
 70
     1
102
RTVSPropertyOp18
 70
     1
102
RTVSPropertyOp19
 70
     1
102
RTVSPropertyOp20
 70
     1
102
RTVSPropertyOp21
 70
     1
102
RTVSPropertyOp22
 70
     1
102
RTVSPropertyOp23
 70
     1
102
RTVSPropertyOp24
 70
     1
102
RTVSPropertyOp25
 70
     1
102
RTVSPropertyOp26
 70
     1
102
RTVSPropertyOp27
 70
     1
102
RTVSPropertyOp28
 70
     1
102
RTVSPropertyOp29
 70
     1
102
RTVSPropertyOp30
 70
     1
102
RTVSPropertyOp31
 70
     1
102
RTVSPropertyOp32
 70
     1
102
RTVSPropertyOp33
 70
     1
102
RTVSPropertyOp34
 70
     1
102
RTVSPropertyOp35
 70
     1
102
RTVSPropertyOp36
 70
     1
102
RTVSPropertyOp37
 70
     1
102
RTVSPropertyOp38
 70
     1
102
RTVSPropertyOp39
 70
     1
102
RTVSPropertyOp40
 70
     1
102
RTVSPropertyOp41
 70
     1
102
RTVSPropertyOp42
 70
     1
102
RTVSPropertyOp43
 70
     1
102
RTVSPropertyOp44
 70
     1
102
RTVSPropertyOp45
 70
     1
102
RTVSPropertyOp46
 70
     1
102
RTVSPropertyOp47
 70
     1
102
RTVSPropertyOp48
 70
     1
102
RTVSPropertyOp49
 70
     1
102
RTVSPropertyOp50
 70
     1
102
RTVSPropertyOp51
 70
     0
102
RTVSPropertyOp52
 70
     0
102
RTVSPropertyOp53
 70
     1
102
RTVSPropertyOp54
 70
     1
102
RTVSPropertyOp55
 70
     1
102
RTVSPropertyOp56
 70
     1
102
RTVSPropertyOp57
 70
     1
102
RTVSPost2010Prop28
280
     0
102
RTVSPost2010PropOp28
 70
     1
102
RTVSPost2010Prop29
280
     1
102
RTVSPost2010PropOp29
 70
     1
102
RTVSPost2010Prop30
280
     1
102
RTVSPost2010PropOp30
 70
     1
102
RTVSPost2010Prop31
280
     0
102
RTVSPost2010PropOp31
 70
     1
102
RTVSPost2010Prop32
280
     0
102
RTVSPost2010PropOp32
 70
     1
102
RTVSPost2010Prop33
280
     0
102
RTVSPost2010PropOp33
 70
     1
102
RTVSPost2010Prop34
280
     0
102
RTVSPost2010PropOp34
 70
     1
102
RTVSPost2010Prop35
280
     0
102
RTVSPost2010PropOp35
 70
     1
102
RTVSPost2010Prop36
280
     0
102
RTVSPost2010PropOp36
 70
     1
102
RTVSPost2010Prop37
 90
       50
102
RTVSPost2010PropOp37
 70
     1
102
RTVSPost2010Prop38
140
0.0
102
RTVSPost2010PropOp38
 70
     1
102
RTVSPost2010Prop39
140
1.0
102
RTVSPost2010PropOp39
 70
     1
102
RTVSPost2010Prop40
 90
        0
102
RTVSPost2010PropOp40
 70
     1
102
RTVSPost2010Prop41ColorIndex
 90
       18
102
RTVSPost2010Prop41ColorRGB
 90
        0
102
RTVSPost2010PropOp41
 70
     1
102
RTVSPost2010Prop42
 90
       50
102
RTVSPost2010PropOp42
 70
     1
102
RTVSPost2010Prop43
 90
        3
102
RTVSPost2010PropOp43
 70
     1
102
RTVSPost2010Prop44ColorIndex
 90
        5
102
RTVSPost2010Prop44ColorRGB
 90
      255
102
RTVSPost2010PropOp44
 70
     1
102
RTVSPost2010Prop45
280
     0
102
RTVSPost2010PropOp45
 70
     1
102
RTVSPost2010Prop46
 90
       50
102
RTVSPost2010PropOp46
 70
     1
102
RTVSPost2010Prop47
 90
       50
102
RTVSPost2010PropOp47
 70
     1
102
RTVSPost2010Prop48
 90
       50
102
RTVSPost2010PropOp48
 70
     1
102
RTVSPost2010Prop49
280
     0
102
RTVSPost2010PropOp49
 70
     1
102
RTVSPost2010Prop50
 90
       50
102
RTVSPost2010PropOp50
 70
     1
102
RTVSPost2010Prop51ColorIndex
 90
      256
102
RTVSPost2010Prop51ColorRGB
 90
-16777216
102
RTVSPost2010PropOp51
 70
     0
102
RTVSPost2010Prop52
140
1.0
102
RTVSPost2010PropOp52
 70
     0
102
RTVSPost2010Prop53
 90
        2
102
RTVSPost2010PropOp53
 70
     1
102
RTVSPost2010Prop54
  1
strokes_ogs.tif
102
RTVSPost2010PropOp54
 70
     1
102
RTVSPost2010Prop55
280
     0
102
RTVSPost2010PropOp55
 70
     1
102
RTVSPost2010Prop56
140
1.0
102
RTVSPost2010PropOp56
 70
     1
102
RTVSPost2010Prop57
140
1.0
102
RTVSPost2010PropOp57
 70
     1
  0
XRECORD
  5
B2
102
{ACAD_REACTORS
330
B1
102
}
330
B1
100
AcDbXrecord
280
     1
102
RTVSPropertyOp0
 70
     1
102
RTVSPropertyOp1
 70
     1
102
RTVSPropertyOp2
 70
     1
102
RTVSPropertyOp3
 70
     1
102
RTVSPropertyOp4
 70
     1
102
RTVSPropertyOp5
 70
     1
102
RTVSPropertyOp6
 70
     1
102
RTVSPropertyOp7
 70
     1
102
RTVSPropertyOp8
 70
     1
102
RTVSPropertyOp9
 70
     1
102
RTVSPropertyOp10
 70
     1
102
RTVSPropertyOp11
 70
     1
102
RTVSPropertyOp12
 70
     1
102
RTVSPropertyOp13
 70
     1
102
RTVSPropertyOp14
 70
     1
102
RTVSPropertyOp15
 70
     1
102
RTVSPropertyOp16
 70
     1
102
RTVSPropertyOp17
 70
     1
102
RTVSPropertyOp18
 70
     1
102
RTVSPropertyOp19
 70
     1
102
RTVSPropertyOp20
 70
     1
102
RTVSPropertyOp21
 70
     1
102
RTVSPropertyOp22
 70
     1
102
RTVSPropertyOp23
 70
     1
102
RTVSPropertyOp24
 70
     1
102
RTVSPropertyOp25
 70
     1
102
RTVSPropertyOp26
 70
     1
102
RTVSPropertyOp27
 70
     1
102
RTVSPropertyOp28
 70
     1
102
RTVSPropertyOp29
 70
     1
102
RTVSPropertyOp30
 70
     1
102
RTVSPropertyOp31
 70
     1
102
RTVSPropertyOp32
 70
     1
102
RTVSPropertyOp33
 70
     1
102
RTVSPropertyOp34
 70
     1
102
RTVSPropertyOp35
 70
     1
102
RTVSPropertyOp36
 70
     1
102
RTVSPropertyOp37
 70
     1
102
RTVSPropertyOp38
 70
     1
102
RTVSPropertyOp39
 70
     1
102
RTVSPropertyOp40
 70
     1
102
RTVSPropertyOp41
 70
     1
102
RTVSPropertyOp42
 70
     1
102
RTVSPropertyOp43
 70
     1
102
RTVSPropertyOp44
 70
     1
102
RTVSPropertyOp45
 70
     1
102
RTVSPropertyOp46
 70
     1
102
RTVSPropertyOp47
 70
     1
102
RTVSPropertyOp48
 70
     1
102
RTVSPropertyOp49
 70
     1
102
RTVSPropertyOp50
 70
     1
102
RTVSPropertyOp51
 70
     0
102
RTVSPropertyOp52
 70
     0
102
RTVSPropertyOp53
 70
     1
102
RTVSPropertyOp54
 70
     1
102
RTVSPropertyOp55
 70
     1
102
RTVSPropertyOp56
 70
     1
102
RTVSPropertyOp57
 70
     1
102
RTVSPost2010Prop28
280
     0
102
RTVSPost2010PropOp28
 70
     1
102
RTVSPost2010Prop29
280
     1
102
RTVSPost2010PropOp29
 70
     1
102
RTVSPost2010Prop30
280
     1
102
RTVSPost2010PropOp30
 70
     1
102
RTVSPost2010Prop31
280
     0
102
RTVSPost2010PropOp31
 70
     1
102
RTVSPost2010Prop32
280
     0
102
RTVSPost2010PropOp32
 70
     1
102
RTVSPost2010Prop33
280
     0
102
RTVSPost2010PropOp33
 70
     1
102
RTVSPost2010Prop34
280
     0
102
RTVSPost2010PropOp34
 70
     1
102
RTVSPost2010Prop35
280
     0
102
RTVSPost2010PropOp35
 70
     1
102
RTVSPost2010Prop36
280
     0
102
RTVSPost2010PropOp36
 70
     1
102
RTVSPost2010Prop37
 90
       50
102
RTVSPost2010PropOp37
 70
     1
102
RTVSPost2010Prop38
140
0.0
102
RTVSPost2010PropOp38
 70
     1
102
RTVSPost2010Prop39
140
1.0
102
RTVSPost2010PropOp39
 70
     1
102
RTVSPost2010Prop40
 90
        0
102
RTVSPost2010PropOp40
 70
     1
102
RTVSPost2010Prop41ColorIndex
 90
       18
102
RTVSPost2010Prop41ColorRGB
 90
        0
102
RTVSPost2010PropOp41
 70
     1
102
RTVSPost2010Prop42
 90
       50
102
RTVSPost2010PropOp42
 70
     1
102
RTVSPost2010Prop43
 90
        3
102
RTVSPost2010PropOp43
 70
     1
102
RTVSPost2010Prop44ColorIndex
 90
        5
102
RTVSPost2010Prop44ColorRGB
 90
      255
102
RTVSPost2010PropOp44
 70
     1
102
RTVSPost2010Prop45
280
     0
102
RTVSPost2010PropOp45
 70
     1
102
RTVSPost2010Prop46
 90
       50
102
RTVSPost2010PropOp46
 70
     1
102
RTVSPost2010Prop47
 90
       50
102
RTVSPost2010PropOp47
 70
     1
102
RTVSPost2010Prop48
 90
       50
102
RTVSPost2010PropOp48
 70
     1
102
RTVSPost2010Prop49
280
     0
102
RTVSPost2010PropOp49
 70
     1
102
RTVSPost2010Prop50
 90
       50
102
RTVSPost2010PropOp50
 70
     1
102
RTVSPost2010Prop51ColorIndex
 90
      256
102
RTVSPost2010Prop51ColorRGB
 90
-16777216
102
RTVSPost2010PropOp51
 70
     0
102
RTVSPost2010Prop52
140
1.0
102
RTVSPost2010PropOp52
 70
     0
102
RTVSPost2010Prop53
 90
        2
102
RTVSPost2010PropOp53
 70
     1
102
RTVSPost2010Prop54
  1
strokes_ogs.tif
102
RTVSPost2010PropOp54
 70
     1
102
RTVSPost2010Prop55
280
     0
102
RTVSPost2010PropOp55
 70
     1
102
RTVSPost2010Prop56
140
1.0
102
RTVSPost2010PropOp56
 70
     1
102
RTVSPost2010Prop57
140
1.0
102
RTVSPost2010PropOp57
 70
     1
  0
XRECORD
  5
B4
102
{ACAD_REACTORS
330
B3
102
}
330
B3
100
AcDbXrecord
280
     1
102
RTVSPropertyOp0
 70
     1
102
RTVSPropertyOp1
 70
     1
102
RTVSPropertyOp2
 70
     1
102
RTVSPropertyOp3
 70
     1
102
RTVSPropertyOp4
 70
     1
102
RTVSPropertyOp5
 70
     1
102
RTVSPropertyOp6
 70
     1
102
RTVSPropertyOp7
 70
     1
102
RTVSPropertyOp8
 70
     1
102
RTVSPropertyOp9
 70
     1
102
RTVSPropertyOp10
 70
     1
102
RTVSPropertyOp11
 70
     1
102
RTVSPropertyOp12
 70
     1
102
RTVSPropertyOp13
 70
     1
102
RTVSPropertyOp14
 70
     1
102
RTVSPropertyOp15
 70
     1
102
RTVSPropertyOp16
 70
     1
102
RTVSPropertyOp17
 70
     1
102
RTVSPropertyOp18
 70
     1
102
RTVSPropertyOp19
 70
     1
102
RTVSPropertyOp20
 70
     1
102
RTVSPropertyOp21
 70
     1
102
RTVSPropertyOp22
 70
     1
102
RTVSPropertyOp23
 70
     1
102
RTVSPropertyOp24
 70
     1
102
RTVSPropertyOp25
 70
     1
102
RTVSPropertyOp26
 70
     1
102
RTVSPropertyOp27
 70
     1
102
RTVSPropertyOp28
 70
     1
102
RTVSPropertyOp29
 70
     1
102
RTVSPropertyOp30
 70
     1
102
RTVSPropertyOp31
 70
     1
102
RTVSPropertyOp32
 70
     1
102
RTVSPropertyOp33
 70
     1
102
RTVSPropertyOp34
 70
     1
102
RTVSPropertyOp35
 70
     1
102
RTVSPropertyOp36
 70
     1
102
RTVSPropertyOp37
 70
     1
102
RTVSPropertyOp38
 70
     1
102
RTVSPropertyOp39
 70
     1
102
RTVSPropertyOp40
 70
     1
102
RTVSPropertyOp41
 70
     1
102
RTVSPropertyOp42
 70
     1
102
RTVSPropertyOp43
 70
     1
102
RTVSPropertyOp44
 70
     1
102
RTVSPropertyOp45
 70
     1
102
RTVSPropertyOp46
 70
     1
102
RTVSPropertyOp47
 70
     1
102
RTVSPropertyOp48
 70
     1
102
RTVSPropertyOp49
 70
     1
102
RTVSPropertyOp50
 70
     1
102
RTVSPropertyOp51
 70
     0
102
RTVSPropertyOp52
 70
     0
102
RTVSPropertyOp53
 70
     1
102
RTVSPropertyOp54
 70
     1
102
RTVSPropertyOp55
 70
     1
102
RTVSPropertyOp56
 70
     1
102
RTVSPropertyOp57
 70
     1
102
RTVSPost2010Prop28
280
     0
102
RTVSPost2010PropOp28
 70
     1
102
RTVSPost2010Prop29
280
     1
102
RTVSPost2010PropOp29
 70
     1
102
RTVSPost2010Prop30
280
     1
102
RTVSPost2010PropOp30
 70
     1
102
RTVSPost2010Prop31
280
     0
102
RTVSPost2010PropOp31
 70
     1
102
RTVSPost2010Prop32
280
     0
102
RTVSPost2010PropOp32
 70
     1
102
RTVSPost2010Prop33
280
     0
102
RTVSPost2010PropOp33
 70
     1
102
RTVSPost2010Prop34
280
     0
102
RTVSPost2010PropOp34
 70
     1
102
RTVSPost2010Prop35
280
     0
102
RTVSPost2010PropOp35
 70
     1
102
RTVSPost2010Prop36
280
     0
102
RTVSPost2010PropOp36
 70
     1
102
RTVSPost2010Prop37
 90
       50
102
RTVSPost2010PropOp37
 70
     1
102
RTVSPost2010Prop38
140
0.0
102
RTVSPost2010PropOp38
 70
     1
102
RTVSPost2010Prop39
140
1.0
102
RTVSPost2010PropOp39
 70
     1
102
RTVSPost2010Prop40
 90
        0
102
RTVSPost2010PropOp40
 70
     1
102
RTVSPost2010Prop41ColorIndex
 90
       18
102
RTVSPost2010Prop41ColorRGB
 90
        0
102
RTVSPost2010PropOp41
 70
     1
102
RTVSPost2010Prop42
 90
       50
102
RTVSPost2010PropOp42
 70
     1
102
RTVSPost2010Prop43
 90
        3
102
RTVSPost2010PropOp43
 70
     1
102
RTVSPost2010Prop44ColorIndex
 90
        5
102
RTVSPost2010Prop44ColorRGB
 90
      255
102
RTVSPost2010PropOp44
 70
     1
102
RTVSPost2010Prop45
280
     0
102
RTVSPost2010PropOp45
 70
     1
102
RTVSPost2010Prop46
 90
       50
102
RTVSPost2010PropOp46
 70
     1
102
RTVSPost2010Prop47
 90
       50
102
RTVSPost2010PropOp47
 70
     1
102
RTVSPost2010Prop48
 90
       50
102
RTVSPost2010PropOp48
 70
     1
102
RTVSPost2010Prop49
280
     0
102
RTVSPost2010PropOp49
 70
     1
102
RTVSPost2010Prop50
 90
       50
102
RTVSPost2010PropOp50
 70
     1
102
RTVSPost2010Prop51ColorIndex
 90
      256
102
RTVSPost2010Prop51ColorRGB
 90
-16777216
102
RTVSPost2010PropOp51
 70
     0
102
RTVSPost2010Prop52
140
1.0
102
RTVSPost2010PropOp52
 70
     0
102
RTVSPost2010Prop53
 90
        2
102
RTVSPost2010PropOp53
 70
     1
102
RTVSPost2010Prop54
  1
strokes_ogs.tif
102
RTVSPost2010PropOp54
 70
     1
102
RTVSPost2010Prop55
280
     0
102
RTVSPost2010PropOp55
 70
     1
102
RTVSPost2010Prop56
140
1.0
102
RTVSPost2010PropOp56
 70
     1
102
RTVSPost2010Prop57
140
1.0
102
RTVSPost2010PropOp57
 70
     1
  0
XRECORD
  5
BA
102
{ACAD_REACTORS
330
B9
102
}
330
B9
100
AcDbXrecord
280
     1
102
RTVSPropertyOp0
 70
     1
102
RTVSPropertyOp1
 70
     1
102
RTVSPropertyOp2
 70
     1
102
RTVSPropertyOp3
 70
     1
102
RTVSPropertyOp4
 70
     1
102
RTVSPropertyOp5
 70
     1
102
RTVSPropertyOp6
 70
     1
102
RTVSPropertyOp7
 70
     1
102
RTVSPropertyOp8
 70
     1
102
RTVSPropertyOp9
 70
     1
102
RTVSPropertyOp10
 70
     1
102
RTVSPropertyOp11
 70
     1
102
RTVSPropertyOp12
 70
     1
102
RTVSPropertyOp13
 70
     1
102
RTVSPropertyOp14
 70
     1
102
RTVSPropertyOp15
 70
     1
102
RTVSPropertyOp16
 70
     1
102
RTVSPropertyOp17
 70
     1
102
RTVSPropertyOp18
 70
     1
102
RTVSPropertyOp19
 70
     1
102
RTVSPropertyOp20
 70
     1
102
RTVSPropertyOp21
 70
     1
102
RTVSPropertyOp22
 70
     1
102
RTVSPropertyOp23
 70
     1
102
RTVSPropertyOp24
 70
     1
102
RTVSPropertyOp25
 70
     1
102
RTVSPropertyOp26
 70
     1
102
RTVSPropertyOp27
 70
     1
102
RTVSPropertyOp28
 70
     1
102
RTVSPropertyOp29
 70
     1
102
RTVSPropertyOp30
 70
     1
102
RTVSPropertyOp31
 70
     1
102
RTVSPropertyOp32
 70
     1
102
RTVSPropertyOp33
 70
     1
102
RTVSPropertyOp34
 70
     1
102
RTVSPropertyOp35
 70
     1
102
RTVSPropertyOp36
 70
     1
102
RTVSPropertyOp37
 70
     1
102
RTVSPropertyOp38
 70
     1
102
RTVSPropertyOp39
 70
     1
102
RTVSPropertyOp40
 70
     1
102
RTVSPropertyOp41
 70
     1
102
RTVSPropertyOp42
 70
     1
102
RTVSPropertyOp43
 70
     1
102
RTVSPropertyOp44
 70
     1
102
RTVSPropertyOp45
 70
     1
102
RTVSPropertyOp46
 70
     1
102
RTVSPropertyOp47
 70
     1
102
RTVSPropertyOp48
 70
     1
102
RTVSPropertyOp49
 70
     1
102
RTVSPropertyOp50
 70
     1
102
RTVSPropertyOp51
 70
     0
102
RTVSPropertyOp52
 70
     0
102
RTVSPropertyOp53
 70
     1
102
RTVSPropertyOp54
 70
     1
102
RTVSPropertyOp55
 70
     1
102
RTVSPropertyOp56
 70
     1
102
RTVSPropertyOp57
 70
     1
102
RTVSPost2010Prop28
280
     0
102
RTVSPost2010PropOp28
 70
     1
102
RTVSPost2010Prop29
280
     1
102
RTVSPost2010PropOp29
 70
     1
102
RTVSPost2010Prop30
280
     1
102
RTVSPost2010PropOp30
 70
     1
102
RTVSPost2010Prop31
280
     0
102
RTVSPost2010PropOp31
 70
     1
102
RTVSPost2010Prop32
280
     0
102
RTVSPost2010PropOp32
 70
     1
102
RTVSPost2010Prop33
280
     0
102
RTVSPost2010PropOp33
 70
     1
102
RTVSPost2010Prop34
280
     0
102
RTVSPost2010PropOp34
 70
     1
102
RTVSPost2010Prop35
280
     0
102
RTVSPost2010PropOp35
 70
     1
102
RTVSPost2010Prop36
280
     0
102
RTVSPost2010PropOp36
 70
     1
102
RTVSPost2010Prop37
 90
       50
102
RTVSPost2010PropOp37
 70
     1
102
RTVSPost2010Prop38
140
0.0
102
RTVSPost2010PropOp38
 70
     1
102
RTVSPost2010Prop39
140
1.0
102
RTVSPost2010PropOp39
 70
     1
102
RTVSPost2010Prop40
 90
        0
102
RTVSPost2010PropOp40
 70
     1
102
RTVSPost2010Prop41ColorIndex
 90
       18
102
RTVSPost2010Prop41ColorRGB
 90
        0
102
RTVSPost2010PropOp41
 70
     1
102
RTVSPost2010Prop42
 90
       50
102
RTVSPost2010PropOp42
 70
     1
102
RTVSPost2010Prop43
 90
        3
102
RTVSPost2010PropOp43
 70
     1
102
RTVSPost2010Prop44ColorIndex
 90
        5
102
RTVSPost2010Prop44ColorRGB
 90
      255
102
RTVSPost2010PropOp44
 70
     1
102
RTVSPost2010Prop45
280
     0
102
RTVSPost2010PropOp45
 70
     1
102
RTVSPost2010Prop46
 90
       50
102
RTVSPost2010PropOp46
 70
     1
102
RTVSPost2010Prop47
 90
       50
102
RTVSPost2010PropOp47
 70
     1
102
RTVSPost2010Prop48
 90
       50
102
RTVSPost2010PropOp48
 70
     1
102
RTVSPost2010Prop49
280
     0
102
RTVSPost2010PropOp49
 70
     1
102
RTVSPost2010Prop50
 90
       50
102
RTVSPost2010PropOp50
 70
     1
102
RTVSPost2010Prop51ColorIndex
 90
      256
102
RTVSPost2010Prop51ColorRGB
 90
-16777216
102
RTVSPost2010PropOp51
 70
     0
102
RTVSPost2010Prop52
140
1.0
102
RTVSPost2010PropOp52
 70
     0
102
RTVSPost2010Prop53
 90
        2
102
RTVSPost2010PropOp53
 70
     1
102
RTVSPost2010Prop54
  1
strokes_ogs.tif
102
RTVSPost2010PropOp54
 70
     1
102
RTVSPost2010Prop55
280
     0
102
RTVSPost2010PropOp55
 70
     1
102
RTVSPost2010Prop56
140
1.0
102
RTVSPost2010PropOp56
 70
     1
102
RTVSPost2010Prop57
140
1.0
102
RTVSPost2010PropOp57
 70
     1
  0
XRECORD
  5
CE
102
{ACAD_REACTORS
330
CD
102
}
330
CD
100
AcDbXrecord
280
     1
102
RTVSPropertyOp0
 70
     0
102
RTVSPropertyOp1
 70
     0
102
RTVSPropertyOp2
 70
     0
102
RTVSPropertyOp3
 70
     0
102
RTVSPropertyOp4
 70
     0
102
RTVSPropertyOp5
 70
     0
102
RTVSPropertyOp6
 70
     0
102
RTVSPropertyOp7
 70
     0
102
RTVSPropertyOp8
 70
     0
102
RTVSPropertyOp9
 70
     0
102
RTVSPropertyOp10
 70
     0
102
RTVSPropertyOp11
 70
     0
102
RTVSPropertyOp12
 70
     0
102
RTVSPropertyOp13
 70
     0
102
RTVSPropertyOp14
 70
     2
102
RTVSPropertyOp15
 70
     0
102
RTVSPropertyOp16
 70
     0
102
RTVSPropertyOp17
 70
     0
102
RTVSPropertyOp18
 70
     0
102
RTVSPropertyOp19
 70
     0
102
RTVSPropertyOp20
 70
     0
102
RTVSPropertyOp21
 70
     0
102
RTVSPropertyOp22
 70
     0
102
RTVSPropertyOp23
 70
     0
102
RTVSPropertyOp24
 70
     0
102
RTVSPropertyOp25
 70
     0
102
RTVSPropertyOp26
 70
     0
102
RTVSPropertyOp27
 70
     0
102
RTVSPropertyOp28
 70
     0
102
RTVSPropertyOp29
 70
     0
102
RTVSPropertyOp30
 70
     0
102
RTVSPropertyOp31
 70
     0
102
RTVSPropertyOp32
 70
     0
102
RTVSPropertyOp33
 70
     0
102
RTVSPropertyOp34
 70
     0
102
RTVSPropertyOp35
 70
     0
102
RTVSPropertyOp36
 70
     0
102
RTVSPropertyOp37
 70
     0
102
RTVSPropertyOp38
 70
     0
102
RTVSPropertyOp39
 70
     0
102
RTVSPropertyOp40
 70
     0
102
RTVSPropertyOp41
 70
     0
102
RTVSPropertyOp42
 70
     0
102
RTVSPropertyOp43
 70
     0
102
RTVSPropertyOp44
 70
     0
102
RTVSPropertyOp45
 70
     0
102
RTVSPropertyOp46
 70
     0
102
RTVSPropertyOp47
 70
     0
102
RTVSPropertyOp48
 70
     0
102
RTVSPropertyOp49
 70
     0
102
RTVSPropertyOp50
 70
     0
102
RTVSPropertyOp51
 70
     0
102
RTVSPropertyOp52
 70
     0
102
RTVSPropertyOp53
 70
     0
102
RTVSPropertyOp54
 70
     0
102
RTVSPropertyOp55
 70
     0
102
RTVSPropertyOp56
 70
     0
102
RTVSPropertyOp57
 70
     0
102
RTVSPost2010Prop28
280
     0
102
RTVSPost2010PropOp28
 70
     0
102
RTVSPost2010Prop29
280
     1
102
RTVSPost2010PropOp29
 70
     0
102
RTVSPost2010Prop30
280
     1
102
RTVSPost2010PropOp30
 70
     0
102
RTVSPost2010Prop31
280
     0
102
RTVSPost2010PropOp31
 70
     0
102
RTVSPost2010Prop32
280
     0
102
RTVSPost2010PropOp32
 70
     0
102
RTVSPost2010Prop33
280
     0
102
RTVSPost2010PropOp33
 70
     0
102
RTVSPost2010Prop34
280
     0
102
RTVSPost2010PropOp34
 70
     0
102
RTVSPost2010Prop35
280
     0
102
RTVSPost2010PropOp35
 70
     0
102
RTVSPost2010Prop36
280
     0
102
RTVSPost2010PropOp36
 70
     0
102
RTVSPost2010Prop37
 90
       50
102
RTVSPost2010PropOp37
 70
     0
102
RTVSPost2010Prop38
140
0.0
102
RTVSPost2010PropOp38
 70
     0
102
RTVSPost2010Prop39
140
1.0
102
RTVSPost2010PropOp39
 70
     0
102
RTVSPost2010Prop40
 90
        0
102
RTVSPost2010PropOp40
 70
     0
102
RTVSPost2010Prop41ColorIndex
 90
       18
102
RTVSPost2010Prop41ColorRGB
 90
        0
102
RTVSPost2010PropOp41
 70
     0
102
RTVSPost2010Prop42
 90
       50
102
RTVSPost2010PropOp42
 70
     0
102
RTVSPost2010Prop43
 90
        3
102
RTVSPost2010PropOp43
 70
     0
102
RTVSPost2010Prop44ColorIndex
 90
        5
102
RTVSPost2010Prop44ColorRGB
 90
      255
102
RTVSPost2010PropOp44
 70
     0
102
RTVSPost2010Prop45
280
     0
102
RTVSPost2010PropOp45
 70
     0
102
RTVSPost2010Prop46
 90
       50
102
RTVSPost2010PropOp46
 70
     0
102
RTVSPost2010Prop47
 90
       50
102
RTVSPost2010PropOp47
 70
     0
102
RTVSPost2010Prop48
 90
       50
102
RTVSPost2010PropOp48
 70
     0
102
RTVSPost2010Prop49
280
     0
102
RTVSPost2010PropOp49
 70
     0
102
RTVSPost2010Prop50
 90
       50
102
RTVSPost2010PropOp50
 70
     0
102
RTVSPost2010Prop51ColorIndex
 90
      256
102
RTVSPost2010Prop51ColorRGB
 90
-16777216
102
RTVSPost2010PropOp51
 70
     0
102
RTVSPost2010Prop52
140
1.0
102
RTVSPost2010PropOp52
 70
     0
102
RTVSPost2010Prop53
 90
        2
102
RTVSPost2010PropOp53
 70
     0
102
RTVSPost2010Prop54
  1
strokes_ogs.tif
102
RTVSPost2010PropOp54
 70
     0
102
RTVSPost2010Prop55
280
     0
102
RTVSPost2010PropOp55
 70
     0
102
RTVSPost2010Prop56
140
1.0
102
RTVSPost2010PropOp56
 70
     0
102
RTVSPost2010Prop57
140
1.0
102
RTVSPost2010PropOp57
 70
     0
  0
XRECORD
  5
C8
102
{ACAD_REACTORS
330
C7
102
}
330
C7
100
AcDbXrecord
280
     1
102
RTVSPropertyOp0
 70
     1
102
RTVSPropertyOp1
 70
     1
102
RTVSPropertyOp2
 70
     1
102
RTVSPropertyOp3
 70
     1
102
RTVSPropertyOp4
 70
     1
102
RTVSPropertyOp5
 70
     1
102
RTVSPropertyOp6
 70
     1
102
RTVSPropertyOp7
 70
     1
102
RTVSPropertyOp8
 70
     1
102
RTVSPropertyOp9
 70
     1
102
RTVSPropertyOp10
 70
     1
102
RTVSPropertyOp11
 70
     1
102
RTVSPropertyOp12
 70
     1
102
RTVSPropertyOp13
 70
     1
102
RTVSPropertyOp14
 70
     1
102
RTVSPropertyOp15
 70
     1
102
RTVSPropertyOp16
 70
     1
102
RTVSPropertyOp17
 70
     1
102
RTVSPropertyOp18
 70
     1
102
RTVSPropertyOp19
 70
     1
102
RTVSPropertyOp20
 70
     1
102
RTVSPropertyOp21
 70
     1
102
RTVSPropertyOp22
 70
     1
102
RTVSPropertyOp23
 70
     1
102
RTVSPropertyOp24
 70
     1
102
RTVSPropertyOp25
 70
     1
102
RTVSPropertyOp26
 70
     1
102
RTVSPropertyOp27
 70
     1
102
RTVSPropertyOp28
 70
     1
102
RTVSPropertyOp29
 70
     1
102
RTVSPropertyOp30
 70
     1
102
RTVSPropertyOp31
 70
     1
102
RTVSPropertyOp32
 70
     1
102
RTVSPropertyOp33
 70
     1
102
RTVSPropertyOp34
 70
     1
102
RTVSPropertyOp35
 70
     1
102
RTVSPropertyOp36
 70
     1
102
RTVSPropertyOp37
 70
     1
102
RTVSPropertyOp38
 70
     1
102
RTVSPropertyOp39
 70
     1
102
RTVSPropertyOp40
 70
     1
102
RTVSPropertyOp41
 70
     1
102
RTVSPropertyOp42
 70
     1
102
RTVSPropertyOp43
 70
     1
102
RTVSPropertyOp44
 70
     1
102
RTVSPropertyOp45
 70
     1
102
RTVSPropertyOp46
 70
     1
102
RTVSPropertyOp47
 70
     1
102
RTVSPropertyOp48
 70
     1
102
RTVSPropertyOp49
 70
     1
102
RTVSPropertyOp50
 70
     1
102
RTVSPropertyOp51
 70
     0
102
RTVSPropertyOp52
 70
     0
102
RTVSPropertyOp53
 70
     1
102
RTVSPropertyOp54
 70
     1
102
RTVSPropertyOp55
 70
     1
102
RTVSPropertyOp56
 70
     1
102
RTVSPropertyOp57
 70
     1
102
RTVSPost2010Prop28
280
     0
102
RTVSPost2010PropOp28
 70
     1
102
RTVSPost2010Prop29
280
     1
102
RTVSPost2010PropOp29
 70
     1
102
RTVSPost2010Prop30
280
     1
102
RTVSPost2010PropOp30
 70
     1
102
RTVSPost2010Prop31
280
     0
102
RTVSPost2010PropOp31
 70
     1
102
RTVSPost2010Prop32
280
     0
102
RTVSPost2010PropOp32
 70
     1
102
RTVSPost2010Prop33
280
     0
102
RTVSPost2010PropOp33
 70
     1
102
RTVSPost2010Prop34
280
     0
102
RTVSPost2010PropOp34
 70
     1
102
RTVSPost2010Prop35
280
     0
102
RTVSPost2010PropOp35
 70
     1
102
RTVSPost2010Prop36
280
     0
102
RTVSPost2010PropOp36
 70
     1
102
RTVSPost2010Prop37
 90
       50
102
RTVSPost2010PropOp37
 70
     1
102
RTVSPost2010Prop38
140
0.0
102
RTVSPost2010PropOp38
 70
     1
102
RTVSPost2010Prop39
140
1.0
102
RTVSPost2010PropOp39
 70
     1
102
RTVSPost2010Prop40
 90
        0
102
RTVSPost2010PropOp40
 70
     1
102
RTVSPost2010Prop41ColorIndex
 90
       18
102
RTVSPost2010Prop41ColorRGB
 90
        0
102
RTVSPost2010PropOp41
 70
     1
102
RTVSPost2010Prop42
 90
       50
102
RTVSPost2010PropOp42
 70
     1
102
RTVSPost2010Prop43
 90
        3
102
RTVSPost2010PropOp43
 70
     1
102
RTVSPost2010Prop44ColorIndex
 90
        5
102
RTVSPost2010Prop44ColorRGB
 90
      255
102
RTVSPost2010PropOp44
 70
     1
102
RTVSPost2010Prop45
280
     0
102
RTVSPost2010PropOp45
 70
     1
102
RTVSPost2010Prop46
 90
       50
102
RTVSPost2010PropOp46
 70
     1
102
RTVSPost2010Prop47
 90
       50
102
RTVSPost2010PropOp47
 70
     1
102
RTVSPost2010Prop48
 90
       50
102
RTVSPost2010PropOp48
 70
     1
102
RTVSPost2010Prop49
280
     0
102
RTVSPost2010PropOp49
 70
     1
102
RTVSPost2010Prop50
 90
       50
102
RTVSPost2010PropOp50
 70
     1
102
RTVSPost2010Prop51ColorIndex
 90
      256
102
RTVSPost2010Prop51ColorRGB
 90
-16777216
102
RTVSPost2010PropOp51
 70
     0
102
RTVSPost2010Prop52
140
1.0
102
RTVSPost2010PropOp52
 70
     0
102
RTVSPost2010Prop53
 90
        2
102
RTVSPost2010PropOp53
 70
     1
102
RTVSPost2010Prop54
  1
strokes_ogs.tif
102
RTVSPost2010PropOp54
 70
     1
102
RTVSPost2010Prop55
280
     0
102
RTVSPost2010PropOp55
 70
     1
102
RTVSPost2010Prop56
140
1.0
102
RTVSPost2010PropOp56
 70
     1
102
RTVSPost2010Prop57
140
1.0
102
RTVSPost2010PropOp57
 70
     1
  0
XRECORD
  5
D0
102
{ACAD_REACTORS
330
CF
102
}
330
CF
100
AcDbXrecord
280
     1
102
RTVSPropertyOp0
 70
     0
102
RTVSPropertyOp1
 70
     0
102
RTVSPropertyOp2
 70
     0
102
RTVSPropertyOp3
 70
     0
102
RTVSPropertyOp4
 70
     0
102
RTVSPropertyOp5
 70
     0
102
RTVSPropertyOp6
 70
     0
102
RTVSPropertyOp7
 70
     0
102
RTVSPropertyOp8
 70
     0
102
RTVSPropertyOp9
 70
     0
102
RTVSPropertyOp10
 70
     0
102
RTVSPropertyOp11
 70
     0
102
RTVSPropertyOp12
 70
     0
102
RTVSPropertyOp13
 70
     0
102
RTVSPropertyOp14
 70
     2
102
RTVSPropertyOp15
 70
     0
102
RTVSPropertyOp16
 70
     0
102
RTVSPropertyOp17
 70
     0
102
RTVSPropertyOp18
 70
     0
102
RTVSPropertyOp19
 70
     0
102
RTVSPropertyOp20
 70
     0
102
RTVSPropertyOp21
 70
     0
102
RTVSPropertyOp22
 70
     0
102
RTVSPropertyOp23
 70
     0
102
RTVSPropertyOp24
 70
     0
102
RTVSPropertyOp25
 70
     0
102
RTVSPropertyOp26
 70
     0
102
RTVSPropertyOp27
 70
     0
102
RTVSPropertyOp28
 70
     0
102
RTVSPropertyOp29
 70
     0
102
RTVSPropertyOp30
 70
     0
102
RTVSPropertyOp31
 70
     0
102
RTVSPropertyOp32
 70
     0
102
RTVSPropertyOp33
 70
     0
102
RTVSPropertyOp34
 70
     0
102
RTVSPropertyOp35
 70
     0
102
RTVSPropertyOp36
 70
     0
102
RTVSPropertyOp37
 70
     0
102
RTVSPropertyOp38
 70
     0
102
RTVSPropertyOp39
 70
     0
102
RTVSPropertyOp40
 70
     0
102
RTVSPropertyOp41
 70
     0
102
RTVSPropertyOp42
 70
     0
102
RTVSPropertyOp43
 70
     0
102
RTVSPropertyOp44
 70
     0
102
RTVSPropertyOp45
 70
     0
102
RTVSPropertyOp46
 70
     0
102
RTVSPropertyOp47
 70
     0
102
RTVSPropertyOp48
 70
     0
102
RTVSPropertyOp49
 70
     0
102
RTVSPropertyOp50
 70
     0
102
RTVSPropertyOp51
 70
     0
102
RTVSPropertyOp52
 70
     0
102
RTVSPropertyOp53
 70
     0
102
RTVSPropertyOp54
 70
     0
102
RTVSPropertyOp55
 70
     0
102
RTVSPropertyOp56
 70
     0
102
RTVSPropertyOp57
 70
     0
102
RTVSPost2010Prop28
280
     0
102
RTVSPost2010PropOp28
 70
     0
102
RTVSPost2010Prop29
280
     1
102
RTVSPost2010PropOp29
 70
     0
102
RTVSPost2010Prop30
280
     1
102
RTVSPost2010PropOp30
 70
     0
102
RTVSPost2010Prop31
280
     0
102
RTVSPost2010PropOp31
 70
     0
102
RTVSPost2010Prop32
280
     0
102
RTVSPost2010PropOp32
 70
     0
102
RTVSPost2010Prop33
280
     0
102
RTVSPost2010PropOp33
 70
     0
102
RTVSPost2010Prop34
280
     0
102
RTVSPost2010PropOp34
 70
     0
102
RTVSPost2010Prop35
280
     0
102
RTVSPost2010PropOp35
 70
     0
102
RTVSPost2010Prop36
280
     0
102
RTVSPost2010PropOp36
 70
     0
102
RTVSPost2010Prop37
 90
       50
102
RTVSPost2010PropOp37
 70
     0
102
RTVSPost2010Prop38
140
0.0
102
RTVSPost2010PropOp38
 70
     0
102
RTVSPost2010Prop39
140
1.0
102
RTVSPost2010PropOp39
 70
     0
102
RTVSPost2010Prop40
 90
        0
102
RTVSPost2010PropOp40
 70
     0
102
RTVSPost2010Prop41ColorIndex
 90
       18
102
RTVSPost2010Prop41ColorRGB
 90
        0
102
RTVSPost2010PropOp41
 70
     0
102
RTVSPost2010Prop42
 90
       50
102
RTVSPost2010PropOp42
 70
     0
102
RTVSPost2010Prop43
 90
        3
102
RTVSPost2010PropOp43
 70
     0
102
RTVSPost2010Prop44ColorIndex
 90
        5
102
RTVSPost2010Prop44ColorRGB
 90
      255
102
RTVSPost2010PropOp44
 70
     0
102
RTVSPost2010Prop45
280
     0
102
RTVSPost2010PropOp45
 70
     0
102
RTVSPost2010Prop46
 90
       50
102
RTVSPost2010PropOp46
 70
     0
102
RTVSPost2010Prop47
 90
       50
102
RTVSPost2010PropOp47
 70
     0
102
RTVSPost2010Prop48
 90
       50
102
RTVSPost2010PropOp48
 70
     0
102
RTVSPost2010Prop49
280
     0
102
RTVSPost2010PropOp49
 70
     0
102
RTVSPost2010Prop50
 90
       50
102
RTVSPost2010PropOp50
 70
     0
102
RTVSPost2010Prop51ColorIndex
 90
      256
102
RTVSPost2010Prop51ColorRGB
 90
-16777216
102
RTVSPost2010PropOp51
 70
     0
102
RTVSPost2010Prop52
140
1.0
102
RTVSPost2010PropOp52
 70
     0
102
RTVSPost2010Prop53
 90
        2
102
RTVSPost2010PropOp53
 70
     0
102
RTVSPost2010Prop54
  1
strokes_ogs.tif
102
RTVSPost2010PropOp54
 70
     0
102
RTVSPost2010Prop55
280
     0
102
RTVSPost2010PropOp55
 70
     0
102
RTVSPost2010Prop56
140
1.0
102
RTVSPost2010PropOp56
 70
     0
102
RTVSPost2010Prop57
140
1.0
102
RTVSPost2010PropOp57
 70
     0
  0
XRECORD
  5
BE
102
{ACAD_REACTORS
330
BD
102
}
330
BD
100
AcDbXrecord
280
     1
102
RTVSPropertyOp0
 70
     1
102
RTVSPropertyOp1
 70
     1
102
RTVSPropertyOp2
 70
     1
102
RTVSPropertyOp3
 70
     1
102
RTVSPropertyOp4
 70
     1
102
RTVSPropertyOp5
 70
     1
102
RTVSPropertyOp6
 70
     1
102
RTVSPropertyOp7
 70
     1
102
RTVSPropertyOp8
 70
     1
102
RTVSPropertyOp9
 70
     1
102
RTVSPropertyOp10
 70
     1
102
RTVSPropertyOp11
 70
     1
102
RTVSPropertyOp12
 70
     1
102
RTVSPropertyOp13
 70
     1
102
RTVSPropertyOp14
 70
     1
102
RTVSPropertyOp15
 70
     1
102
RTVSPropertyOp16
 70
     1
102
RTVSPropertyOp17
 70
     1
102
RTVSPropertyOp18
 70
     1
102
RTVSPropertyOp19
 70
     1
102
RTVSPropertyOp20
 70
     1
102
RTVSPropertyOp21
 70
     1
102
RTVSPropertyOp22
 70
     1
102
RTVSPropertyOp23
 70
     1
102
RTVSPropertyOp24
 70
     1
102
RTVSPropertyOp25
 70
     1
102
RTVSPropertyOp26
 70
     1
102
RTVSPropertyOp27
 70
     1
102
RTVSPropertyOp28
 70
     1
102
RTVSPropertyOp29
 70
     1
102
RTVSPropertyOp30
 70
     1
102
RTVSPropertyOp31
 70
     1
102
RTVSPropertyOp32
 70
     1
102
RTVSPropertyOp33
 70
     1
102
RTVSPropertyOp34
 70
     1
102
RTVSPropertyOp35
 70
     1
102
RTVSPropertyOp36
 70
     1
102
RTVSPropertyOp37
 70
     1
102
RTVSPropertyOp38
 70
     1
102
RTVSPropertyOp39
 70
     1
102
RTVSPropertyOp40
 70
     1
102
RTVSPropertyOp41
 70
     1
102
RTVSPropertyOp42
 70
     1
102
RTVSPropertyOp43
 70
     1
102
RTVSPropertyOp44
 70
     1
102
RTVSPropertyOp45
 70
     1
102
RTVSPropertyOp46
 70
     1
102
RTVSPropertyOp47
 70
     1
102
RTVSPropertyOp48
 70
     1
102
RTVSPropertyOp49
 70
     1
102
RTVSPropertyOp50
 70
     1
102
RTVSPropertyOp51
 70
     0
102
RTVSPropertyOp52
 70
     0
102
RTVSPropertyOp53
 70
     1
102
RTVSPropertyOp54
 70
     1
102
RTVSPropertyOp55
 70
     1
102
RTVSPropertyOp56
 70
     1
102
RTVSPropertyOp57
 70
     1
102
RTVSPost2010Prop28
280
     0
102
RTVSPost2010PropOp28
 70
     1
102
RTVSPost2010Prop29
280
     1
102
RTVSPost2010PropOp29
 70
     1
102
RTVSPost2010Prop30
280
     1
102
RTVSPost2010PropOp30
 70
     1
102
RTVSPost2010Prop31
280
     0
102
RTVSPost2010PropOp31
 70
     1
102
RTVSPost2010Prop32
280
     0
102
RTVSPost2010PropOp32
 70
     1
102
RTVSPost2010Prop33
280
     0
102
RTVSPost2010PropOp33
 70
     1
102
RTVSPost2010Prop34
280
     0
102
RTVSPost2010PropOp34
 70
     1
102
RTVSPost2010Prop35
280
     0
102
RTVSPost2010PropOp35
 70
     1
102
RTVSPost2010Prop36
280
     0
102
RTVSPost2010PropOp36
 70
     1
102
RTVSPost2010Prop37
 90
       50
102
RTVSPost2010PropOp37
 70
     1
102
RTVSPost2010Prop38
140
0.0
102
RTVSPost2010PropOp38
 70
     1
102
RTVSPost2010Prop39
140
1.0
102
RTVSPost2010PropOp39
 70
     1
102
RTVSPost2010Prop40
 90
        0
102
RTVSPost2010PropOp40
 70
     1
102
RTVSPost2010Prop41ColorIndex
 90
       18
102
RTVSPost2010Prop41ColorRGB
 90
        0
102
RTVSPost2010PropOp41
 70
     1
102
RTVSPost2010Prop42
 90
       50
102
RTVSPost2010PropOp42
 70
     1
102
RTVSPost2010Prop43
 90
        3
102
RTVSPost2010PropOp43
 70
     1
102
RTVSPost2010Prop44ColorIndex
 90
        5
102
RTVSPost2010Prop44ColorRGB
 90
      255
102
RTVSPost2010PropOp44
 70
     1
102
RTVSPost2010Prop45
280
     0
102
RTVSPost2010PropOp45
 70
     1
102
RTVSPost2010Prop46
 90
       50
102
RTVSPost2010PropOp46
 70
     1
102
RTVSPost2010Prop47
 90
       50
102
RTVSPost2010PropOp47
 70
     1
102
RTVSPost2010Prop48
 90
       50
102
RTVSPost2010PropOp48
 70
     1
102
RTVSPost2010Prop49
280
     0
102
RTVSPost2010PropOp49
 70
     1
102
RTVSPost2010Prop50
 90
       50
102
RTVSPost2010PropOp50
 70
     1
102
RTVSPost2010Prop51ColorIndex
 90
      256
102
RTVSPost2010Prop51ColorRGB
 90
-16777216
102
RTVSPost2010PropOp51
 70
     0
102
RTVSPost2010Prop52
140
1.0
102
RTVSPost2010PropOp52
 70
     0
102
RTVSPost2010Prop53
 90
        2
102
RTVSPost2010PropOp53
 70
     1
102
RTVSPost2010Prop54
  1
strokes_ogs.tif
102
RTVSPost2010PropOp54
 70
     1
102
RTVSPost2010Prop55
280
     0
102
RTVSPost2010PropOp55
 70
     1
102
RTVSPost2010Prop56
140
1.0
102
RTVSPost2010PropOp56
 70
     1
102
RTVSPost2010Prop57
140
1.0
102
RTVSPost2010PropOp57
 70
     1
  0
XRECORD
  5
DC
102
{ACAD_REACTORS
330
DB
102
}
330
DB
100
AcDbXrecord
280
     1
102
RTVSPropertyOp0
 70
     1
102
RTVSPropertyOp1
 70
     1
102
RTVSPropertyOp2
 70
     1
102
RTVSPropertyOp3
 70
     1
102
RTVSPropertyOp4
 70
     1
102
RTVSPropertyOp5
 70
     1
102
RTVSPropertyOp6
 70
     1
102
RTVSPropertyOp7
 70
     1
102
RTVSPropertyOp8
 70
     1
102
RTVSPropertyOp9
 70
     1
102
RTVSPropertyOp10
 70
     1
102
RTVSPropertyOp11
 70
     1
102
RTVSPropertyOp12
 70
     1
102
RTVSPropertyOp13
 70
     1
102
RTVSPropertyOp14
 70
     1
102
RTVSPropertyOp15
 70
     1
102
RTVSPropertyOp16
 70
     1
102
RTVSPropertyOp17
 70
     1
102
RTVSPropertyOp18
 70
     1
102
RTVSPropertyOp19
 70
     1
102
RTVSPropertyOp20
 70
     1
102
RTVSPropertyOp21
 70
     1
102
RTVSPropertyOp22
 70
     1
102
RTVSPropertyOp23
 70
     1
102
RTVSPropertyOp24
 70
     1
102
RTVSPropertyOp25
 70
     1
102
RTVSPropertyOp26
 70
     1
102
RTVSPropertyOp27
 70
     1
102
RTVSPropertyOp28
 70
     1
102
RTVSPropertyOp29
 70
     1
102
RTVSPropertyOp30
 70
     1
102
RTVSPropertyOp31
 70
     1
102
RTVSPropertyOp32
 70
     1
102
RTVSPropertyOp33
 70
     1
102
RTVSPropertyOp34
 70
     1
102
RTVSPropertyOp35
 70
     1
102
RTVSPropertyOp36
 70
     1
102
RTVSPropertyOp37
 70
     1
102
RTVSPropertyOp38
 70
     1
102
RTVSPropertyOp39
 70
     1
102
RTVSPropertyOp40
 70
     1
102
RTVSPropertyOp41
 70
     1
102
RTVSPropertyOp42
 70
     1
102
RTVSPropertyOp43
 70
     1
102
RTVSPropertyOp44
 70
     1
102
RTVSPropertyOp45
 70
     1
102
RTVSPropertyOp46
 70
     1
102
RTVSPropertyOp47
 70
     1
102
RTVSPropertyOp48
 70
     1
102
RTVSPropertyOp49
 70
     1
102
RTVSPropertyOp50
 70
     1
102
RTVSPropertyOp51
 70
     0
102
RTVSPropertyOp52
 70
     0
102
RTVSPropertyOp53
 70
     1
102
RTVSPropertyOp54
 70
     1
102
RTVSPropertyOp55
 70
     1
102
RTVSPropertyOp56
 70
     1
102
RTVSPropertyOp57
 70
     1
102
RTVSPost2010Prop28
280
     0
102
RTVSPost2010PropOp28
 70
     1
102
RTVSPost2010Prop29
280
     1
102
RTVSPost2010PropOp29
 70
     1
102
RTVSPost2010Prop30
280
     1
102
RTVSPost2010PropOp30
 70
     1
102
RTVSPost2010Prop31
280
     0
102
RTVSPost2010PropOp31
 70
     1
102
RTVSPost2010Prop32
280
     0
102
RTVSPost2010PropOp32
 70
     1
102
RTVSPost2010Prop33
280
     0
102
RTVSPost2010PropOp33
 70
     1
102
RTVSPost2010Prop34
280
     0
102
RTVSPost2010PropOp34
 70
     1
102
RTVSPost2010Prop35
280
     0
102
RTVSPost2010PropOp35
 70
     1
102
RTVSPost2010Prop36
280
     0
102
RTVSPost2010PropOp36
 70
     1
102
RTVSPost2010Prop37
 90
       50
102
RTVSPost2010PropOp37
 70
     1
102
RTVSPost2010Prop38
140
0.0
102
RTVSPost2010PropOp38
 70
     1
102
RTVSPost2010Prop39
140
1.0
102
RTVSPost2010PropOp39
 70
     1
102
RTVSPost2010Prop40
 90
        0
102
RTVSPost2010PropOp40
 70
     1
102
RTVSPost2010Prop41ColorIndex
 90
       18
102
RTVSPost2010Prop41ColorRGB
 90
        0
102
RTVSPost2010PropOp41
 70
     1
102
RTVSPost2010Prop42
 90
       50
102
RTVSPost2010PropOp42
 70
     1
102
RTVSPost2010Prop43
 90
        3
102
RTVSPost2010PropOp43
 70
     1
102
RTVSPost2010Prop44ColorIndex
 90
        5
102
RTVSPost2010Prop44ColorRGB
 90
      255
102
RTVSPost2010PropOp44
 70
     1
102
RTVSPost2010Prop45
280
     0
102
RTVSPost2010PropOp45
 70
     1
102
RTVSPost2010Prop46
 90
       50
102
RTVSPost2010PropOp46
 70
     1
102
RTVSPost2010Prop47
 90
       50
102
RTVSPost2010PropOp47
 70
     1
102
RTVSPost2010Prop48
 90
       50
102
RTVSPost2010PropOp48
 70
     1
102
RTVSPost2010Prop49
280
     0
102
RTVSPost2010PropOp49
 70
     1
102
RTVSPost2010Prop50
 90
       50
102
RTVSPost2010PropOp50
 70
     1
102
RTVSPost2010Prop51ColorIndex
 90
      256
102
RTVSPost2010Prop51ColorRGB
 90
-16777216
102
RTVSPost2010PropOp51
 70
     0
102
RTVSPost2010Prop52
140
1.0
102
RTVSPost2010PropOp52
 70
     0
102
RTVSPost2010Prop53
 90
        2
102
RTVSPost2010PropOp53
 70
     1
102
RTVSPost2010Prop54
  1
strokes_ogs.tif
102
RTVSPost2010PropOp54
 70
     1
102
RTVSPost2010Prop55
280
     0
102
RTVSPost2010PropOp55
 70
     1
102
RTVSPost2010Prop56
140
1.0
102
RTVSPost2010PropOp56
 70
     1
102
RTVSPost2010Prop57
140
1.0
102
RTVSPost2010PropOp57
 70
     1
  0
XRECORD
  5
DA
102
{ACAD_REACTORS
330
D9
102
}
330
D9
100
AcDbXrecord
280
     1
102
RTVSPropertyOp0
 70
     1
102
RTVSPropertyOp1
 70
     1
102
RTVSPropertyOp2
 70
     1
102
RTVSPropertyOp3
 70
     1
102
RTVSPropertyOp4
 70
     1
102
RTVSPropertyOp5
 70
     1
102
RTVSPropertyOp6
 70
     1
102
RTVSPropertyOp7
 70
     1
102
RTVSPropertyOp8
 70
     1
102
RTVSPropertyOp9
 70
     1
102
RTVSPropertyOp10
 70
     1
102
RTVSPropertyOp11
 70
     1
102
RTVSPropertyOp12
 70
     1
102
RTVSPropertyOp13
 70
     1
102
RTVSPropertyOp14
 70
     1
102
RTVSPropertyOp15
 70
     1
102
RTVSPropertyOp16
 70
     1
102
RTVSPropertyOp17
 70
     1
102
RTVSPropertyOp18
 70
     1
102
RTVSPropertyOp19
 70
     1
102
RTVSPropertyOp20
 70
     1
102
RTVSPropertyOp21
 70
     1
102
RTVSPropertyOp22
 70
     1
102
RTVSPropertyOp23
 70
     1
102
RTVSPropertyOp24
 70
     1
102
RTVSPropertyOp25
 70
     1
102
RTVSPropertyOp26
 70
     1
102
RTVSPropertyOp27
 70
     1
102
RTVSPropertyOp28
 70
     1
102
RTVSPropertyOp29
 70
     1
102
RTVSPropertyOp30
 70
     1
102
RTVSPropertyOp31
 70
     1
102
RTVSPropertyOp32
 70
     1
102
RTVSPropertyOp33
 70
     1
102
RTVSPropertyOp34
 70
     1
102
RTVSPropertyOp35
 70
     1
102
RTVSPropertyOp36
 70
     1
102
RTVSPropertyOp37
 70
     1
102
RTVSPropertyOp38
 70
     1
102
RTVSPropertyOp39
 70
     1
102
RTVSPropertyOp40
 70
     1
102
RTVSPropertyOp41
 70
     1
102
RTVSPropertyOp42
 70
     1
102
RTVSPropertyOp43
 70
     1
102
RTVSPropertyOp44
 70
     1
102
RTVSPropertyOp45
 70
     1
102
RTVSPropertyOp46
 70
     1
102
RTVSPropertyOp47
 70
     1
102
RTVSPropertyOp48
 70
     1
102
RTVSPropertyOp49
 70
     1
102
RTVSPropertyOp50
 70
     1
102
RTVSPropertyOp51
 70
     0
102
RTVSPropertyOp52
 70
     0
102
RTVSPropertyOp53
 70
     1
102
RTVSPropertyOp54
 70
     1
102
RTVSPropertyOp55
 70
     1
102
RTVSPropertyOp56
 70
     1
102
RTVSPropertyOp57
 70
     1
102
RTVSPost2010Prop28
280
     0
102
RTVSPost2010PropOp28
 70
     1
102
RTVSPost2010Prop29
280
     1
102
RTVSPost2010PropOp29
 70
     1
102
RTVSPost2010Prop30
280
     1
102
RTVSPost2010PropOp30
 70
     1
102
RTVSPost2010Prop31
280
     0
102
RTVSPost2010PropOp31
 70
     1
102
RTVSPost2010Prop32
280
     0
102
RTVSPost2010PropOp32
 70
     1
102
RTVSPost2010Prop33
280
     0
102
RTVSPost2010PropOp33
 70
     1
102
RTVSPost2010Prop34
280
     0
102
RTVSPost2010PropOp34
 70
     1
102
RTVSPost2010Prop35
280
     0
102
RTVSPost2010PropOp35
 70
     1
102
RTVSPost2010Prop36
280
     0
102
RTVSPost2010PropOp36
 70
     1
102
RTVSPost2010Prop37
 90
       50
102
RTVSPost2010PropOp37
 70
     1
102
RTVSPost2010Prop38
140
0.0
102
RTVSPost2010PropOp38
 70
     1
102
RTVSPost2010Prop39
140
1.0
102
RTVSPost2010PropOp39
 70
     1
102
RTVSPost2010Prop40
 90
        0
102
RTVSPost2010PropOp40
 70
     1
102
RTVSPost2010Prop41ColorIndex
 90
       18
102
RTVSPost2010Prop41ColorRGB
 90
        0
102
RTVSPost2010PropOp41
 70
     1
102
RTVSPost2010Prop42
 90
       50
102
RTVSPost2010PropOp42
 70
     1
102
RTVSPost2010Prop43
 90
        3
102
RTVSPost2010PropOp43
 70
     1
102
RTVSPost2010Prop44ColorIndex
 90
        5
102
RTVSPost2010Prop44ColorRGB
 90
      255
102
RTVSPost2010PropOp44
 70
     1
102
RTVSPost2010Prop45
280
     0
102
RTVSPost2010PropOp45
 70
     1
102
RTVSPost2010Prop46
 90
       50
102
RTVSPost2010PropOp46
 70
     1
102
RTVSPost2010Prop47
 90
       50
102
RTVSPost2010PropOp47
 70
     1
102
RTVSPost2010Prop48
 90
       50
102
RTVSPost2010PropOp48
 70
     1
102
RTVSPost2010Prop49
280
     0
102
RTVSPost2010PropOp49
 70
     1
102
RTVSPost2010Prop50
 90
       50
102
RTVSPost2010PropOp50
 70
     1
102
RTVSPost2010Prop51ColorIndex
 90
      256
102
RTVSPost2010Prop51ColorRGB
 90
-16777216
102
RTVSPost2010PropOp51
 70
     0
102
RTVSPost2010Prop52
140
1.0
102
RTVSPost2010PropOp52
 70
     0
102
RTVSPost2010Prop53
 90
        2
102
RTVSPost2010PropOp53
 70
     1
102
RTVSPost2010Prop54
  1
strokes_ogs.tif
102
RTVSPost2010PropOp54
 70
     1
102
RTVSPost2010Prop55
280
     0
102
RTVSPost2010PropOp55
 70
     1
102
RTVSPost2010Prop56
140
1.0
102
RTVSPost2010PropOp56
 70
     1
102
RTVSPost2010Prop57
140
1.0
102
RTVSPost2010PropOp57
 70
     1
  0
XRECORD
  5
D4
102
{ACAD_REACTORS
330
D3
102
}
330
D3
100
AcDbXrecord
280
     1
102
RTVSPropertyOp0
 70
     1
102
RTVSPropertyOp1
 70
     1
102
RTVSPropertyOp2
 70
     1
102
RTVSPropertyOp3
 70
     1
102
RTVSPropertyOp4
 70
     1
102
RTVSPropertyOp5
 70
     1
102
RTVSPropertyOp6
 70
     1
102
RTVSPropertyOp7
 70
     1
102
RTVSPropertyOp8
 70
     1
102
RTVSPropertyOp9
 70
     1
102
RTVSPropertyOp10
 70
     1
102
RTVSPropertyOp11
 70
     1
102
RTVSPropertyOp12
 70
     1
102
RTVSPropertyOp13
 70
     1
102
RTVSPropertyOp14
 70
     1
102
RTVSPropertyOp15
 70
     1
102
RTVSPropertyOp16
 70
     1
102
RTVSPropertyOp17
 70
     1
102
RTVSPropertyOp18
 70
     1
102
RTVSPropertyOp19
 70
     1
102
RTVSPropertyOp20
 70
     1
102
RTVSPropertyOp21
 70
     1
102
RTVSPropertyOp22
 70
     1
102
RTVSPropertyOp23
 70
     1
102
RTVSPropertyOp24
 70
     1
102
RTVSPropertyOp25
 70
     1
102
RTVSPropertyOp26
 70
     1
102
RTVSPropertyOp27
 70
     1
102
RTVSPropertyOp28
 70
     1
102
RTVSPropertyOp29
 70
     1
102
RTVSPropertyOp30
 70
     1
102
RTVSPropertyOp31
 70
     1
102
RTVSPropertyOp32
 70
     1
102
RTVSPropertyOp33
 70
     1
102
RTVSPropertyOp34
 70
     1
102
RTVSPropertyOp35
 70
     1
102
RTVSPropertyOp36
 70
     1
102
RTVSPropertyOp37
 70
     1
102
RTVSPropertyOp38
 70
     1
102
RTVSPropertyOp39
 70
     1
102
RTVSPropertyOp40
 70
     1
102
RTVSPropertyOp41
 70
     1
102
RTVSPropertyOp42
 70
     1
102
RTVSPropertyOp43
 70
     1
102
RTVSPropertyOp44
 70
     1
102
RTVSPropertyOp45
 70
     1
102
RTVSPropertyOp46
 70
     1
102
RTVSPropertyOp47
 70
     1
102
RTVSPropertyOp48
 70
     1
102
RTVSPropertyOp49
 70
     1
102
RTVSPropertyOp50
 70
     1
102
RTVSPropertyOp51
 70
     0
102
RTVSPropertyOp52
 70
     0
102
RTVSPropertyOp53
 70
     1
102
RTVSPropertyOp54
 70
     1
102
RTVSPropertyOp55
 70
     1
102
RTVSPropertyOp56
 70
     1
102
RTVSPropertyOp57
 70
     1
102
RTVSPost2010Prop28
280
     0
102
RTVSPost2010PropOp28
 70
     1
102
RTVSPost2010Prop29
280
     1
102
RTVSPost2010PropOp29
 70
     1
102
RTVSPost2010Prop30
280
     1
102
RTVSPost2010PropOp30
 70
     1
102
RTVSPost2010Prop31
280
     0
102
RTVSPost2010PropOp31
 70
     1
102
RTVSPost2010Prop32
280
     0
102
RTVSPost2010PropOp32
 70
     1
102
RTVSPost2010Prop33
280
     0
102
RTVSPost2010PropOp33
 70
     1
102
RTVSPost2010Prop34
280
     0
102
RTVSPost2010PropOp34
 70
     1
102
RTVSPost2010Prop35
280
     0
102
RTVSPost2010PropOp35
 70
     1
102
RTVSPost2010Prop36
280
     0
102
RTVSPost2010PropOp36
 70
     1
102
RTVSPost2010Prop37
 90
       50
102
RTVSPost2010PropOp37
 70
     1
102
RTVSPost2010Prop38
140
0.0
102
RTVSPost2010PropOp38
 70
     1
102
RTVSPost2010Prop39
140
1.0
102
RTVSPost2010PropOp39
 70
     1
102
RTVSPost2010Prop40
 90
        0
102
RTVSPost2010PropOp40
 70
     1
102
RTVSPost2010Prop41ColorIndex
 90
       18
102
RTVSPost2010Prop41ColorRGB
 90
        0
102
RTVSPost2010PropOp41
 70
     1
102
RTVSPost2010Prop42
 90
       50
102
RTVSPost2010PropOp42
 70
     1
102
RTVSPost2010Prop43
 90
        3
102
RTVSPost2010PropOp43
 70
     1
102
RTVSPost2010Prop44ColorIndex
 90
        5
102
RTVSPost2010Prop44ColorRGB
 90
      255
102
RTVSPost2010PropOp44
 70
     1
102
RTVSPost2010Prop45
280
     0
102
RTVSPost2010PropOp45
 70
     1
102
RTVSPost2010Prop46
 90
       50
102
RTVSPost2010PropOp46
 70
     1
102
RTVSPost2010Prop47
 90
       50
102
RTVSPost2010PropOp47
 70
     1
102
RTVSPost2010Prop48
 90
       50
102
RTVSPost2010PropOp48
 70
     1
102
RTVSPost2010Prop49
280
     0
102
RTVSPost2010PropOp49
 70
     1
102
RTVSPost2010Prop50
 90
       50
102
RTVSPost2010PropOp50
 70
     1
102
RTVSPost2010Prop51ColorIndex
 90
      256
102
RTVSPost2010Prop51ColorRGB
 90
-16777216
102
RTVSPost2010PropOp51
 70
     0
102
RTVSPost2010Prop52
140
1.0
102
RTVSPost2010PropOp52
 70
     0
102
RTVSPost2010Prop53
 90
        2
102
RTVSPost2010PropOp53
 70
     1
102
RTVSPost2010Prop54
  1
strokes_ogs.tif
102
RTVSPost2010PropOp54
 70
     1
102
RTVSPost2010Prop55
280
     0
102
RTVSPost2010PropOp55
 70
     1
102
RTVSPost2010Prop56
140
1.0
102
RTVSPost2010PropOp56
 70
     1
102
RTVSPost2010Prop57
140
1.0
102
RTVSPost2010PropOp57
 70
     1
  0
XRECORD
  5
D6
102
{ACAD_REACTORS
330
D5
102
}
330
D5
100
AcDbXrecord
280
     1
102
RTVSPropertyOp0
 70
     1
102
RTVSPropertyOp1
 70
     1
102
RTVSPropertyOp2
 70
     1
102
RTVSPropertyOp3
 70
     1
102
RTVSPropertyOp4
 70
     1
102
RTVSPropertyOp5
 70
     1
102
RTVSPropertyOp6
 70
     1
102
RTVSPropertyOp7
 70
     1
102
RTVSPropertyOp8
 70
     1
102
RTVSPropertyOp9
 70
     1
102
RTVSPropertyOp10
 70
     1
102
RTVSPropertyOp11
 70
     1
102
RTVSPropertyOp12
 70
     1
102
RTVSPropertyOp13
 70
     1
102
RTVSPropertyOp14
 70
     1
102
RTVSPropertyOp15
 70
     1
102
RTVSPropertyOp16
 70
     1
102
RTVSPropertyOp17
 70
     1
102
RTVSPropertyOp18
 70
     1
102
RTVSPropertyOp19
 70
     1
102
RTVSPropertyOp20
 70
     1
102
RTVSPropertyOp21
 70
     1
102
RTVSPropertyOp22
 70
     1
102
RTVSPropertyOp23
 70
     1
102
RTVSPropertyOp24
 70
     1
102
RTVSPropertyOp25
 70
     1
102
RTVSPropertyOp26
 70
     1
102
RTVSPropertyOp27
 70
     1
102
RTVSPropertyOp28
 70
     1
102
RTVSPropertyOp29
 70
     1
102
RTVSPropertyOp30
 70
     1
102
RTVSPropertyOp31
 70
     1
102
RTVSPropertyOp32
 70
     1
102
RTVSPropertyOp33
 70
     1
102
RTVSPropertyOp34
 70
     1
102
RTVSPropertyOp35
 70
     1
102
RTVSPropertyOp36
 70
     1
102
RTVSPropertyOp37
 70
     1
102
RTVSPropertyOp38
 70
     1
102
RTVSPropertyOp39
 70
     1
102
RTVSPropertyOp40
 70
     1
102
RTVSPropertyOp41
 70
     1
102
RTVSPropertyOp42
 70
     1
102
RTVSPropertyOp43
 70
     1
102
RTVSPropertyOp44
 70
     1
102
RTVSPropertyOp45
 70
     1
102
RTVSPropertyOp46
 70
     1
102
RTVSPropertyOp47
 70
     1
102
RTVSPropertyOp48
 70
     1
102
RTVSPropertyOp49
 70
     1
102
RTVSPropertyOp50
 70
     1
102
RTVSPropertyOp51
 70
     0
102
RTVSPropertyOp52
 70
     0
102
RTVSPropertyOp53
 70
     1
102
RTVSPropertyOp54
 70
     1
102
RTVSPropertyOp55
 70
     1
102
RTVSPropertyOp56
 70
     1
102
RTVSPropertyOp57
 70
     1
102
RTVSPost2010Prop28
280
     0
102
RTVSPost2010PropOp28
 70
     1
102
RTVSPost2010Prop29
280
     1
102
RTVSPost2010PropOp29
 70
     1
102
RTVSPost2010Prop30
280
     1
102
RTVSPost2010PropOp30
 70
     1
102
RTVSPost2010Prop31
280
     0
102
RTVSPost2010PropOp31
 70
     1
102
RTVSPost2010Prop32
280
     0
102
RTVSPost2010PropOp32
 70
     1
102
RTVSPost2010Prop33
280
     0
102
RTVSPost2010PropOp33
 70
     1
102
RTVSPost2010Prop34
280
     0
102
RTVSPost2010PropOp34
 70
     1
102
RTVSPost2010Prop35
280
     0
102
RTVSPost2010PropOp35
 70
     1
102
RTVSPost2010Prop36
280
     0
102
RTVSPost2010PropOp36
 70
     1
102
RTVSPost2010Prop37
 90
       50
102
RTVSPost2010PropOp37
 70
     1
102
RTVSPost2010Prop38
140
0.0
102
RTVSPost2010PropOp38
 70
     1
102
RTVSPost2010Prop39
140
1.0
102
RTVSPost2010PropOp39
 70
     1
102
RTVSPost2010Prop40
 90
        0
102
RTVSPost2010PropOp40
 70
     1
102
RTVSPost2010Prop41ColorIndex
 90
       18
102
RTVSPost2010Prop41ColorRGB
 90
        0
102
RTVSPost2010PropOp41
 70
     1
102
RTVSPost2010Prop42
 90
       50
102
RTVSPost2010PropOp42
 70
     1
102
RTVSPost2010Prop43
 90
        3
102
RTVSPost2010PropOp43
 70
     1
102
RTVSPost2010Prop44ColorIndex
 90
        5
102
RTVSPost2010Prop44ColorRGB
 90
      255
102
RTVSPost2010PropOp44
 70
     1
102
RTVSPost2010Prop45
280
     0
102
RTVSPost2010PropOp45
 70
     1
102
RTVSPost2010Prop46
 90
       50
102
RTVSPost2010PropOp46
 70
     1
102
RTVSPost2010Prop47
 90
       50
102
RTVSPost2010PropOp47
 70
     1
102
RTVSPost2010Prop48
 90
       50
102
RTVSPost2010PropOp48
 70
     1
102
RTVSPost2010Prop49
280
     0
102
RTVSPost2010PropOp49
 70
     1
102
RTVSPost2010Prop50
 90
       50
102
RTVSPost2010PropOp50
 70
     1
102
RTVSPost2010Prop51ColorIndex
 90
      256
102
RTVSPost2010Prop51ColorRGB
 90
-16777216
102
RTVSPost2010PropOp51
 70
     0
102
RTVSPost2010Prop52
140
1.0
102
RTVSPost2010PropOp52
 70
     0
102
RTVSPost2010Prop53
 90
        2
102
RTVSPost2010PropOp53
 70
     1
102
RTVSPost2010Prop54
  1
strokes_ogs.tif
102
RTVSPost2010PropOp54
 70
     1
102
RTVSPost2010Prop55
280
     0
102
RTVSPost2010PropOp55
 70
     1
102
RTVSPost2010Prop56
140
1.0
102
RTVSPost2010PropOp56
 70
     1
102
RTVSPost2010Prop57
140
1.0
102
RTVSPost2010PropOp57
 70
     1
  0
XRECORD
  5
C6
102
{ACAD_REACTORS
330
C5
102
}
330
C5
100
AcDbXrecord
280
     1
102
RTVSPropertyOp0
 70
     1
102
RTVSPropertyOp1
 70
     1
102
RTVSPropertyOp2
 70
     1
102
RTVSPropertyOp3
 70
     1
102
RTVSPropertyOp4
 70
     1
102
RTVSPropertyOp5
 70
     1
102
RTVSPropertyOp6
 70
     1
102
RTVSPropertyOp7
 70
     1
102
RTVSPropertyOp8
 70
     1
102
RTVSPropertyOp9
 70
     1
102
RTVSPropertyOp10
 70
     1
102
RTVSPropertyOp11
 70
     1
102
RTVSPropertyOp12
 70
     1
102
RTVSPropertyOp13
 70
     1
102
RTVSPropertyOp14
 70
     1
102
RTVSPropertyOp15
 70
     1
102
RTVSPropertyOp16
 70
     1
102
RTVSPropertyOp17
 70
     1
102
RTVSPropertyOp18
 70
     1
102
RTVSPropertyOp19
 70
     1
102
RTVSPropertyOp20
 70
     1
102
RTVSPropertyOp21
 70
     1
102
RTVSPropertyOp22
 70
     1
102
RTVSPropertyOp23
 70
     1
102
RTVSPropertyOp24
 70
     1
102
RTVSPropertyOp25
 70
     1
102
RTVSPropertyOp26
 70
     1
102
RTVSPropertyOp27
 70
     1
102
RTVSPropertyOp28
 70
     1
102
RTVSPropertyOp29
 70
     1
102
RTVSPropertyOp30
 70
     1
102
RTVSPropertyOp31
 70
     1
102
RTVSPropertyOp32
 70
     1
102
RTVSPropertyOp33
 70
     1
102
RTVSPropertyOp34
 70
     1
102
RTVSPropertyOp35
 70
     1
102
RTVSPropertyOp36
 70
     1
102
RTVSPropertyOp37
 70
     1
102
RTVSPropertyOp38
 70
     1
102
RTVSPropertyOp39
 70
     1
102
RTVSPropertyOp40
 70
     1
102
RTVSPropertyOp41
 70
     1
102
RTVSPropertyOp42
 70
     1
102
RTVSPropertyOp43
 70
     1
102
RTVSPropertyOp44
 70
     1
102
RTVSPropertyOp45
 70
     1
102
RTVSPropertyOp46
 70
     1
102
RTVSPropertyOp47
 70
     1
102
RTVSPropertyOp48
 70
     1
102
RTVSPropertyOp49
 70
     1
102
RTVSPropertyOp50
 70
     1
102
RTVSPropertyOp51
 70
     0
102
RTVSPropertyOp52
 70
     0
102
RTVSPropertyOp53
 70
     1
102
RTVSPropertyOp54
 70
     1
102
RTVSPropertyOp55
 70
     1
102
RTVSPropertyOp56
 70
     1
102
RTVSPropertyOp57
 70
     1
102
RTVSPost2010Prop28
280
     0
102
RTVSPost2010PropOp28
 70
     1
102
RTVSPost2010Prop29
280
     1
102
RTVSPost2010PropOp29
 70
     1
102
RTVSPost2010Prop30
280
     1
102
RTVSPost2010PropOp30
 70
     1
102
RTVSPost2010Prop31
280
     0
102
RTVSPost2010PropOp31
 70
     1
102
RTVSPost2010Prop32
280
     0
102
RTVSPost2010PropOp32
 70
     1
102
RTVSPost2010Prop33
280
     0
102
RTVSPost2010PropOp33
 70
     1
102
RTVSPost2010Prop34
280
     0
102
RTVSPost2010PropOp34
 70
     1
102
RTVSPost2010Prop35
280
     0
102
RTVSPost2010PropOp35
 70
     1
102
RTVSPost2010Prop36
280
     0
102
RTVSPost2010PropOp36
 70
     1
102
RTVSPost2010Prop37
 90
       50
102
RTVSPost2010PropOp37
 70
     1
102
RTVSPost2010Prop38
140
0.0
102
RTVSPost2010PropOp38
 70
     1
102
RTVSPost2010Prop39
140
1.0
102
RTVSPost2010PropOp39
 70
     1
102
RTVSPost2010Prop40
 90
        0
102
RTVSPost2010PropOp40
 70
     1
102
RTVSPost2010Prop41ColorIndex
 90
       18
102
RTVSPost2010Prop41ColorRGB
 90
        0
102
RTVSPost2010PropOp41
 70
     1
102
RTVSPost2010Prop42
 90
       50
102
RTVSPost2010PropOp42
 70
     1
102
RTVSPost2010Prop43
 90
        3
102
RTVSPost2010PropOp43
 70
     1
102
RTVSPost2010Prop44ColorIndex
 90
        5
102
RTVSPost2010Prop44ColorRGB
 90
      255
102
RTVSPost2010PropOp44
 70
     1
102
RTVSPost2010Prop45
280
     0
102
RTVSPost2010PropOp45
 70
     1
102
RTVSPost2010Prop46
 90
       50
102
RTVSPost2010PropOp46
 70
     1
102
RTVSPost2010Prop47
 90
       50
102
RTVSPost2010PropOp47
 70
     1
102
RTVSPost2010Prop48
 90
       50
102
RTVSPost2010PropOp48
 70
     1
102
RTVSPost2010Prop49
280
     0
102
RTVSPost2010PropOp49
 70
     1
102
RTVSPost2010Prop50
 90
       50
102
RTVSPost2010PropOp50
 70
     1
102
RTVSPost2010Prop51ColorIndex
 90
      256
102
RTVSPost2010Prop51ColorRGB
 90
-16777216
102
RTVSPost2010PropOp51
 70
     0
102
RTVSPost2010Prop52
140
1.0
102
RTVSPost2010PropOp52
 70
     0
102
RTVSPost2010Prop53
 90
        2
102
RTVSPost2010PropOp53
 70
     1
102
RTVSPost2010Prop54
  1
strokes_ogs.tif
102
RTVSPost2010PropOp54
 70
     1
102
RTVSPost2010Prop55
280
     0
102
RTVSPost2010PropOp55
 70
     1
102
RTVSPost2010Prop56
140
1.0
102
RTVSPost2010PropOp56
 70
     1
102
RTVSPost2010Prop57
140
1.0
102
RTVSPost2010PropOp57
 70
     1
  0
XRECORD
  5
B8
102
{ACAD_REACTORS
330
B7
102
}
330
B7
100
AcDbXrecord
280
     1
102
RTVSPropertyOp0
 70
     1
102
RTVSPropertyOp1
 70
     1
102
RTVSPropertyOp2
 70
     1
102
RTVSPropertyOp3
 70
     1
102
RTVSPropertyOp4
 70
     1
102
RTVSPropertyOp5
 70
     1
102
RTVSPropertyOp6
 70
     1
102
RTVSPropertyOp7
 70
     1
102
RTVSPropertyOp8
 70
     1
102
RTVSPropertyOp9
 70
     1
102
RTVSPropertyOp10
 70
     1
102
RTVSPropertyOp11
 70
     1
102
RTVSPropertyOp12
 70
     1
102
RTVSPropertyOp13
 70
     1
102
RTVSPropertyOp14
 70
     1
102
RTVSPropertyOp15
 70
     1
102
RTVSPropertyOp16
 70
     1
102
RTVSPropertyOp17
 70
     1
102
RTVSPropertyOp18
 70
     1
102
RTVSPropertyOp19
 70
     1
102
RTVSPropertyOp20
 70
     1
102
RTVSPropertyOp21
 70
     1
102
RTVSPropertyOp22
 70
     1
102
RTVSPropertyOp23
 70
     1
102
RTVSPropertyOp24
 70
     1
102
RTVSPropertyOp25
 70
     1
102
RTVSPropertyOp26
 70
     1
102
RTVSPropertyOp27
 70
     1
102
RTVSPropertyOp28
 70
     1
102
RTVSPropertyOp29
 70
     1
102
RTVSPropertyOp30
 70
     1
102
RTVSPropertyOp31
 70
     1
102
RTVSPropertyOp32
 70
     1
102
RTVSPropertyOp33
 70
     1
102
RTVSPropertyOp34
 70
     1
102
RTVSPropertyOp35
 70
     1
102
RTVSPropertyOp36
 70
     1
102
RTVSPropertyOp37
 70
     1
102
RTVSPropertyOp38
 70
     1
102
RTVSPropertyOp39
 70
     1
102
RTVSPropertyOp40
 70
     1
102
RTVSPropertyOp41
 70
     1
102
RTVSPropertyOp42
 70
     1
102
RTVSPropertyOp43
 70
     1
102
RTVSPropertyOp44
 70
     1
102
RTVSPropertyOp45
 70
     1
102
RTVSPropertyOp46
 70
     1
102
RTVSPropertyOp47
 70
     1
102
RTVSPropertyOp48
 70
     1
102
RTVSPropertyOp49
 70
     1
102
RTVSPropertyOp50
 70
     1
102
RTVSPropertyOp51
 70
     0
102
RTVSPropertyOp52
 70
     0
102
RTVSPropertyOp53
 70
     1
102
RTVSPropertyOp54
 70
     1
102
RTVSPropertyOp55
 70
     1
102
RTVSPropertyOp56
 70
     1
102
RTVSPropertyOp57
 70
     1
102
RTVSPost2010Prop28
280
     0
102
RTVSPost2010PropOp28
 70
     1
102
RTVSPost2010Prop29
280
     1
102
RTVSPost2010PropOp29
 70
     1
102
RTVSPost2010Prop30
280
     1
102
RTVSPost2010PropOp30
 70
     1
102
RTVSPost2010Prop31
280
     0
102
RTVSPost2010PropOp31
 70
     1
102
RTVSPost2010Prop32
280
     0
102
RTVSPost2010PropOp32
 70
     1
102
RTVSPost2010Prop33
280
     0
102
RTVSPost2010PropOp33
 70
     1
102
RTVSPost2010Prop34
280
     0
102
RTVSPost2010PropOp34
 70
     1
102
RTVSPost2010Prop35
280
     0
102
RTVSPost2010PropOp35
 70
     1
102
RTVSPost2010Prop36
280
     0
102
RTVSPost2010PropOp36
 70
     1
102
RTVSPost2010Prop37
 90
       50
102
RTVSPost2010PropOp37
 70
     1
102
RTVSPost2010Prop38
140
0.0
102
RTVSPost2010PropOp38
 70
     1
102
RTVSPost2010Prop39
140
1.0
102
RTVSPost2010PropOp39
 70
     1
102
RTVSPost2010Prop40
 90
        0
102
RTVSPost2010PropOp40
 70
     1
102
RTVSPost2010Prop41ColorIndex
 90
       18
102
RTVSPost2010Prop41ColorRGB
 90
        0
102
RTVSPost2010PropOp41
 70
     1
102
RTVSPost2010Prop42
 90
       50
102
RTVSPost2010PropOp42
 70
     1
102
RTVSPost2010Prop43
 90
        3
102
RTVSPost2010PropOp43
 70
     1
102
RTVSPost2010Prop44ColorIndex
 90
        5
102
RTVSPost2010Prop44ColorRGB
 90
      255
102
RTVSPost2010PropOp44
 70
     1
102
RTVSPost2010Prop45
280
     0
102
RTVSPost2010PropOp45
 70
     1
102
RTVSPost2010Prop46
 90
       50
102
RTVSPost2010PropOp46
 70
     1
102
RTVSPost2010Prop47
 90
       50
102
RTVSPost2010PropOp47
 70
     1
102
RTVSPost2010Prop48
 90
       50
102
RTVSPost2010PropOp48
 70
     1
102
RTVSPost2010Prop49
280
     0
102
RTVSPost2010PropOp49
 70
     1
102
RTVSPost2010Prop50
 90
       50
102
RTVSPost2010PropOp50
 70
     1
102
RTVSPost2010Prop51ColorIndex
 90
      256
102
RTVSPost2010Prop51ColorRGB
 90
-16777216
102
RTVSPost2010PropOp51
 70
     0
102
RTVSPost2010Prop52
140
1.0
102
RTVSPost2010PropOp52
 70
     0
102
RTVSPost2010Prop53
 90
        2
102
RTVSPost2010PropOp53
 70
     1
102
RTVSPost2010Prop54
  1
strokes_ogs.tif
102
RTVSPost2010PropOp54
 70
     1
102
RTVSPost2010Prop55
280
     0
102
RTVSPost2010PropOp55
 70
     1
102
RTVSPost2010Prop56
140
1.0
102
RTVSPost2010PropOp56
 70
     1
102
RTVSPost2010Prop57
140
1.0
102
RTVSPost2010PropOp57
 70
     1
  0
XRECORD
  5
D8
102
{ACAD_REACTORS
330
D7
102
}
330
D7
100
AcDbXrecord
280
     1
102
RTVSPropertyOp0
 70
     1
102
RTVSPropertyOp1
 70
     1
102
RTVSPropertyOp2
 70
     1
102
RTVSPropertyOp3
 70
     1
102
RTVSPropertyOp4
 70
     1
102
RTVSPropertyOp5
 70
     1
102
RTVSPropertyOp6
 70
     1
102
RTVSPropertyOp7
 70
     1
102
RTVSPropertyOp8
 70
     1
102
RTVSPropertyOp9
 70
     1
102
RTVSPropertyOp10
 70
     1
102
RTVSPropertyOp11
 70
     1
102
RTVSPropertyOp12
 70
     1
102
RTVSPropertyOp13
 70
     1
102
RTVSPropertyOp14
 70
     1
102
RTVSPropertyOp15
 70
     1
102
RTVSPropertyOp16
 70
     1
102
RTVSPropertyOp17
 70
     1
102
RTVSPropertyOp18
 70
     1
102
RTVSPropertyOp19
 70
     1
102
RTVSPropertyOp20
 70
     1
102
RTVSPropertyOp21
 70
     1
102
RTVSPropertyOp22
 70
     1
102
RTVSPropertyOp23
 70
     1
102
RTVSPropertyOp24
 70
     1
102
RTVSPropertyOp25
 70
     1
102
RTVSPropertyOp26
 70
     1
102
RTVSPropertyOp27
 70
     1
102
RTVSPropertyOp28
 70
     1
102
RTVSPropertyOp29
 70
     1
102
RTVSPropertyOp30
 70
     1
102
RTVSPropertyOp31
 70
     1
102
RTVSPropertyOp32
 70
     1
102
RTVSPropertyOp33
 70
     1
102
RTVSPropertyOp34
 70
     1
102
RTVSPropertyOp35
 70
     1
102
RTVSPropertyOp36
 70
     1
102
RTVSPropertyOp37
 70
     1
102
RTVSPropertyOp38
 70
     1
102
RTVSPropertyOp39
 70
     1
102
RTVSPropertyOp40
 70
     1
102
RTVSPropertyOp41
 70
     1
102
RTVSPropertyOp42
 70
     1
102
RTVSPropertyOp43
 70
     1
102
RTVSPropertyOp44
 70
     1
102
RTVSPropertyOp45
 70
     1
102
RTVSPropertyOp46
 70
     1
102
RTVSPropertyOp47
 70
     1
102
RTVSPropertyOp48
 70
     1
102
RTVSPropertyOp49
 70
     1
102
RTVSPropertyOp50
 70
     1
102
RTVSPropertyOp51
 70
     0
102
RTVSPropertyOp52
 70
     0
102
RTVSPropertyOp53
 70
     1
102
RTVSPropertyOp54
 70
     1
102
RTVSPropertyOp55
 70
     1
102
RTVSPropertyOp56
 70
     1
102
RTVSPropertyOp57
 70
     1
102
RTVSPost2010Prop28
280
     0
102
RTVSPost2010PropOp28
 70
     1
102
RTVSPost2010Prop29
280
     1
102
RTVSPost2010PropOp29
 70
     1
102
RTVSPost2010Prop30
280
     1
102
RTVSPost2010PropOp30
 70
     1
102
RTVSPost2010Prop31
280
     0
102
RTVSPost2010PropOp31
 70
     1
102
RTVSPost2010Prop32
280
     0
102
RTVSPost2010PropOp32
 70
     1
102
RTVSPost2010Prop33
280
     0
102
RTVSPost2010PropOp33
 70
     1
102
RTVSPost2010Prop34
280
     0
102
RTVSPost2010PropOp34
 70
     1
102
RTVSPost2010Prop35
280
     0
102
RTVSPost2010PropOp35
 70
     1
102
RTVSPost2010Prop36
280
     0
102
RTVSPost2010PropOp36
 70
     1
102
RTVSPost2010Prop37
 90
       50
102
RTVSPost2010PropOp37
 70
     1
102
RTVSPost2010Prop38
140
0.0
102
RTVSPost2010PropOp38
 70
     1
102
RTVSPost2010Prop39
140
1.0
102
RTVSPost2010PropOp39
 70
     1
102
RTVSPost2010Prop40
 90
        0
102
RTVSPost2010PropOp40
 70
     1
102
RTVSPost2010Prop41ColorIndex
 90
       18
102
RTVSPost2010Prop41ColorRGB
 90
        0
102
RTVSPost2010PropOp41
 70
     1
102
RTVSPost2010Prop42
 90
       50
102
RTVSPost2010PropOp42
 70
     1
102
RTVSPost2010Prop43
 90
        3
102
RTVSPost2010PropOp43
 70
     1
102
RTVSPost2010Prop44ColorIndex
 90
        5
102
RTVSPost2010Prop44ColorRGB
 90
      255
102
RTVSPost2010PropOp44
 70
     1
102
RTVSPost2010Prop45
280
     0
102
RTVSPost2010PropOp45
 70
     1
102
RTVSPost2010Prop46
 90
       50
102
RTVSPost2010PropOp46
 70
     1
102
RTVSPost2010Prop47
 90
       50
102
RTVSPost2010PropOp47
 70
     1
102
RTVSPost2010Prop48
 90
       50
102
RTVSPost2010PropOp48
 70
     1
102
RTVSPost2010Prop49
280
     0
102
RTVSPost2010PropOp49
 70
     1
102
RTVSPost2010Prop50
 90
       50
102
RTVSPost2010PropOp50
 70
     1
102
RTVSPost2010Prop51ColorIndex
 90
      256
102
RTVSPost2010Prop51ColorRGB
 90
-16777216
102
RTVSPost2010PropOp51
 70
     0
102
RTVSPost2010Prop52
140
1.0
102
RTVSPost2010PropOp52
 70
     0
102
RTVSPost2010Prop53
 90
        2
102
RTVSPost2010PropOp53
 70
     1
102
RTVSPost2010Prop54
  1
strokes_ogs.tif
102
RTVSPost2010PropOp54
 70
     1
102
RTVSPost2010Prop55
280
     0
102
RTVSPost2010PropOp55
 70
     1
102
RTVSPost2010Prop56
140
1.0
102
RTVSPost2010PropOp56
 70
     1
102
RTVSPost2010Prop57
140
1.0
102
RTVSPost2010PropOp57
 70
     1
  0
ENDSEC
  0
EOF
