  0
SECTION
  2
HEADER
  9
$ACADVER
  1
AC1021
  9
$ACADMAINTVER
 70
    25
  9
$DWGCODEPAGE
  3
ANSI_1252
  9
$INSBASE
 10
0.0
 20
0.0
 30
0.0
  9
$EXTMIN
 10
-4.892984251968504
 20
-3.329220472440945
 30
0.0
  9
$EXTMAX
 10
4.892992125984252
 20
3.329212598425197
 30
0.0
  9
$LIMMIN
 10
0.0
 20
0.0
  9
$LIMMAX
 10
12.0
 20
9.0
  9
$ORTHOMODE
 70
     0
  9
$REGENMODE
 70
     1
  9
$FILLMODE
 70
     1
  9
$QTEXTMODE
 70
     0
  9
$MIRRTEXT
 70
     1
  9
$LTSCALE
 40
1.0
  9
$ATTMODE
 70
     1
  9
$TEXTSIZE
 40
0.2
  9
$TRACEWID
 40
0.05
  9
$TEXTSTYLE
  7
Standard
  9
$CLAYER
  8
0
  9
$CELTYPE
  6
ByLayer
  9
$CECOLOR
 62
   256
  9
$CELTSCALE
 40
1.0
  9
$DISPSILH
 70
     0
  9
$DIMSCALE
 40
1.0
  9
$DIMASZ
 40
0.18
  9
$DIMEXO
 40
0.0625
  9
$DIMDLI
 40
0.38
  9
$DIMRND
 40
0.0
  9
$DIMDLE
 40
0.0
  9
$DIMEXE
 40
0.18
  9
$DIMTP
 40
0.0
  9
$DIMTM
 40
0.0
  9
$DIMTXT
 40
0.18
  9
$DIMCEN
 40
0.09
  9
$DIMTSZ
 40
0.0
  9
$DIMTOL
 70
     0
  9
$DIMLIM
 70
     0
  9
$DIMTIH
 70
     1
  9
$DIMTOH
 70
     1
  9
$DIMSE1
 70
     0
  9
$DIMSE2
 70
     0
  9
$DIMTAD
 70
     0
  9
$DIMZIN
 70
     0
  9
$DIMBLK
  1

  9
$DIMASO
 70
     1
  9
$DIMSHO
 70
     1
  9
$DIMPOST
  1

  9
$DIMAPOST
  1

  9
$DIMALT
 70
     0
  9
$DIMALTD
 70
     2
  9
$DIMALTF
 40
25.4
  9
$DIMLFAC
 40
1.0
  9
$DIMTOFL
 70
     0
  9
$DIMTVP
 40
0.0
  9
$DIMTIX
 70
     0
  9
$DIMSOXD
 70
     0
  9
$DIMSAH
 70
     0
  9
$DIMBLK1
  1

  9
$DIMBLK2
  1

  9
$DIMSTYLE
  2
Standard
  9
$DIMCLRD
 70
     0
  9
$DIMCLRE
 70
     0
  9
$DIMCLRT
 70
     0
  9
$DIMTFAC
 40
1.0
  9
$DIMGAP
 40
0.09
  9
$DIMJUST
 70
     0
  9
$DIMSD1
 70
     0
  9
$DIMSD2
 70
     0
  9
$DIMTOLJ
 70
     1
  9
$DIMTZIN
 70
     0
  9
$DIMALTZ
 70
     0
  9
$DIMALTTZ
 70
     0
  9
$DIMUPT
 70
     0
  9
$DIMDEC
 70
     4
  9
$DIMTDEC
 70
     4
  9
$DIMALTU
 70
     2
  9
$DIMALTTD
 70
     2
  9
$DIMTXSTY
  7
Standard
  9
$DIMAUNIT
 70
     0
  9
$DIMADEC
 70
     0
  9
$DIMALTRND
 40
0.0
  9
$DIMAZIN
 70
     0
  9
$DIMDSEP
 70
    46
  9
$DIMATFIT
 70
     3
  9
$DIMFRAC
 70
     0
  9
$DIMLDRBLK
  1

  9
$DIMLUNIT
 70
     2
  9
$DIMLWD
 70
    -2
  9
$DIMLWE
 70
    -2
  9
$DIMTMOVE
 70
     0
  9
$DIMFXL
 40
1.0
  9
$DIMFXLON
 70
     0
  9
$DIMJOGANG
 40
0.7853981633974483
  9
$DIMTFILL
 70
     0
  9
$DIMTFILLCLR
 70
     0
  9
$DIMARCSYM
 70
     0
  9
$DIMLTYPE
  6

  9
$DIMLTEX1
  6

  9
$DIMLTEX2
  6

  9
$LUNITS
 70
     2
  9
$LUPREC
 70
     4
  9
$SKETCHINC
 40
0.1
  9
$FILLETRAD
 40
0.5
  9
$AUNITS
 70
     0
  9
$AUPREC
 70
     0
  9
$MENU
  1
.
  9
$ELEVATION
 40
0.0
  9
$PELEVATION
 40
0.0
  9
$THICKNESS
 40
0.0
  9
$LIMCHECK
 70
     0
  9
$CHAMFERA
 40
0.0
  9
$CHAMFERB
 40
0.0
  9
$CHAMFERC
 40
0.0
  9
$CHAMFERD
 40
0.0
  9
$SKPOLY
 70
     0
  9
$TDCREATE
 40
2458210.738018495
  9
$TDUCREATE
 40
2458210.904685162
  9
$TDUPDATE
 40
2458210.738018553
  9
$TDUUPDATE
 40
2458210.90468522
  9
$TDINDWG
 40
0.0000000116
  9
$TDUSRTIMER
 40
0.0000000116
  9
$USRTIMER
 70
     1
  9
$ANGBASE
 50
0.0
  9
$ANGDIR
 70
     0
  9
$PDMODE
 70
     0
  9
$PDSIZE
 40
0.0
  9
$PLINEWID
 40
0.0
  9
$SPLFRAME
 70
     0
  9
$SPLINETYPE
 70
     6
  9
$SPLINESEGS
 70
     8
  9
$HANDSEED
  5
CE
  9
$SURFTAB1
 70
     6
  9
$SURFTAB2
 70
     6
  9
$SURFTYPE
 70
     6
  9
$SURFU
 70
     6
  9
$SURFV
 70
     6
  9
$UCSBASE
  2

  9
$UCSNAME
  2

  9
$UCSORG
 10
0.0
 20
0.0
 30
0.0
  9
$UCSXDIR
 10
1.0
 20
0.0
 30
0.0
  9
$UCSYDIR
 10
0.0
 20
1.0
 30
0.0
  9
$UCSORTHOREF
  2

  9
$UCSORTHOVIEW
 70
     0
  9
$UCSORGTOP
 10
0.0
 20
0.0
 30
0.0
  9
$UCSORGBOTTOM
 10
0.0
 20
0.0
 30
0.0
  9
$UCSORGLEFT
 10
0.0
 20
0.0
 30
0.0
  9
$UCSORGRIGHT
 10
0.0
 20
0.0
 30
0.0
  9
$UCSORGFRONT
 10
0.0
 20
0.0
 30
0.0
  9
$UCSORGBACK
 10
0.0
 20
0.0
 30
0.0
  9
$PUCSBASE
  2

  9
$PUCSNAME
  2

  9
$PUCSORG
 10
0.0
 20
0.0
 30
0.0
  9
$PUCSXDIR
 10
1.0
 20
0.0
 30
0.0
  9
$PUCSYDIR
 10
0.0
 20
1.0
 30
0.0
  9
$PUCSORTHOREF
  2

  9
$PUCSORTHOVIEW
 70
     0
  9
$PUCSORGTOP
 10
0.0
 20
0.0
 30
0.0
  9
$PUCSORGBOTTOM
 10
0.0
 20
0.0
 30
0.0
  9
$PUCSORGLEFT
 10
0.0
 20
0.0
 30
0.0
  9
$PUCSORGRIGHT
 10
0.0
 20
0.0
 30
0.0
  9
$PUCSORGFRONT
 10
0.0
 20
0.0
 30
0.0
  9
$PUCSORGBACK
 10
0.0
 20
0.0
 30
0.0
  9
$USERI1
 70
     0
  9
$USERI2
 70
     0
  9
$USERI3
 70
     0
  9
$USERI4
 70
     0
  9
$USERI5
 70
     0
  9
$USERR1
 40
0.0
  9
$USERR2
 40
0.0
  9
$USERR3
 40
0.0
  9
$USERR4
 40
0.0
  9
$USERR5
 40
0.0
  9
$WORLDVIEW
 70
     1
  9
$SHADEDGE
 70
     3
  9
$SHADEDIF
 70
    70
  9
$TILEMODE
 70
     1
  9
$MAXACTVP
 70
    64
  9
$PINSBASE
 10
0.0
 20
0.0
 30
0.0
  9
$PLIMCHECK
 70
     0
  9
$PEXTMIN
 10
1.000000000000000E+20
 20
1.000000000000000E+20
 30
1.000000000000000E+20
  9
$PEXTMAX
 10
-1.000000000000000E+20
 20
-1.000000000000000E+20
 30
-1.000000000000000E+20
  9
$PLIMMIN
 10
0.0
 20
0.0
  9
$PLIMMAX
 10
12.0
 20
9.0
  9
$UNITMODE
 70
     0
  9
$VISRETAIN
 70
     1
  9
$PLINEGEN
 70
     0
  9
$PSLTSCALE
 70
     1
  9
$TREEDEPTH
 70
  3020
  9
$CMLSTYLE
  2
Standard
  9
$CMLJUST
 70
     0
  9
$CMLSCALE
 40
1.0
  9
$PROXYGRAPHICS
 70
     1
  9
$MEASUREMENT
 70
     0
  9
$CELWEIGHT
370
    -1
  9
$ENDCAPS
280
     0
  9
$JOINSTYLE
280
     0
  9
$LWDISPLAY
290
     0
  9
$INSUNITS
 70
     1
  9
$HYPERLINKBASE
  1

  9
$STYLESHEET
  1

  9
$XEDIT
290
     1
  9
$CEPSNTYPE
380
     0
  9
$PSTYLEMODE
290
     1
  9
$FINGERPRINTGUID
  2
{89B9A6DB-3605-47B6-BEAA-C375BB7AA105}
  9
$VERSIONGUID
  2
{FAEB1C32-E019-11D5-929B-00C0DF256EC4}
  9
$EXTNAMES
290
     1
  9
$PSVPSCALE
 40
0.0
  9
$OLESTARTUP
290
     0
  9
$SORTENTS
280
   127
  9
$INDEXCTL
280
     0
  9
$HIDETEXT
280
     1
  9
$XCLIPFRAME
290
     0
  9
$HALOGAP
280
     0
  9
$OBSCOLOR
 70
   257
  9
$OBSLTYPE
280
     0
  9
$INTERSECTIONDISPLAY
280
     0
  9
$INTERSECTIONCOLOR
 70
   257
  9
$DIMASSOC
280
     2
  9
$PROJECTNAME
  1

  9
$CAMERADISPLAY
290
     0
  9
$LENSLENGTH
 40
50.0
  9
$CAMERAHEIGHT
 40
0.0
  9
$STEPSPERSEC
 40
2.0
  9
$STEPSIZE
 40
6.0
  9
$3DDWFPREC
 40
2.0
  9
$PSOLWIDTH
 40
0.25
  9
$PSOLHEIGHT
 40
4.0
  9
$LOFTANG1
 40
1.570796326794897
  9
$LOFTANG2
 40
1.570796326794897
  9
$LOFTMAG1
 40
0.0
  9
$LOFTMAG2
 40
0.0
  9
$LOFTPARAM
 70
     7
  9
$LOFTNORMALS
280
     1
  9
$LATITUDE
 40
37.795
  9
$LONGITUDE
 40
-122.394
  9
$NORTHDIRECTION
 40
0.0
  9
$TIMEZONE
 70
 -8000
  9
$LIGHTGLYPHDISPLAY
280
     1
  9
$TILEMODELIGHTSYNCH
280
     1
  9
$CMATERIAL
347
44
  9
$SOLIDHIST
280
     0
  9
$SHOWHIST
280
     1
  9
$DWFFRAME
280
     2
  9
$DGNFRAME
280
     2
  9
$REALWORLDSCALE
290
     1
  9
$INTERFERECOLOR
 62
   256
  9
$CSHADOW
280
     0
  9
$SHADOWPLANELOCATION
 40
0.0
  0
ENDSEC
  0
SECTION
  2
CLASSES
  0
CLASS
  1
ACDBDICTIONARYWDFLT
  2
AcDbDictionaryWithDefault
  3
ObjectDBX Classes
 90
        0
 91
        4
280
     0
281
     0
  0
CLASS
  1
VISUALSTYLE
  2
AcDbVisualStyle
  3
ObjectDBX Classes
 90
     4095
 91
        4
280
     0
281
     0
  0
CLASS
  1
MATERIAL
  2
AcDbMaterial
  3
ObjectDBX Classes
 90
     1153
 91
        4
280
     0
281
     0
  0
CLASS
  1
SCALE
  2
AcDbScale
  3
ObjectDBX Classes
 90
     1153
 91
        4
280
     0
281
     0
  0
CLASS
  1
TABLESTYLE
  2
AcDbTableStyle
  3
ObjectDBX Classes
 90
     4095
 91
        4
280
     0
281
     0
  0
CLASS
  1
MLEADERSTYLE
  2
AcDbMLeaderStyle
  3
ACDB_MLEADERSTYLE_CLASS
 90
     4095
 91
        4
280
     0
281
     0
  0
CLASS
  1
SUN
  2
AcDbSun
  3
SCENEOE
 90
     1153
 91
        4
280
     0
281
     0
  0
CLASS
  1
DICTIONARYVAR
  2
AcDbDictionaryVar
  3
ObjectDBX Classes
 90
        0
 91
        4
280
     0
281
     0
  0
CLASS
  1
CELLSTYLEMAP
  2
AcDbCellStyleMap
  3
ObjectDBX Classes
 90
     1152
 91
        4
280
     0
281
     0
  0
ENDSEC
  0
SECTION
  2
TABLES
  0
TABLE
  2
VPORT
  5
8
330
0
100
AcDbSymbolTable
 70
     1
  0
VPORT
  5
29
330
8
100
AcDbSymbolTableRecord
100
AcDbViewportTableRecord
  2
*Active
 70
     0
 10
0.0
 20
0.0
 11
1.0
 21
1.0
 12
10.42990654205607
 22
4.5
 13
0.0
 23
0.0
 14
0.5
 24
0.5
 15
0.5
 25
0.5
 16
0.0
 26
0.0
 36
1.0
 17
0.0
 27
0.0
 37
0.0
 40
9.0
 41
1.972972972850329
 42
50.0
 43
0.0
 44
0.0
 50
0.0
 51
0.0
 71
     0
 72
   100
 73
     1
 74
     3
 75
     0
 76
     0
 77
     0
 78
     0
281
     0
 65
     1
110
0.0
120
0.0
130
0.0
111
1.0
121
0.0
131
0.0
112
0.0
122
1.0
132
0.0
 79
     0
146
0.0
 60
     3
 61
     5
292
     1
282
     1
141
0.0
142
0.0
 63
   250
361
6D
  0
ENDTAB
  0
TABLE
  2
LTYPE
  5
5
330
0
100
AcDbSymbolTable
 70
     1
  0
LTYPE
  5
14
330
5
100
AcDbSymbolTableRecord
100
AcDbLinetypeTableRecord
  2
ByBlock
 70
     0
  3

 72
    65
 73
     0
 40
0.0
  0
LTYPE
  5
15
330
5
100
AcDbSymbolTableRecord
100
AcDbLinetypeTableRecord
  2
ByLayer
 70
     0
  3

 72
    65
 73
     0
 40
0.0
  0
LTYPE
  5
16
330
5
100
AcDbSymbolTableRecord
100
AcDbLinetypeTableRecord
  2
Continuous
 70
     0
  3
Solid line
 72
    65
 73
     0
 40
0.0
  0
ENDTAB
  0
TABLE
  2
LAYER
  5
2
330
0
100
AcDbSymbolTable
 70
     2
  0
LAYER
  5
10
330
2
100
AcDbSymbolTableRecord
100
AcDbLayerTableRecord
  2
0
 70
     0
 62
     7
  6
Continuous
370
    -3
390
F
347
46
  0
LAYER
  5
6F
330
2
100
AcDbSymbolTableRecord
100
AcDbLayerTableRecord
  2
Layer 1
 70
     0
 62
     7
  6
Continuous
370
    -3
390
F
347
46
  0
ENDTAB
  0
TABLE
  2
STYLE
  5
3
330
0
100
AcDbSymbolTable
 70
     1
  0
STYLE
  5
11
330
3
100
AcDbSymbolTableRecord
100
AcDbTextStyleTableRecord
  2
Standard
 70
     0
 40
0.0
 41
1.0
 50
0.0
 71
     0
 42
0.2
  3
txt
  4

  0
ENDTAB
  0
TABLE
  2
VIEW
  5
6
330
0
100
AcDbSymbolTable
 70
     0
  0
ENDTAB
  0
TABLE
  2
UCS
  5
7
330
0
100
AcDbSymbolTable
 70
     0
  0
ENDTAB
  0
TABLE
  2
APPID
  5
9
330
0
100
AcDbSymbolTable
 70
     3
  0
APPID
  5
12
330
9
100
AcDbSymbolTableRecord
100
AcDbRegAppTableRecord
  2
ACAD
 70
     0
  0
APPID
  5
6E
330
9
100
AcDbSymbolTableRecord
100
AcDbRegAppTableRecord
  2
ODA
 70
     0
  0
APPID
  5
C6
330
9
100
AcDbSymbolTableRecord
100
AcDbRegAppTableRecord
  2
ACAD_MLEADERVER
 70
     0
  0
ENDTAB
  0
TABLE
  2
DIMSTYLE
  5
A
330
0
100
AcDbSymbolTable
 70
     1
100
AcDbDimStyleTable
  0
DIMSTYLE
105
27
330
A
100
AcDbSymbolTableRecord
100
AcDbDimStyleTableRecord
  2
Standard
 70
     0
178
     0
340
11
  0
ENDTAB
  0
TABLE
  2
BLOCK_RECORD
  5
1
330
0
100
AcDbSymbolTable
 70
     1
  0
BLOCK_RECORD
  5
1F
330
1
100
AcDbSymbolTableRecord
100
AcDbBlockTableRecord
  2
*Model_Space
340
22
 70
     0
280
     1
281
     0
  0
BLOCK_RECORD
  5
1B
330
1
100
AcDbSymbolTableRecord
100
AcDbBlockTableRecord
  2
*Paper_Space
340
1E
 70
     0
280
     1
281
     0
  0
BLOCK_RECORD
  5
23
330
1
100
AcDbSymbolTableRecord
100
AcDbBlockTableRecord
  2
*Paper_Space0
340
26
 70
     0
280
     1
281
     0
  0
ENDTAB
  0
ENDSEC
  0
SECTION
  2
BLOCKS
  0
BLOCK
  5
20
330
1F
100
AcDbEntity
  8
0
100
AcDbBlockBegin
  2
*Model_Space
 70
     0
 10
0.0
 20
0.0
 30
0.0
  3
*Model_Space
  1
*Model_Space
  0
ENDBLK
  5
21
330
1F
100
AcDbEntity
  8
0
100
AcDbBlockEnd
  0
BLOCK
  5
1C
330
1B
100
AcDbEntity
 67
     1
  8
0
100
AcDbBlockBegin
  2
*Paper_Space
 70
     0
 10
0.0
 20
0.0
 30
0.0
  3
*Paper_Space
  1
*Paper_Space
  0
ENDBLK
  5
1D
330
1B
100
AcDbEntity
 67
     1
  8
0
100
AcDbBlockEnd
  0
BLOCK
  5
24
330
23
100
AcDbEntity
  8
0
100
AcDbBlockBegin
  2
*Paper_Space0
 70
     0
 10
0.0
 20
0.0
 30
0.0
  3
*Paper_Space0
  1
*Paper_Space0
  0
ENDBLK
  5
25
330
23
100
AcDbEntity
  8
0
100
AcDbBlockEnd
  0
ENDSEC
  0
SECTION
  2
ENTITIES
  0
SPLINE
  5
70
330
1F
100
AcDbEntity
  8
Layer 1
 62
   250
370
    18
100
AcDbSpline
210
0.0
220
0.0
230
1.0
 70
    11
 71
     3
 72
   456
 73
   452
 74
     0
 42
0.000000001
 43
0.0000000001
 40
0.0
 40
0.0
 40
0.0
 40
0.0
 40
0.0087719298245614
 40
0.0087719298245614
 40
0.0087719298245614
 40
0.0087719298245614
 40
0.0175438596491228
 40
0.0175438596491228
 40
0.0175438596491228
 40
0.0175438596491228
 40
0.0263157894736842
 40
0.0263157894736842
 40
0.0263157894736842
 40
0.0263157894736842
 40
0.0350877192982456
 40
0.0350877192982456
 40
0.0350877192982456
 40
0.0350877192982456
 40
0.043859649122807
 40
0.043859649122807
 40
0.043859649122807
 40
0.043859649122807
 40
0.0526315789473684
 40
0.0526315789473684
 40
0.0526315789473684
 40
0.0526315789473684
 40
0.0614035087719298
 40
0.0614035087719298
 40
0.0614035087719298
 40
0.0614035087719298
 40
0.0701754385964912
 40
0.0701754385964912
 40
0.0701754385964912
 40
0.0701754385964912
 40
0.0789473684210526
 40
0.0789473684210526
 40
0.0789473684210526
 40
0.0789473684210526
 40
0.087719298245614
 40
0.087719298245614
 40
0.087719298245614
 40
0.087719298245614
 40
0.0964912280701754
 40
0.0964912280701754
 40
0.0964912280701754
 40
0.0964912280701754
 40
0.1052631578947368
 40
0.1052631578947368
 40
0.1052631578947368
 40
0.1052631578947368
 40
0.1140350877192982
 40
0.1140350877192982
 40
0.1140350877192982
 40
0.1140350877192982
 40
0.1228070175438596
 40
0.1228070175438596
 40
0.1228070175438596
 40
0.1228070175438596
 40
0.131578947368421
 40
0.131578947368421
 40
0.131578947368421
 40
0.131578947368421
 40
0.1403508771929824
 40
0.1403508771929824
 40
0.1403508771929824
 40
0.1403508771929824
 40
0.1491228070175439
 40
0.1491228070175439
 40
0.1491228070175439
 40
0.1491228070175439
 40
0.1578947368421053
 40
0.1578947368421053
 40
0.1578947368421053
 40
0.1578947368421053
 40
0.1666666666666667
 40
0.1666666666666667
 40
0.1666666666666667
 40
0.1666666666666667
 40
0.1754385964912281
 40
0.1754385964912281
 40
0.1754385964912281
 40
0.1754385964912281
 40
0.1842105263157895
 40
0.1842105263157895
 40
0.1842105263157895
 40
0.1842105263157895
 40
0.1929824561403509
 40
0.1929824561403509
 40
0.1929824561403509
 40
0.1929824561403509
 40
0.2017543859649123
 40
0.2017543859649123
 40
0.2017543859649123
 40
0.2017543859649123
 40
0.2105263157894737
 40
0.2105263157894737
 40
0.2105263157894737
 40
0.2105263157894737
 40
0.2192982456140351
 40
0.2192982456140351
 40
0.2192982456140351
 40
0.2192982456140351
 40
0.2280701754385965
 40
0.2280701754385965
 40
0.2280701754385965
 40
0.2280701754385965
 40
0.2368421052631579
 40
0.2368421052631579
 40
0.2368421052631579
 40
0.2368421052631579
 40
0.2456140350877193
 40
0.2456140350877193
 40
0.2456140350877193
 40
0.2456140350877193
 40
0.2543859649122807
 40
0.2543859649122807
 40
0.2543859649122807
 40
0.2543859649122807
 40
0.2631578947368421
 40
0.2631578947368421
 40
0.2631578947368421
 40
0.2631578947368421
 40
0.2719298245614035
 40
0.2719298245614035
 40
0.2719298245614035
 40
0.2719298245614035
 40
0.2807017543859649
 40
0.2807017543859649
 40
0.2807017543859649
 40
0.2807017543859649
 40
0.2894736842105263
 40
0.2894736842105263
 40
0.2894736842105263
 40
0.2894736842105263
 40
0.2982456140350877
 40
0.2982456140350877
 40
0.2982456140350877
 40
0.2982456140350877
 40
0.3070175438596491
 40
0.3070175438596491
 40
0.3070175438596491
 40
0.3070175438596491
 40
0.3157894736842105
 40
0.3157894736842105
 40
0.3157894736842105
 40
0.3157894736842105
 40
0.3245614035087719
 40
0.3245614035087719
 40
0.3245614035087719
 40
0.3245614035087719
 40
0.3333333333333333
 40
0.3333333333333333
 40
0.3333333333333333
 40
0.3333333333333333
 40
0.3421052631578947
 40
0.3421052631578947
 40
0.3421052631578947
 40
0.3421052631578947
 40
0.3508771929824561
 40
0.3508771929824561
 40
0.3508771929824561
 40
0.3508771929824561
 40
0.3596491228070176
 40
0.3596491228070176
 40
0.3596491228070176
 40
0.3596491228070176
 40
0.3684210526315789
 40
0.3684210526315789
 40
0.3684210526315789
 40
0.3684210526315789
 40
0.3771929824561404
 40
0.3771929824561404
 40
0.3771929824561404
 40
0.3771929824561404
 40
0.3859649122807017
 40
0.3859649122807017
 40
0.3859649122807017
 40
0.3859649122807017
 40
0.3947368421052632
 40
0.3947368421052632
 40
0.3947368421052632
 40
0.3947368421052632
 40
0.4035087719298245
 40
0.4035087719298245
 40
0.4035087719298245
 40
0.4035087719298245
 40
0.412280701754386
 40
0.412280701754386
 40
0.412280701754386
 40
0.412280701754386
 40
0.4210526315789473
 40
0.4210526315789473
 40
0.4210526315789473
 40
0.4210526315789473
 40
0.4298245614035088
 40
0.4298245614035088
 40
0.4298245614035088
 40
0.4298245614035088
 40
0.4385964912280702
 40
0.4385964912280702
 40
0.4385964912280702
 40
0.4385964912280702
 40
0.4473684210526316
 40
0.4473684210526316
 40
0.4473684210526316
 40
0.4473684210526316
 40
0.456140350877193
 40
0.456140350877193
 40
0.456140350877193
 40
0.456140350877193
 40
0.4649122807017544
 40
0.4649122807017544
 40
0.4649122807017544
 40
0.4649122807017544
 40
0.4736842105263158
 40
0.4736842105263158
 40
0.4736842105263158
 40
0.4736842105263158
 40
0.4824561403508772
 40
0.4824561403508772
 40
0.4824561403508772
 40
0.4824561403508772
 40
0.4912280701754386
 40
0.4912280701754386
 40
0.4912280701754386
 40
0.4912280701754386
 40
0.5
 40
0.5
 40
0.5
 40
0.5
 40
0.5087719298245614
 40
0.5087719298245614
 40
0.5087719298245614
 40
0.5087719298245614
 40
0.5175438596491229
 40
0.5175438596491229
 40
0.5175438596491229
 40
0.5175438596491229
 40
0.5263157894736842
 40
0.5263157894736842
 40
0.5263157894736842
 40
0.5263157894736842
 40
0.5350877192982456
 40
0.5350877192982456
 40
0.5350877192982456
 40
0.5350877192982456
 40
0.543859649122807
 40
0.543859649122807
 40
0.543859649122807
 40
0.543859649122807
 40
0.5526315789473685
 40
0.5526315789473685
 40
0.5526315789473685
 40
0.5526315789473685
 40
0.5614035087719298
 40
0.5614035087719298
 40
0.5614035087719298
 40
0.5614035087719298
 40
0.5701754385964912
 40
0.5701754385964912
 40
0.5701754385964912
 40
0.5701754385964912
 40
0.5789473684210527
 40
0.5789473684210527
 40
0.5789473684210527
 40
0.5789473684210527
 40
0.5877192982456141
 40
0.5877192982456141
 40
0.5877192982456141
 40
0.5877192982456141
 40
0.5964912280701754
 40
0.5964912280701754
 40
0.5964912280701754
 40
0.5964912280701754
 40
0.6052631578947368
 40
0.6052631578947368
 40
0.6052631578947368
 40
0.6052631578947368
 40
0.6140350877192983
 40
0.6140350877192983
 40
0.6140350877192983
 40
0.6140350877192983
 40
0.6228070175438597
 40
0.6228070175438597
 40
0.6228070175438597
 40
0.6228070175438597
 40
0.631578947368421
 40
0.631578947368421
 40
0.631578947368421
 40
0.631578947368421
 40
0.6403508771929824
 40
0.6403508771929824
 40
0.6403508771929824
 40
0.6403508771929824
 40
0.6491228070175439
 40
0.6491228070175439
 40
0.6491228070175439
 40
0.6491228070175439
 40
0.6578947368421053
 40
0.6578947368421053
 40
0.6578947368421053
 40
0.6578947368421053
 40
0.6666666666666666
 40
0.6666666666666666
 40
0.6666666666666666
 40
0.6666666666666666
 40
0.6754385964912281
 40
0.6754385964912281
 40
0.6754385964912281
 40
0.6754385964912281
 40
0.6842105263157895
 40
0.6842105263157895
 40
0.6842105263157895
 40
0.6842105263157895
 40
0.6929824561403509
 40
0.6929824561403509
 40
0.6929824561403509
 40
0.6929824561403509
 40
0.7017543859649122
 40
0.7017543859649122
 40
0.7017543859649122
 40
0.7017543859649122
 40
0.7105263157894737
 40
0.7105263157894737
 40
0.7105263157894737
 40
0.7105263157894737
 40
0.7192982456140351
 40
0.7192982456140351
 40
0.7192982456140351
 40
0.7192982456140351
 40
0.7280701754385965
 40
0.7280701754385965
 40
0.7280701754385965
 40
0.7280701754385965
 40
0.7368421052631579
 40
0.7368421052631579
 40
0.7368421052631579
 40
0.7368421052631579
 40
0.7456140350877193
 40
0.7456140350877193
 40
0.7456140350877193
 40
0.7456140350877193
 40
0.7543859649122807
 40
0.7543859649122807
 40
0.7543859649122807
 40
0.7543859649122807
 40
0.7631578947368421
 40
0.7631578947368421
 40
0.7631578947368421
 40
0.7631578947368421
 40
0.7719298245614035
 40
0.7719298245614035
 40
0.7719298245614035
 40
0.7719298245614035
 40
0.7807017543859649
 40
0.7807017543859649
 40
0.7807017543859649
 40
0.7807017543859649
 40
0.7894736842105263
 40
0.7894736842105263
 40
0.7894736842105263
 40
0.7894736842105263
 40
0.7982456140350878
 40
0.7982456140350878
 40
0.7982456140350878
 40
0.7982456140350878
 40
0.8070175438596491
 40
0.8070175438596491
 40
0.8070175438596491
 40
0.8070175438596491
 40
0.8157894736842105
 40
0.8157894736842105
 40
0.8157894736842105
 40
0.8157894736842105
 40
0.8245614035087719
 40
0.8245614035087719
 40
0.8245614035087719
 40
0.8245614035087719
 40
0.8333333333333334
 40
0.8333333333333334
 40
0.8333333333333334
 40
0.8333333333333334
 40
0.8421052631578947
 40
0.8421052631578947
 40
0.8421052631578947
 40
0.8421052631578947
 40
0.8508771929824561
 40
0.8508771929824561
 40
0.8508771929824561
 40
0.8508771929824561
 40
0.8596491228070176
 40
0.8596491228070176
 40
0.8596491228070176
 40
0.8596491228070176
 40
0.868421052631579
 40
0.868421052631579
 40
0.868421052631579
 40
0.868421052631579
 40
0.8771929824561403
 40
0.8771929824561403
 40
0.8771929824561403
 40
0.8771929824561403
 40
0.8859649122807017
 40
0.8859649122807017
 40
0.8859649122807017
 40
0.8859649122807017
 40
0.8947368421052632
 40
0.8947368421052632
 40
0.8947368421052632
 40
0.8947368421052632
 40
0.9035087719298246
 40
0.9035087719298246
 40
0.9035087719298246
 40
0.9035087719298246
 40
0.9122807017543859
 40
0.9122807017543859
 40
0.9122807017543859
 40
0.9122807017543859
 40
0.9210526315789473
 40
0.9210526315789473
 40
0.9210526315789473
 40
0.9210526315789473
 40
0.9298245614035088
 40
0.9298245614035088
 40
0.9298245614035088
 40
0.9298245614035088
 40
0.9385964912280702
 40
0.9385964912280702
 40
0.9385964912280702
 40
0.9385964912280702
 40
0.9473684210526315
 40
0.9473684210526315
 40
0.9473684210526315
 40
0.9473684210526315
 40
0.956140350877193
 40
0.956140350877193
 40
0.956140350877193
 40
0.956140350877193
 40
0.9649122807017544
 40
0.9649122807017544
 40
0.9649122807017544
 40
0.9649122807017544
 40
0.9736842105263158
 40
0.9736842105263158
 40
0.9736842105263158
 40
0.9736842105263158
 40
0.9824561403508771
 40
0.9824561403508771
 40
0.9824561403508771
 40
0.9824561403508771
 40
1.0
 40
1.0
 40
1.0
 40
1.0
 10
-4.308917322834645
 20
-0.6695826771653544
 30
0.0
 10
-4.213255905511811
 20
-0.5794685039370079
 30
0.0
 10
-4.06213779527559
 20
-0.4463700787401575
 30
0.0
 10
-3.865267716535433
 20
-0.3285275590551181
 30
0.0
 10
-3.865267716535433
 20
-0.3285275590551181
 30
0.0
 10
-3.449251968503937
 20
-0.079503937007874
 30
0.0
 10
-2.899527559055118
 20
0.0696141732283465
 30
0.0
 10
-2.427566929133858
 20
0.1671141732283465
 30
0.0
 10
-2.427566929133858
 20
0.1671141732283465
 30
0.0
 10
-1.890677165354331
 20
0.2780236220472441
 30
0.0
 10
-1.364889763779528
 20
0.3100944881889764
 30
0.0
 10
-0.8214133858267717
 20
0.3625944881889764
 30
0.0
 10
-0.8214133858267717
 20
0.3625944881889764
 30
0.0
 10
-0.5559173228346457
 20
0.388244094488189
 30
0.0
 10
-0.3784566929133859
 20
0.4118110236220472
 30
0.0
 10
-0.2460551181102362
 20
0.4416181102362205
 30
0.0
 10
-0.2460551181102362
 20
0.4416181102362205
 30
0.0
 10
-0.1136535433070866
 20
0.4714291338582677
 30
0.0
 10
-0.0263110236220472
 20
0.5074724409448819
 30
0.0
 10
0.0832165354330709
 20
0.5594645669291338
 30
0.0
 10
0.0832165354330709
 20
0.5594645669291338
 30
0.0
 10
0.2987204724409449
 20
0.661759842519685
 30
0.0
 10
0.5424409448818898
 20
0.7941417322834645
 30
0.0
 10
0.7708700787401574
 20
0.8485314960629922
 30
0.0
 10
0.7708700787401574
 20
0.8485314960629922
 30
0.0
 10
0.8582165354330709
 20
0.8693267716535433
 30
0.0
 10
0.9192165354330709
 20
0.8707125984251969
 30
0.0
 10
0.9670472440944882
 20
0.8811102362204725
 30
0.0
 10
0.9670472440944882
 20
0.8811102362204725
 30
0.0
 10
1.014877952755906
 20
0.8915118110236221
 30
0.0
 10
1.04953937007874
 20
0.9109173228346457
 30
0.0
 10
1.111929133858268
 20
0.9823188976377952
 30
0.0
 10
1.111929133858268
 20
0.9823188976377952
 30
0.0
 10
1.174314960629921
 20
1.053720472440945
 30
0.0
 10
1.264433070866142
 20
1.177110236220472
 30
0.0
 10
1.315728346456693
 20
1.240188976377953
 30
0.0
 10
1.315728346456693
 20
1.240188976377953
 30
0.0
 10
1.367027559055118
 20
1.303271653543307
 30
0.0
 10
1.379503937007874
 20
1.306043307086614
 30
0.0
 10
1.38990157480315
 20
1.33307874015748
 30
0.0
 10
1.38990157480315
 20
1.33307874015748
 30
0.0
 10
1.414027559055118
 20
1.395803149606299
 30
0.0
 10
1.414948818897638
 20
1.517586614173228
 30
0.0
 10
1.445358267716536
 20
1.602736220472441
 30
0.0
 10
1.445358267716536
 20
1.602736220472441
 30
0.0
 10
1.462688976377953
 20
1.651259842519685
 30
0.0
 10
1.491803149606299
 20
1.702555118110236
 30
0.0
 10
1.498736220472441
 20
1.758011811023622
 30
0.0
 10
1.498736220472441
 20
1.758011811023622
 30
0.0
 10
1.511984251968504
 20
1.864027559055118
 30
0.0
 10
1.446244094488189
 20
1.970125984251968
 30
0.0
 10
1.561125984251968
 20
2.070645669291339
 30
0.0
 10
1.561125984251968
 20
2.070645669291339
 30
0.0
 10
1.611035433070866
 20
2.114318897637795
 30
0.0
 10
1.692830708661417
 20
2.154523622047244
 30
0.0
 10
1.733728346456693
 20
2.197503937007874
 30
0.0
 10
1.733728346456693
 20
2.197503937007874
 30
0.0
 10
1.774629921259842
 20
2.24048031496063
 30
0.0
 10
1.774629921259842
 20
2.286232283464567
 30
0.0
 10
1.789877952755905
 20
2.334755905511811
 30
0.0
 10
1.789877952755905
 20
2.334755905511811
 30
0.0
 10
1.805129921259843
 20
2.383279527559055
 30
0.0
 10
1.835633858267717
 20
2.43457874015748
 30
0.0
 10
1.853653543307087
 20
2.50736220472441
 30
0.0
 10
1.853653543307087
 20
2.50736220472441
 30
0.0
 10
1.871677165354331
 20
2.580149606299213
 30
0.0
 10
1.877224409448819
 20
2.674425196850394
 30
0.0
 10
1.923669291338583
 20
2.780484251968504
 30
0.0
 10
1.923669291338583
 20
2.780484251968504
 30
0.0
 10
1.970114173228346
 20
2.886547244094488
 30
0.0
 10
2.057456692913386
 20
3.004389763779527
 30
0.0
 10
2.138562992125984
 20
3.093814960629921
 30
0.0
 10
2.138562992125984
 20
3.093814960629921
 30
0.0
 10
2.320602362204724
 20
3.294523622047244
 30
0.0
 10
2.502287401574803
 20
3.330149606299213
 30
0.0
 10
2.766602362204724
 20
3.325342519685039
 30
0.0
 10
2.766602362204724
 20
3.325342519685039
 30
0.0
 10
2.88098031496063
 20
3.323263779527559
 30
0.0
 10
2.968326771653544
 20
3.308011811023622
 30
0.0
 10
3.045271653543307
 20
3.297614173228347
 30
0.0
 10
3.045271653543307
 20
3.297614173228347
 30
0.0
 10
3.122216535433071
 20
3.287216535433071
 30
0.0
 10
3.188763779527559
 20
3.281673228346456
 30
0.0
 10
3.249763779527559
 20
3.252555118110236
 30
0.0
 10
3.249763779527559
 20
3.252555118110236
 30
0.0
 10
3.36009842519685
 20
3.199897637795276
 30
0.0
 10
3.45657874015748
 20
3.064988188976378
 30
0.0
 10
3.576956692913386
 20
3.045984251968504
 30
0.0
 10
3.576956692913386
 20
3.045984251968504
 30
0.0
 10
3.629641732283464
 20
3.037665354330709
 30
0.0
 10
3.683708661417323
 20
3.052913385826772
 30
0.0
 10
3.742629921259843
 20
3.039744094488189
 30
0.0
 10
3.742629921259843
 20
3.039744094488189
 30
0.0
 10
3.89059842519685
 20
3.006665354330709
 30
0.0
 10
3.942003937007874
 20
2.88738188976378
 30
0.0
 10
4.030311023622048
 20
2.785338582677165
 30
0.0
 10
4.030311023622048
 20
2.785338582677165
 30
0.0
 10
4.092700787401575
 20
2.713244094488189
 30
0.0
 10
4.198066929133859
 20
2.61203937007874
 30
0.0
 10
4.289570866141732
 20
2.519145669291339
 30
0.0
 10
4.289570866141732
 20
2.519145669291339
 30
0.0
 10
4.381070866141732
 20
2.426259842519685
 30
0.0
 10
4.458712598425197
 20
2.341688976377953
 30
0.0
 10
4.508622047244095
 20
2.275141732283465
 30
0.0
 10
4.508622047244095
 20
2.275141732283465
 30
0.0
 10
4.558531496062992
 20
2.208594488188977
 30
0.0
 10
4.580716535433071
 20
2.160070866141732
 30
0.0
 10
4.613988188976378
 20
2.118476377952756
 30
0.0
 10
4.613988188976378
 20
2.118476377952756
 30
0.0
 10
4.647263779527559
 20
2.076885826771654
 30
0.0
 10
4.691625984251968
 20
2.042224409448819
 30
0.0
 10
4.731830708661417
 20
1.978448818897638
 30
0.0
 10
4.731830708661417
 20
1.978448818897638
 30
0.0
 10
4.775657480314961
 20
1.908933070866142
 30
0.0
 10
4.896645669291338
 20
1.63955905511811
 30
0.0
 10
4.889188976377953
 20
1.561834645669291
 30
0.0
 10
4.889188976377953
 20
1.561834645669291
 30
0.0
 10
4.886555118110236
 20
1.534342519685039
 30
0.0
 10
4.771311023622047
 20
1.289685039370079
 30
0.0
 10
4.749161417322835
 20
1.226326771653543
 30
0.0
 10
4.749161417322835
 20
1.226326771653543
 30
0.0
 10
4.674322834645669
 20
1.012248031496063
 30
0.0
 10
4.619417322834646
 20
0.8930590551181102
 30
0.0
 10
4.460791338582677
 20
0.7279133858267717
 30
0.0
 10
4.460791338582677
 20
0.7279133858267717
 30
0.0
 10
4.410185039370079
 20
0.6752283464566929
 30
0.0
 10
4.371366141732284
 20
0.6364094488188976
 30
0.0
 10
4.356807086614173
 20
0.6059094488188976
 30
0.0
 10
4.356807086614173
 20
0.6059094488188976
 30
0.0
 10
4.327200787401575
 20
0.5438700787401575
 30
0.0
 10
4.514818897637795
 20
0.3148425196850393
 30
0.0
 10
4.546055118110236
 20
0.2128661417322835
 30
0.0
 10
4.546055118110236
 20
0.2128661417322835
 30
0.0
 10
4.569625984251968
 20
0.1359173228346457
 30
0.0
 10
4.536350393700787
 20
0.1026456692913386
 30
0.0
 10
4.466334645669291
 20
0.0638228346456693
 30
0.0
 10
4.466334645669291
 20
0.0638228346456693
 30
0.0
 10
4.158661417322834
 20
-0.1067716535433071
 30
0.0
 10
3.735370078740158
 20
-0.056751968503937
 30
0.0
 10
3.667074803149606
 20
0.3487322834645669
 30
0.0
 10
3.667074803149606
 20
0.3487322834645669
 30
0.0
 10
3.655984251968504
 20
0.4145866141732283
 30
0.0
 10
3.653208661417323
 20
0.510248031496063
 30
0.0
 10
3.654594488188976
 20
0.5781811023622048
 30
0.0
 10
3.654594488188976
 20
0.5781811023622048
 30
0.0
 10
3.65598031496063
 20
0.6461141732283464
 30
0.0
 10
3.661527559055118
 20
0.6863188976377953
 30
0.0
 10
3.654594488188976
 20
0.6904803149606299
 30
0.0
 10
3.654594488188976
 20
0.6904803149606299
 30
0.0
 10
3.647661417322835
 20
0.6946377952755906
 30
0.0
 10
3.628255905511811
 20
0.662751968503937
 30
0.0
 10
3.603299212598425
 20
0.6481929133858267
 30
0.0
 10
3.603299212598425
 20
0.6481929133858267
 30
0.0
 10
3.57834251968504
 20
0.6336377952755905
 30
0.0
 10
3.547842519685039
 20
0.6364094488188976
 30
0.0
 10
3.533976377952756
 20
0.5927401574803149
 30
0.0
 10
3.533976377952756
 20
0.5927401574803149
 30
0.0
 10
3.520114173228346
 20
0.5490669291338582
 30
0.0
 10
3.522885826771653
 20
0.4589527559055118
 30
0.0
 10
3.513181102362205
 20
0.3445708661417323
 30
0.0
 10
3.513181102362205
 20
0.3445708661417323
 30
0.0
 10
3.503476377952756
 20
0.2301929133858268
 30
0.0
 10
3.481295275590551
 20
0.0915551181102362
 30
0.0
 10
3.46257874015748
 20
0.0146102362204724
 30
0.0
 10
3.46257874015748
 20
0.0146102362204724
 30
0.0
 10
3.44386220472441
 20
-0.0623385826771654
 30
0.0
 10
3.428610236220472
 20
-0.0775905511811024
 30
0.0
 10
3.423066929133858
 20
-0.106011811023622
 30
0.0
 10
3.423066929133858
 20
-0.106011811023622
 30
0.0
 10
3.41751968503937
 20
-0.1344330708661417
 30
0.0
 10
3.421677165354331
 20
-0.1760236220472441
 30
0.0
 10
3.423755905511811
 20
-0.2834685039370079
 30
0.0
 10
3.423755905511811
 20
-0.2834685039370079
 30
0.0
 10
3.42851968503937
 20
-0.5293543307086614
 30
0.0
 10
3.4305
 20
-0.7585787401574803
 30
0.0
 10
3.287200787401575
 20
-0.9690472440944882
 30
0.0
 10
3.287200787401575
 20
-0.9690472440944882
 30
0.0
 10
3.242834645669291
 20
-1.034208661417323
 30
0.0
 10
3.201244094488189
 20
-1.081346456692913
 30
0.0
 10
3.17490157480315
 20
-1.136799212598425
 30
0.0
 10
3.17490157480315
 20
-1.136799212598425
 30
0.0
 10
3.14855905511811
 20
-1.192259842519685
 30
0.0
 10
3.137468503937008
 20
-1.256031496062992
 30
0.0
 10
3.109740157480315
 20
-1.314259842519685
 30
0.0
 10
3.109740157480315
 20
-1.314259842519685
 30
0.0
 10
3.082011811023622
 20
-1.372492125984252
 30
0.0
 10
3.037645669291339
 20
-1.425177165354331
 30
0.0
 10
3.023783464566929
 20
-1.497267716535433
 30
0.0
 10
3.023783464566929
 20
-1.497267716535433
 30
0.0
 10
3.009917322834646
 20
-1.569362204724409
 30
0.0
 10
3.026555118110236
 20
-1.660862204724409
 30
0.0
 10
3.037645669291339
 20
-1.769003937007874
 30
0.0
 10
3.037645669291339
 20
-1.769003937007874
 30
0.0
 10
3.048736220472441
 20
-1.877141732283464
 30
0.0
 10
3.054283464566929
 20
-2.001917322834646
 30
0.0
 10
3.050125984251968
 20
-2.090649606299213
 30
0.0
 10
3.050125984251968
 20
-2.090649606299213
 30
0.0
 10
3.045964566929134
 20
-2.179377952755905
 30
0.0
 10
3.032102362204725
 20
-2.232062992125984
 30
0.0
 10
3.023783464566929
 20
-2.280586614173228
 30
0.0
 10
3.023783464566929
 20
-2.280586614173228
 30
0.0
 10
3.015464566929134
 20
-2.329110236220473
 30
0.0
 10
3.012692913385827
 20
-2.373476377952756
 30
0.0
 10
3.034874015748032
 20
-2.43586220472441
 30
0.0
 10
3.034874015748032
 20
-2.43586220472441
 30
0.0
 10
3.057055118110236
 20
-2.498251968503937
 30
0.0
 10
3.104192913385827
 20
-2.578661417322835
 30
0.0
 10
3.151330708661417
 20
-2.623027559055118
 30
0.0
 10
3.151330708661417
 20
-2.623027559055118
 30
0.0
 10
3.198468503937008
 20
-2.667389763779528
 30
0.0
 10
3.245610236220473
 20
-2.675712598425197
 30
0.0
 10
3.317700787401575
 20
-2.69511811023622
 30
0.0
 10
3.317700787401575
 20
-2.69511811023622
 30
0.0
 10
3.389795275590551
 20
-2.714527559055118
 30
0.0
 10
3.486842519685039
 20
-2.745031496062992
 30
0.0
 10
3.56448031496063
 20
-2.785236220472441
 30
0.0
 10
3.56448031496063
 20
-2.785236220472441
 30
0.0
 10
3.642118110236221
 20
-2.82544094488189
 30
0.0
 10
3.700346456692913
 20
-2.875354330708662
 30
0.0
 10
3.765507874015748
 20
-2.921102362204724
 30
0.0
 10
3.765507874015748
 20
-2.921102362204724
 30
0.0
 10
3.830669291338582
 20
-2.966858267716535
 30
0.0
 10
3.902763779527559
 20
-3.008448818897638
 30
0.0
 10
3.919397637795276
 20
-3.040334645669291
 30
0.0
 10
3.919397637795276
 20
-3.040334645669291
 30
0.0
 10
3.936035433070866
 20
-3.072224409448819
 30
0.0
 10
3.897216535433071
 20
-3.094405511811023
 30
0.0
 10
3.855625984251969
 20
-3.091633858267717
 30
0.0
 10
3.855625984251969
 20
-3.091633858267717
 30
0.0
 10
3.814031496062992
 20
-3.08886220472441
 30
0.0
 10
3.769669291338583
 20
-3.061133858267716
 30
0.0
 10
3.739165354330709
 20
-3.065291338582677
 30
0.0
 10
3.739165354330709
 20
-3.065291338582677
 30
0.0
 10
3.708665354330709
 20
-3.069448818897638
 30
0.0
 10
3.692031496062992
 20
-3.105496062992126
 30
0.0
 10
3.667074803149606
 20
-3.131838582677165
 30
0.0
 10
3.667074803149606
 20
-3.131838582677165
 30
0.0
 10
3.642118110236221
 20
-3.158181102362205
 30
0.0
 10
3.608846456692913
 20
-3.174814960629921
 30
0.0
 10
3.572799212598425
 20
-3.170657480314961
 30
0.0
 10
3.572799212598425
 20
-3.170657480314961
 30
0.0
 10
3.536751968503937
 20
-3.1665
 30
0.0
 10
3.497933070866142
 20
-3.141543307086614
 30
0.0
 10
3.450795275590551
 20
-3.144314960629921
 30
0.0
 10
3.450795275590551
 20
-3.144314960629921
 30
0.0
 10
3.403657480314961
 20
-3.147090551181102
 30
0.0
 10
3.348200787401575
 20
-3.177590551181102
 30
0.0
 10
3.271948818897638
 20
-3.181748031496063
 30
0.0
 10
3.271948818897638
 20
-3.181748031496063
 30
0.0
 10
3.195696850393701
 20
-3.185909448818898
 30
0.0
 10
3.098649606299213
 20
-3.163724409448819
 30
0.0
 10
3.036259842519685
 20
-3.15401968503937
 30
0.0
 10
3.036259842519685
 20
-3.15401968503937
 30
0.0
 10
2.973874015748032
 20
-3.144314960629921
 30
0.0
 10
2.946141732283464
 20
-3.147090551181102
 30
0.0
 10
2.905937007874016
 20
-3.148472440944882
 30
0.0
 10
2.905937007874016
 20
-3.148472440944882
 30
0.0
 10
2.865732283464567
 20
-3.14986220472441
 30
0.0
 10
2.813047244094488
 20
-3.14986220472441
 30
0.0
 10
2.77561811023622
 20
-3.145700787401575
 30
0.0
 10
2.77561811023622
 20
-3.145700787401575
 30
0.0
 10
2.738185039370079
 20
-3.141543307086614
 30
0.0
 10
2.716
 20
-3.133224409448819
 30
0.0
 10
2.681338582677165
 20
-3.094405511811023
 30
0.0
 10
2.681338582677165
 20
-3.094405511811023
 30
0.0
 10
2.646681102362205
 20
-3.055586614173228
 30
0.0
 10
2.599543307086614
 20
-2.986267716535433
 30
0.0
 10
2.556562992125984
 20
-2.939129921259843
 30
0.0
 10
2.556562992125984
 20
-2.939129921259843
 30
0.0
 10
2.513586614173228
 20
-2.891992125984252
 30
0.0
 10
2.474767716535433
 20
-2.867035433070866
 30
0.0
 10
2.466448818897638
 20
-2.812964566929134
 30
0.0
 10
2.466448818897638
 20
-2.812964566929134
 30
0.0
 10
2.458129921259843
 20
-2.758897637795275
 30
0.0
 10
2.480314960629921
 20
-2.675712598425197
 30
0.0
 10
2.470606299212598
 20
-2.631346456692913
 30
0.0
 10
2.470606299212598
 20
-2.631346456692913
 30
0.0
 10
2.46090157480315
 20
-2.586984251968504
 30
0.0
 10
2.419311023622047
 20
-2.581437007874016
 30
0.0
 10
2.381877952755906
 20
-2.571732283464567
 30
0.0
 10
2.381877952755906
 20
-2.571732283464567
 30
0.0
 10
2.344444881889764
 20
-2.562023622047244
 30
0.0
 10
2.311173228346457
 20
-2.548161417322835
 30
0.0
 10
2.298692913385827
 20
-2.517661417322834
 30
0.0
 10
2.298692913385827
 20
-2.517661417322834
 30
0.0
 10
2.286212598425197
 20
-2.487161417322834
 30
0.0
 10
2.294535433070866
 20
-2.440023622047244
 30
0.0
 10
2.280669291338583
 20
-2.412295275590551
 30
0.0
 10
2.280669291338583
 20
-2.412295275590551
 30
0.0
 10
2.266807086614173
 20
-2.384566929133858
 30
0.0
 10
2.230759842519685
 20
-2.376248031496063
 30
0.0
 10
2.215507874015748
 20
-2.338814960629921
 30
0.0
 10
2.215507874015748
 20
-2.338814960629921
 30
0.0
 10
2.186503937007874
 20
-2.26761811023622
 30
0.0
 10
2.232035433070866
 20
-2.124803149606299
 30
0.0
 10
2.136484251968504
 20
-2.194625984251969
 30
0.0
 10
2.136484251968504
 20
-2.194625984251969
 30
0.0
 10
2.100437007874016
 20
-2.220968503937008
 30
0.0
 10
2.047751968503937
 20
-2.273653543307087
 30
0.0
 10
2.01448031496063
 20
-2.31801968503937
 30
0.0
 10
2.01448031496063
 20
-2.31801968503937
 30
0.0
 10
1.950570866141732
 20
-2.403224409448819
 30
0.0
 10
1.953913385826772
 20
-2.47111811023622
 30
0.0
 10
1.935456692913386
 20
-2.563413385826772
 30
0.0
 10
1.935456692913386
 20
-2.563413385826772
 30
0.0
 10
1.928523622047244
 20
-2.598074803149606
 30
0.0
 10
1.920204724409449
 20
-2.620255905511811
 30
0.0
 10
1.927137795275591
 20
-2.66046062992126
 30
0.0
 10
1.927137795275591
 20
-2.66046062992126
 30
0.0
 10
1.934070866141732
 20
-2.700665354330709
 30
0.0
 10
1.956251968503937
 20
-2.758897637795275
 30
0.0
 10
2.015866141732284
 20
-2.821283464566929
 30
0.0
 10
2.015866141732284
 20
-2.821283464566929
 30
0.0
 10
2.07548031496063
 20
-2.883673228346457
 30
0.0
 10
2.172531496062992
 20
-2.950220472440945
 30
0.0
 10
2.247397637795276
 20
-3.009834645669291
 30
0.0
 10
2.247397637795276
 20
-3.009834645669291
 30
0.0
 10
2.322259842519685
 20
-3.069448818897638
 30
0.0
 10
2.374944881889764
 20
-3.122133858267717
 30
0.0
 10
2.390196850393701
 20
-3.169271653543307
 30
0.0
 10
2.390196850393701
 20
-3.169271653543307
 30
0.0
 10
2.405448818897638
 20
-3.216409448818898
 30
0.0
 10
2.383263779527559
 20
-3.258
 30
0.0
 10
2.351377952755906
 20
-3.269090551181102
 30
0.0
 10
2.351377952755906
 20
-3.269090551181102
 30
0.0
 10
2.319488188976378
 20
-3.280181102362205
 30
0.0
 10
2.277897637795276
 20
-3.260775590551181
 30
0.0
 10
2.236307086614173
 20
-3.264933070866142
 30
0.0
 10
2.236307086614173
 20
-3.264933070866142
 30
0.0
 10
2.194712598425197
 20
-3.269090551181102
 30
0.0
 10
2.153122047244095
 20
-3.296818897637795
 30
0.0
 10
2.068551181102362
 20
-3.312070866141732
 30
0.0
 10
2.068551181102362
 20
-3.312070866141732
 30
0.0
 10
1.98398031496063
 20
-3.327318897637795
 30
0.0
 10
1.856429133858268
 20
-3.330094488188976
 30
0.0
 10
1.766314960629921
 20
-3.319003937007874
 30
0.0
 10
1.766314960629921
 20
-3.319003937007874
 30
0.0
 10
1.676196850393701
 20
-3.307913385826772
 30
0.0
 10
1.623515748031496
 20
-3.282956692913386
 30
0.0
 10
1.587468503937008
 20
-3.282956692913386
 30
0.0
 10
1.587468503937008
 20
-3.282956692913386
 30
0.0
 10
1.55142125984252
 20
-3.282956692913386
 30
0.0
 10
1.532011811023622
 20
-3.307913385826772
 30
0.0
 10
1.464074803149606
 20
-3.306523622047244
 30
0.0
 10
1.464074803149606
 20
-3.306523622047244
 30
0.0
 10
1.396141732283465
 20
-3.305141732283464
 30
0.0
 10
1.279685039370079
 20
-3.277409448818898
 30
0.0
 10
1.225614173228347
 20
-3.242748031496063
 30
0.0
 10
1.225614173228347
 20
-3.242748031496063
 30
0.0
 10
1.171547244094488
 20
-3.208090551181102
 30
0.0
 10
1.179866141732284
 20
-3.1665
 30
0.0
 10
1.166
 20
-3.140157480314961
 30
0.0
 10
1.166
 20
-3.140157480314961
 30
0.0
 10
1.15213779527559
 20
-3.113814960629921
 30
0.0
 10
1.116090551181102
 20
-3.102724409448819
 30
0.0
 10
1.103610236220472
 20
-3.066677165354331
 30
0.0
 10
1.103610236220472
 20
-3.066677165354331
 30
0.0
 10
1.091133858267717
 20
-3.030629921259842
 30
0.0
 10
1.102228346456693
 20
-2.969629921259842
 30
0.0
 10
1.128566929133858
 20
-2.903082677165354
 30
0.0
 10
1.128566929133858
 20
-2.903082677165354
 30
0.0
 10
1.154909448818898
 20
-2.836531496062992
 30
0.0
 10
1.1965
 20
-2.76444094488189
 30
0.0
 10
1.215909448818898
 20
-2.711759842519685
 30
0.0
 10
1.215909448818898
 20
-2.711759842519685
 30
0.0
 10
1.235318897637795
 20
-2.659074803149606
 30
0.0
 10
1.232547244094488
 20
-2.625799212598425
 30
0.0
 10
1.211751968503937
 20
-2.620255905511811
 30
0.0
 10
1.211751968503937
 20
-2.620255905511811
 30
0.0
 10
1.190956692913386
 20
-2.614708661417323
 30
0.0
 10
1.15213779527559
 20
-2.636889763779528
 30
0.0
 10
1.075885826771654
 20
-2.657685039370079
 30
0.0
 10
1.075885826771654
 20
-2.657685039370079
 30
0.0
 10
0.9996338582677166
 20
-2.678484251968504
 30
0.0
 10
0.8859488188976378
 20
-2.697893700787402
 30
0.0
 10
0.6239173228346456
 20
-2.710370078740158
 30
0.0
 10
0.6239173228346456
 20
-2.710370078740158
 30
0.0
 10
0.3618858267716535
 20
-2.722850393700787
 30
0.0
 10
-0.048488188976378
 20
-2.728393700787402
 30
0.0
 10
-0.3243818897637795
 20
-2.727007874015748
 30
0.0
 10
-0.3243818897637795
 20
-2.727007874015748
 30
0.0
 10
-0.6002795275590551
 20
-2.725622047244094
 30
0.0
 10
-0.7416929133858268
 20
-2.717303149606299
 30
0.0
 10
-0.9122204724409448
 20
-2.713141732283465
 30
0.0
 10
-0.9122204724409448
 20
-2.713141732283465
 30
0.0
 10
-1.082748031496063
 20
-2.708984251968504
 30
0.0
 10
-1.282389763779528
 20
-2.708984251968504
 30
0.0
 10
-1.527783464566929
 20
-2.697893700787402
 30
0.0
 10
-1.527783464566929
 20
-2.697893700787402
 30
0.0
 10
-1.773177165354331
 20
-2.686803149606299
 30
0.0
 10
-2.064318897637795
 20
-2.664622047244094
 30
0.0
 10
-2.218212598425197
 20
-2.672937007874016
 30
0.0
 10
-2.218212598425197
 20
-2.672937007874016
 30
0.0
 10
-2.372102362204724
 20
-2.681255905511811
 30
0.0
 10
-2.388740157480315
 20
-2.720074803149606
 30
0.0
 10
-2.370716535433071
 20
-2.753350393700787
 30
0.0
 10
-2.370716535433071
 20
-2.753350393700787
 30
0.0
 10
-2.352692913385827
 20
-2.786622047244094
 30
0.0
 10
-2.300011811023622
 20
-2.814354330708662
 30
0.0
 10
-2.273669291338583
 20
-2.851783464566929
 30
0.0
 10
-2.273669291338583
 20
-2.851783464566929
 30
0.0
 10
-2.247326771653543
 20
-2.889216535433071
 30
0.0
 10
-2.247326771653543
 20
-2.936354330708661
 30
0.0
 10
-2.247326771653543
 20
-2.984877952755906
 30
0.0
 10
-2.247326771653543
 20
-2.984877952755906
 30
0.0
 10
-2.247326771653543
 20
-3.03340157480315
 30
0.0
 10
-2.247326771653543
 20
-3.083314960629921
 30
0.0
 10
-2.284759842519685
 20
-3.113814960629921
 30
0.0
 10
-2.284759842519685
 20
-3.113814960629921
 30
0.0
 10
-2.322192913385827
 20
-3.144314960629921
 30
0.0
 10
-2.39705905511811
 20
-3.155409448818898
 30
0.0
 10
-2.492720472440945
 20
-3.14986220472441
 30
0.0
 10
-2.492720472440945
 20
-3.14986220472441
 30
0.0
 10
-2.58838188976378
 20
-3.144314960629921
 30
0.0
 10
-2.704838582677165
 20
-3.122133858267717
 30
0.0
 10
-2.821299212598425
 20
-3.108267716535433
 30
0.0
 10
-2.821299212598425
 20
-3.108267716535433
 30
0.0
 10
-2.937755905511811
 20
-3.094405511811023
 30
0.0
 10
-3.054212598425197
 20
-3.08886220472441
 30
0.0
 10
-3.242763779527559
 20
-3.084700787401575
 30
0.0
 10
-3.242763779527559
 20
-3.084700787401575
 30
0.0
 10
-3.431314960629921
 20
-3.080543307086614
 30
0.0
 10
-3.69196062992126
 20
-3.077767716535433
 30
0.0
 10
-3.911011811023622
 20
-3.073606299212599
 30
0.0
 10
-3.911011811023622
 20
-3.073606299212599
 30
0.0
 10
-4.130062992125985
 20
-3.069448818897638
 30
0.0
 10
-4.307523622047244
 20
-3.063905511811023
 30
0.0
 10
-4.392094488188977
 20
-3.027858267716535
 30
0.0
 10
-4.392094488188977
 20
-3.027858267716535
 30
0.0
 10
-4.476665354330708
 20
-2.991811023622047
 30
0.0
 10
-4.468346456692913
 20
-2.925263779527559
 30
0.0
 10
-4.460027559055118
 20
-2.876740157480315
 30
0.0
 10
-4.460027559055118
 20
-2.876740157480315
 30
0.0
 10
-4.451708661417323
 20
-2.828216535433071
 30
0.0
 10
-4.443389763779527
 20
-2.797716535433071
 30
0.0
 10
-4.483594488188976
 20
-2.753350393700787
 30
0.0
 10
-4.483594488188976
 20
-2.753350393700787
 30
0.0
 10
-4.688893700787402
 20
-2.526830708661417
 30
0.0
 10
-4.79253937007874
 20
-2.494964566929134
 30
0.0
 10
-4.866244094488189
 20
-2.148877952755905
 30
0.0
 10
-4.866244094488189
 20
-2.148877952755905
 30
0.0
 10
-4.92307874015748
 20
-1.882007874015748
 30
0.0
 10
-4.873161417322835
 20
-1.583708661417323
 30
0.0
 10
-4.745625984251968
 20
-1.36555905511811
 30
0.0
 10
-4.745625984251968
 20
-1.36555905511811
 30
0.0
 10
-4.692944881889764
 20
-1.27544094488189
 30
0.0
 10
-4.634712598425197
 20
-1.21444094488189
 30
0.0
 10
-4.590350393700787
 20
-1.134027559055118
 30
0.0
 10
-4.590350393700787
 20
-1.134027559055118
 30
0.0
 10
-4.470736220472441
 20
-0.9172244094488189
 30
0.0
 10
-4.514094488188976
 20
-0.8628661417322835
 30
0.0
 10
-4.308917322834645
 20
-0.6695826771653544
 30
0.0
  0
SPLINE
  5
71
330
1F
100
AcDbEntity
  8
Layer 1
 62
   250
370
    18
100
AcDbSpline
210
0.0
220
0.0
230
1.0
 70
    11
 71
     3
 72
   144
 73
   140
 74
     0
 42
0.000000001
 43
0.0000000001
 40
0.0
 40
0.0
 40
0.0
 40
0.0
 40
0.0277777777777778
 40
0.0277777777777778
 40
0.0277777777777778
 40
0.0277777777777778
 40
0.0555555555555556
 40
0.0555555555555556
 40
0.0555555555555556
 40
0.0555555555555556
 40
0.0833333333333333
 40
0.0833333333333333
 40
0.0833333333333333
 40
0.0833333333333333
 40
0.1111111111111111
 40
0.1111111111111111
 40
0.1111111111111111
 40
0.1111111111111111
 40
0.1388888888888889
 40
0.1388888888888889
 40
0.1388888888888889
 40
0.1388888888888889
 40
0.1666666666666667
 40
0.1666666666666667
 40
0.1666666666666667
 40
0.1666666666666667
 40
0.1944444444444444
 40
0.1944444444444444
 40
0.1944444444444444
 40
0.1944444444444444
 40
0.2222222222222222
 40
0.2222222222222222
 40
0.2222222222222222
 40
0.2222222222222222
 40
0.25
 40
0.25
 40
0.25
 40
0.25
 40
0.2777777777777778
 40
0.2777777777777778
 40
0.2777777777777778
 40
0.2777777777777778
 40
0.3055555555555556
 40
0.3055555555555556
 40
0.3055555555555556
 40
0.3055555555555556
 40
0.3333333333333333
 40
0.3333333333333333
 40
0.3333333333333333
 40
0.3333333333333333
 40
0.3611111111111111
 40
0.3611111111111111
 40
0.3611111111111111
 40
0.3611111111111111
 40
0.3888888888888889
 40
0.3888888888888889
 40
0.3888888888888889
 40
0.3888888888888889
 40
0.4166666666666667
 40
0.4166666666666667
 40
0.4166666666666667
 40
0.4166666666666667
 40
0.4444444444444444
 40
0.4444444444444444
 40
0.4444444444444444
 40
0.4444444444444444
 40
0.4722222222222222
 40
0.4722222222222222
 40
0.4722222222222222
 40
0.4722222222222222
 40
0.5
 40
0.5
 40
0.5
 40
0.5
 40
0.5277777777777778
 40
0.5277777777777778
 40
0.5277777777777778
 40
0.5277777777777778
 40
0.5555555555555556
 40
0.5555555555555556
 40
0.5555555555555556
 40
0.5555555555555556
 40
0.5833333333333334
 40
0.5833333333333334
 40
0.5833333333333334
 40
0.5833333333333334
 40
0.6111111111111112
 40
0.6111111111111112
 40
0.6111111111111112
 40
0.6111111111111112
 40
0.6388888888888888
 40
0.6388888888888888
 40
0.6388888888888888
 40
0.6388888888888888
 40
0.6666666666666666
 40
0.6666666666666666
 40
0.6666666666666666
 40
0.6666666666666666
 40
0.6944444444444444
 40
0.6944444444444444
 40
0.6944444444444444
 40
0.6944444444444444
 40
0.7222222222222222
 40
0.7222222222222222
 40
0.7222222222222222
 40
0.7222222222222222
 40
0.75
 40
0.75
 40
0.75
 40
0.75
 40
0.7777777777777778
 40
0.7777777777777778
 40
0.7777777777777778
 40
0.7777777777777778
 40
0.8055555555555556
 40
0.8055555555555556
 40
0.8055555555555556
 40
0.8055555555555556
 40
0.8333333333333334
 40
0.8333333333333334
 40
0.8333333333333334
 40
0.8333333333333334
 40
0.8611111111111112
 40
0.8611111111111112
 40
0.8611111111111112
 40
0.8611111111111112
 40
0.8888888888888888
 40
0.8888888888888888
 40
0.8888888888888888
 40
0.8888888888888888
 40
0.9166666666666666
 40
0.9166666666666666
 40
0.9166666666666666
 40
0.9166666666666666
 40
0.9444444444444444
 40
0.9444444444444444
 40
0.9444444444444444
 40
0.9444444444444444
 40
1.0
 40
1.0
 40
1.0
 40
1.0
 10
2.487925196850393
 20
2.776330708661417
 30
0.0
 10
2.462275590551181
 20
2.814456692913386
 30
0.0
 10
2.426232283464567
 20
2.847732283464567
 30
0.0
 10
2.397811023622047
 20
2.874767716535433
 30
0.0
 10
2.397811023622047
 20
2.874767716535433
 30
0.0
 10
2.311496062992126
 20
2.956866141732283
 30
0.0
 10
2.36394094488189
 20
2.935122047244095
 30
0.0
 10
2.392263779527559
 20
2.986370078740157
 30
0.0
 10
2.392263779527559
 20
2.986370078740157
 30
0.0
 10
2.406818897637795
 20
3.012712598425197
 30
0.0
 10
2.41098031496063
 20
3.05707874015748
 30
0.0
 10
2.426228346456693
 20
3.065393700787402
 30
0.0
 10
2.426228346456693
 20
3.065393700787402
 30
0.0
 10
2.44148031496063
 20
3.073712598425197
 30
0.0
 10
2.467822834645669
 20
3.045988188976378
 30
0.0
 10
2.48653937007874
 20
3.020338582677165
 30
0.0
 10
2.48653937007874
 20
3.020338582677165
 30
0.0
 10
2.505255905511811
 20
2.994688976377953
 30
0.0
 10
2.516346456692913
 20
2.971122047244095
 30
0.0
 10
2.538531496062992
 20
2.96903937007874
 30
0.0
 10
2.538531496062992
 20
2.96903937007874
 30
0.0
 10
2.560712598425197
 20
2.96696062992126
 30
0.0
 10
2.593988188976378
 20
2.986370078740157
 30
0.0
 10
2.609929133858268
 20
2.969732283464567
 30
0.0
 10
2.609929133858268
 20
2.969732283464567
 30
0.0
 10
2.625874015748031
 20
2.95309842519685
 30
0.0
 10
2.624488188976378
 20
2.900413385826772
 30
0.0
 10
2.634188976377953
 20
2.857433070866142
 30
0.0
 10
2.634188976377953
 20
2.857433070866142
 30
0.0
 10
2.643897637795276
 20
2.814456692913386
 30
0.0
 10
2.664692913385827
 20
2.781181102362205
 30
0.0
 10
2.688956692913386
 20
2.788807086614173
 30
0.0
 10
2.688956692913386
 20
2.788807086614173
 30
0.0
 10
2.770822834645669
 20
2.81453937007874
 30
0.0
 10
2.733866141732284
 20
2.91046062992126
 30
0.0
 10
2.754811023622047
 20
2.740283464566929
 30
0.0
 10
2.754811023622047
 20
2.740283464566929
 30
0.0
 10
2.766374015748032
 20
2.646303149606299
 30
0.0
 10
2.902905511811023
 20
2.499870078740158
 30
0.0
 10
2.969007874015748
 20
2.43457874015748
 30
0.0
 10
2.969007874015748
 20
2.43457874015748
 30
0.0
 10
3.025157480314961
 20
2.379125984251969
 30
0.0
 10
3.082
 20
2.334759842519685
 30
0.0
 10
3.115271653543307
 20
2.289007874015748
 30
0.0
 10
3.115271653543307
 20
2.289007874015748
 30
0.0
 10
3.148547244094488
 20
2.243259842519685
 30
0.0
 10
3.158251968503937
 20
2.196122047244094
 30
0.0
 10
3.185283464566929
 20
2.16146062992126
 30
0.0
 10
3.185283464566929
 20
2.16146062992126
 30
0.0
 10
3.212322834645669
 20
2.126799212598425
 30
0.0
 10
3.256685039370079
 20
2.10461811023622
 30
0.0
 10
3.307291338582677
 20
2.066492125984252
 30
0.0
 10
3.307291338582677
 20
2.066492125984252
 30
0.0
 10
3.357893700787402
 20
2.028362204724409
 30
0.0
 10
3.414736220472441
 20
1.974295275590551
 30
0.0
 10
3.45494094488189
 20
1.928543307086614
 30
0.0
 10
3.45494094488189
 20
1.928543307086614
 30
0.0
 10
3.555622047244094
 20
1.81398031496063
 30
0.0
 10
3.559811023622047
 20
1.725153543307087
 30
0.0
 10
3.633787401574803
 20
1.599964566929134
 30
0.0
 10
3.633787401574803
 20
1.599964566929134
 30
0.0
 10
3.669834645669291
 20
1.538964566929134
 30
0.0
 10
3.714200787401575
 20
1.49044094488189
 30
0.0
 10
3.73638188976378
 20
1.427358267716536
 30
0.0
 10
3.73638188976378
 20
1.427358267716536
 30
0.0
 10
3.758562992125984
 20
1.364275590551181
 30
0.0
 10
3.758562992125984
 20
1.286637795275591
 30
0.0
 10
3.770350393700788
 20
1.224251968503937
 30
0.0
 10
3.770350393700788
 20
1.224251968503937
 30
0.0
 10
3.787157480314961
 20
1.135279527559055
 30
0.0
 10
3.858279527559055
 20
1.019535433070866
 30
0.0
 10
3.831350393700788
 20
0.9324094488188976
 30
0.0
 10
3.831350393700788
 20
0.9324094488188976
 30
0.0
 10
3.790956692913386
 20
0.8017244094488188
 30
0.0
 10
3.669220472440945
 20
0.9350748031496063
 30
0.0
 10
3.613685039370079
 20
0.9733110236220472
 30
0.0
 10
3.613685039370079
 20
0.9733110236220472
 30
0.0
 10
3.57140157480315
 20
1.002425196850394
 30
0.0
 10
3.538125984251968
 20
1.007972440944882
 30
0.0
 10
3.513173228346457
 20
1.023913385826772
 30
0.0
 10
3.513173228346457
 20
1.023913385826772
 30
0.0
 10
3.488216535433071
 20
1.039858267716535
 30
0.0
 10
3.47157874015748
 20
1.066200787401575
 30
0.0
 10
3.46742125984252
 20
1.091157480314961
 30
0.0
 10
3.46742125984252
 20
1.091157480314961
 30
0.0
 10
3.457456692913386
 20
1.150937007874016
 30
0.0
 10
3.529342519685039
 20
1.223874015748031
 30
0.0
 10
3.54298031496063
 20
1.337933070866142
 30
0.0
 10
3.54298031496063
 20
1.337933070866142
 30
0.0
 10
3.556748031496063
 20
1.453090551181102
 30
0.0
 10
3.50948031496063
 20
1.596133858267716
 30
0.0
 10
3.416122047244095
 20
1.663740157480315
 30
0.0
 10
3.416122047244095
 20
1.663740157480315
 30
0.0
 10
3.298236220472441
 20
1.749110236220472
 30
0.0
 10
3.208464566929134
 20
1.657783464566929
 30
0.0
 10
3.11457874015748
 20
1.643637795275591
 30
0.0
 10
3.11457874015748
 20
1.643637795275591
 30
0.0
 10
3.063976377952756
 20
1.636011811023622
 30
0.0
 10
3.022385826771654
 20
1.65542125984252
 30
0.0
 10
2.993267716535433
 20
1.654035433070866
 30
0.0
 10
2.993267716535433
 20
1.654035433070866
 30
0.0
 10
2.964153543307086
 20
1.652649606299213
 30
0.0
 10
2.94751968503937
 20
1.630468503937008
 30
0.0
 10
2.929492125984252
 20
1.643637795275591
 30
0.0
 10
2.929492125984252
 20
1.643637795275591
 30
0.0
 10
2.911472440944882
 20
1.656807086614173
 30
0.0
 10
2.892062992125984
 20
1.705334645669291
 30
0.0
 10
2.862948818897638
 20
1.680377952755906
 30
0.0
 10
2.862948818897638
 20
1.680377952755906
 30
0.0
 10
2.833834645669291
 20
1.65542125984252
 30
0.0
 10
2.795015748031496
 20
1.556988188976378
 30
0.0
 10
2.780456692913386
 20
1.477267716535433
 30
0.0
 10
2.780456692913386
 20
1.477267716535433
 30
0.0
 10
2.765897637795276
 20
1.397551181102362
 30
0.0
 10
2.775606299212598
 20
1.336547244094488
 30
0.0
 10
2.772830708661417
 20
1.304661417322835
 30
0.0
 10
2.772830708661417
 20
1.304661417322835
 30
0.0
 10
2.764318897637795
 20
1.206744094488189
 30
0.0
 10
2.675401574803149
 20
1.392220472440945
 30
0.0
 10
2.705590551181102
 20
1.606897637795276
 30
0.0
 10
2.705590551181102
 20
1.606897637795276
 30
0.0
 10
2.711830708661418
 20
1.651263779527559
 30
0.0
 10
2.700740157480315
 20
1.70255905511811
 30
0.0
 10
2.713909448818898
 20
1.756629921259843
 30
0.0
 10
2.713909448818898
 20
1.756629921259843
 30
0.0
 10
2.737700787401575
 20
1.854295275590551
 30
0.0
 10
2.832952755905512
 20
1.944468503937008
 30
0.0
 10
2.791547244094488
 20
2.04707874015748
 30
0.0
 10
2.791547244094488
 20
2.04707874015748
 30
0.0
 10
2.750779527559055
 20
2.148114173228346
 30
0.0
 10
2.602602362204725
 20
2.358968503937008
 30
0.0
 10
2.538531496062992
 20
2.483799212598425
 30
0.0
 10
2.538531496062992
 20
2.483799212598425
 30
0.0
 10
2.410964566929134
 20
2.732334645669291
 30
0.0
 10
2.572204724409449
 20
2.509862204724409
 30
0.0
 10
2.536448818897638
 20
2.662645669291339
 30
0.0
 10
2.536448818897638
 20
2.662645669291339
 30
0.0
 10
2.528822834645669
 20
2.695224409448819
 30
0.0
 10
2.513574803149606
 20
2.738204724409449
 30
0.0
 10
2.487925196850393
 20
2.776330708661417
 30
0.0
  0
SPLINE
  5
72
330
1F
100
AcDbEntity
  8
Layer 1
 62
   250
370
    18
100
AcDbSpline
210
0.0
220
0.0
230
1.0
 70
    11
 71
     3
 72
    76
 73
    72
 74
     0
 42
0.000000001
 43
0.0000000001
 40
0.0
 40
0.0
 40
0.0
 40
0.0
 40
0.0526315789473684
 40
0.0526315789473684
 40
0.0526315789473684
 40
0.0526315789473684
 40
0.1052631578947368
 40
0.1052631578947368
 40
0.1052631578947368
 40
0.1052631578947368
 40
0.1578947368421053
 40
0.1578947368421053
 40
0.1578947368421053
 40
0.1578947368421053
 40
0.2105263157894737
 40
0.2105263157894737
 40
0.2105263157894737
 40
0.2105263157894737
 40
0.2631578947368421
 40
0.2631578947368421
 40
0.2631578947368421
 40
0.2631578947368421
 40
0.3157894736842105
 40
0.3157894736842105
 40
0.3157894736842105
 40
0.3157894736842105
 40
0.3684210526315789
 40
0.3684210526315789
 40
0.3684210526315789
 40
0.3684210526315789
 40
0.4210526315789473
 40
0.4210526315789473
 40
0.4210526315789473
 40
0.4210526315789473
 40
0.4736842105263158
 40
0.4736842105263158
 40
0.4736842105263158
 40
0.4736842105263158
 40
0.5263157894736842
 40
0.5263157894736842
 40
0.5263157894736842
 40
0.5263157894736842
 40
0.5789473684210527
 40
0.5789473684210527
 40
0.5789473684210527
 40
0.5789473684210527
 40
0.631578947368421
 40
0.631578947368421
 40
0.631578947368421
 40
0.631578947368421
 40
0.6842105263157895
 40
0.6842105263157895
 40
0.6842105263157895
 40
0.6842105263157895
 40
0.7368421052631579
 40
0.7368421052631579
 40
0.7368421052631579
 40
0.7368421052631579
 40
0.7894736842105263
 40
0.7894736842105263
 40
0.7894736842105263
 40
0.7894736842105263
 40
0.8421052631578947
 40
0.8421052631578947
 40
0.8421052631578947
 40
0.8421052631578947
 40
0.8947368421052632
 40
0.8947368421052632
 40
0.8947368421052632
 40
0.8947368421052632
 40
1.0
 40
1.0
 40
1.0
 40
1.0
 10
2.819275590551181
 20
0.9989606299212599
 30
0.0
 10
2.814673228346457
 20
0.9145314960629921
 30
0.0
 10
2.850283464566929
 20
0.6868858267716536
 30
0.0
 10
2.878196850393701
 20
0.6031417322834646
 30
0.0
 10
2.878196850393701
 20
0.6031417322834646
 30
0.0
 10
2.894834645669291
 20
0.5532322834645669
 30
0.0
 10
2.912858267716536
 20
0.5338228346456693
 30
0.0
 10
2.948905511811024
 20
0.5338228346456693
 30
0.0
 10
2.948905511811024
 20
0.5338228346456693
 30
0.0
 10
2.984952755905512
 20
0.5338228346456693
 30
0.0
 10
3.03901968503937
 20
0.5532322834645669
 30
0.0
 10
3.082
 20
0.583732283464567
 30
0.0
 10
3.082
 20
0.583732283464567
 30
0.0
 10
3.124976377952756
 20
0.6142322834645669
 30
0.0
 10
3.156862204724409
 20
0.6558228346456693
 30
0.0
 10
3.176275590551181
 20
0.6655275590551181
 30
0.0
 10
3.176275590551181
 20
0.6655275590551181
 30
0.0
 10
3.195685039370079
 20
0.6752362204724409
 30
0.0
 10
3.20261811023622
 20
0.6530511811023622
 30
0.0
 10
3.193606299212599
 20
0.6183897637795276
 30
0.0
 10
3.193606299212599
 20
0.6183897637795276
 30
0.0
 10
3.184594488188977
 20
0.583732283464567
 30
0.0
 10
3.159637795275591
 20
0.5365944881889764
 30
0.0
 10
3.1735
 20
0.5359015748031496
 30
0.0
 10
3.1735
 20
0.5359015748031496
 30
0.0
 10
3.187366141732284
 20
0.5352086614173228
 30
0.0
 10
3.240051181102362
 20
0.5809606299212599
 30
0.0
 10
3.293425196850394
 20
0.6086889763779527
 30
0.0
 10
3.293425196850394
 20
0.6086889763779527
 30
0.0
 10
3.391188976377953
 20
0.6594724409448819
 30
0.0
 10
3.536850393700787
 20
0.6804055118110236
 30
0.0
 10
3.608830708661417
 20
0.7799055118110236
 30
0.0
 10
3.608830708661417
 20
0.7799055118110236
 30
0.0
 10
3.63240157480315
 20
0.812488188976378
 30
0.0
 10
3.614377952755905
 20
0.8318976377952756
 30
0.0
 10
3.587342519685039
 20
0.827736220472441
 30
0.0
 10
3.587342519685039
 20
0.827736220472441
 30
0.0
 10
3.511354330708661
 20
0.8160472440944881
 30
0.0
 10
3.432633858267716
 20
0.7395118110236221
 30
0.0
 10
3.317685039370079
 20
0.7778267716535433
 30
0.0
 10
3.317685039370079
 20
0.7778267716535433
 30
0.0
 10
3.288570866141732
 20
0.7875314960629921
 30
0.0
 10
3.301051181102362
 20
0.8069409448818897
 30
0.0
 10
3.32253937007874
 20
0.8353622047244095
 30
0.0
 10
3.32253937007874
 20
0.8353622047244095
 30
0.0
 10
3.344027559055118
 20
0.8637834645669291
 30
0.0
 10
3.374531496062992
 20
0.9012165354330709
 30
0.0
 10
3.386314960629921
 20
0.9303307086614173
 30
0.0
 10
3.386314960629921
 20
0.9303307086614173
 30
0.0
 10
3.39809842519685
 20
0.9594448818897637
 30
0.0
 10
3.391169291338583
 20
0.9802440944881889
 30
0.0
 10
3.36759842519685
 20
0.9857874015748032
 30
0.0
 10
3.36759842519685
 20
0.9857874015748032
 30
0.0
 10
3.344031496062992
 20
0.9913346456692913
 30
0.0
 10
3.303822834645669
 20
0.9816299212598425
 30
0.0
 10
3.251137795275591
 20
0.9857874015748032
 30
0.0
 10
3.251137795275591
 20
0.9857874015748032
 30
0.0
 10
3.112814960629921
 20
0.9967086614173228
 30
0.0
 10
3.034740157480315
 20
1.062220472440945
 30
0.0
 10
2.926720472440945
 20
1.13551968503937
 30
0.0
 10
2.926720472440945
 20
1.13551968503937
 30
0.0
 10
2.808377952755905
 20
1.215826771653543
 30
0.0
 10
2.88642125984252
 20
1.092771653543307
 30
0.0
 10
2.889287401574803
 20
1.044015748031496
 30
0.0
 10
2.889287401574803
 20
1.044015748031496
 30
0.0
 10
2.890677165354331
 20
1.020448818897638
 30
0.0
 10
2.867106299212598
 20
1.03153937007874
 30
0.0
 10
2.849775590551181
 20
1.035696850393701
 30
0.0
 10
2.849775590551181
 20
1.035696850393701
 30
0.0
 10
2.832448818897638
 20
1.039858267716535
 30
0.0
 10
2.821354330708661
 20
1.037086614173228
 30
0.0
 10
2.819275590551181
 20
0.9989606299212599
 30
0.0
  0
SPLINE
  5
73
330
1F
100
AcDbEntity
  8
Layer 1
 62
   250
370
    18
100
AcDbSpline
210
0.0
220
0.0
230
1.0
 70
    11
 71
     3
 72
   120
 73
   116
 74
     0
 42
0.000000001
 43
0.0000000001
 40
0.0
 40
0.0
 40
0.0
 40
0.0
 40
0.0333333333333333
 40
0.0333333333333333
 40
0.0333333333333333
 40
0.0333333333333333
 40
0.0666666666666667
 40
0.0666666666666667
 40
0.0666666666666667
 40
0.0666666666666667
 40
0.1
 40
0.1
 40
0.1
 40
0.1
 40
0.1333333333333333
 40
0.1333333333333333
 40
0.1333333333333333
 40
0.1333333333333333
 40
0.1666666666666667
 40
0.1666666666666667
 40
0.1666666666666667
 40
0.1666666666666667
 40
0.2
 40
0.2
 40
0.2
 40
0.2
 40
0.2333333333333333
 40
0.2333333333333333
 40
0.2333333333333333
 40
0.2333333333333333
 40
0.2666666666666667
 40
0.2666666666666667
 40
0.2666666666666667
 40
0.2666666666666667
 40
0.3
 40
0.3
 40
0.3
 40
0.3
 40
0.3333333333333333
 40
0.3333333333333333
 40
0.3333333333333333
 40
0.3333333333333333
 40
0.3666666666666666
 40
0.3666666666666666
 40
0.3666666666666666
 40
0.3666666666666666
 40
0.4
 40
0.4
 40
0.4
 40
0.4
 40
0.4333333333333333
 40
0.4333333333333333
 40
0.4333333333333333
 40
0.4333333333333333
 40
0.4666666666666667
 40
0.4666666666666667
 40
0.4666666666666667
 40
0.4666666666666667
 40
0.5
 40
0.5
 40
0.5
 40
0.5
 40
0.5333333333333333
 40
0.5333333333333333
 40
0.5333333333333333
 40
0.5333333333333333
 40
0.5666666666666667
 40
0.5666666666666667
 40
0.5666666666666667
 40
0.5666666666666667
 40
0.6
 40
0.6
 40
0.6
 40
0.6
 40
0.6333333333333333
 40
0.6333333333333333
 40
0.6333333333333333
 40
0.6333333333333333
 40
0.6666666666666666
 40
0.6666666666666666
 40
0.6666666666666666
 40
0.6666666666666666
 40
0.7
 40
0.7
 40
0.7
 40
0.7
 40
0.7333333333333333
 40
0.7333333333333333
 40
0.7333333333333333
 40
0.7333333333333333
 40
0.7666666666666667
 40
0.7666666666666667
 40
0.7666666666666667
 40
0.7666666666666667
 40
0.8
 40
0.8
 40
0.8
 40
0.8
 40
0.8333333333333334
 40
0.8333333333333334
 40
0.8333333333333334
 40
0.8333333333333334
 40
0.8666666666666667
 40
0.8666666666666667
 40
0.8666666666666667
 40
0.8666666666666667
 40
0.9
 40
0.9
 40
0.9
 40
0.9
 40
0.9333333333333333
 40
0.9333333333333333
 40
0.9333333333333333
 40
0.9333333333333333
 40
1.0
 40
1.0
 40
1.0
 40
1.0
 10
2.101799212598425
 20
-1.050842519685039
 30
0.0
 10
2.147555118110236
 20
-1.005090551181102
 30
0.0
 10
2.200236220472441
 20
-0.9274527559055118
 30
0.0
 10
2.223803149606299
 20
-0.8622913385826771
 30
0.0
 10
2.223803149606299
 20
-0.8622913385826771
 30
0.0
 10
2.247374015748032
 20
-0.7971299212598425
 30
0.0
 10
2.241830708661417
 20
-0.7444488188976378
 30
0.0
 10
2.264011811023622
 20
-0.6889881889763779
 30
0.0
 10
2.264011811023622
 20
-0.6889881889763779
 30
0.0
 10
2.286192913385827
 20
-0.6335354330708661
 30
0.0
 10
2.336106299212598
 20
-0.5753070866141732
 30
0.0
 10
2.367992125984252
 20
-0.5115314960629921
 30
0.0
 10
2.367992125984252
 20
-0.5115314960629921
 30
0.0
 10
2.44755905511811
 20
-0.3523858267716535
 30
0.0
 10
2.410476377952756
 20
-0.1391220472440945
 30
0.0
 10
2.463653543307087
 20
-0.0956102362204724
 30
0.0
 10
2.463653543307087
 20
-0.0956102362204724
 30
0.0
 10
2.494153543307087
 20
-0.0706535433070866
 30
0.0
 10
2.552385826771653
 20
-0.1150196850393701
 30
0.0
 10
2.606452755905512
 20
-0.1385866141732283
 30
0.0
 10
2.606452755905512
 20
-0.1385866141732283
 30
0.0
 10
2.660523622047244
 20
-0.1621574803149606
 30
0.0
 10
2.710433070866142
 20
-0.1649291338582677
 30
0.0
 10
2.743708661417323
 20
-0.1496771653543307
 30
0.0
 10
2.743708661417323
 20
-0.1496771653543307
 30
0.0
 10
2.77698031496063
 20
-0.1344291338582677
 30
0.0
 10
2.793618110236221
 20
-0.1011535433070866
 30
0.0
 10
2.792228346456693
 20
-0.0165826771653543
 30
0.0
 10
2.792228346456693
 20
-0.0165826771653543
 30
0.0
 10
2.790846456692913
 20
0.067988188976378
 30
0.0
 10
2.771437007874016
 20
0.2038543307086614
 30
0.0
 10
2.774208661417323
 20
0.2523818897637795
 30
0.0
 10
2.774208661417323
 20
0.2523818897637795
 30
0.0
 10
2.77698031496063
 20
0.3009015748031496
 30
0.0
 10
2.801937007874016
 20
0.2620826771653543
 30
0.0
 10
2.828279527559055
 20
0.2745590551181102
 30
0.0
 10
2.828279527559055
 20
0.2745590551181102
 30
0.0
 10
2.854622047244094
 20
0.2870393700787401
 30
0.0
 10
2.882346456692913
 20
0.3508149606299212
 30
0.0
 10
2.925326771653543
 20
0.3674488188976378
 30
0.0
 10
2.925326771653543
 20
0.3674488188976378
 30
0.0
 10
2.968303149606299
 20
0.3840866141732284
 30
0.0
 10
3.026535433070866
 20
0.3535866141732283
 30
0.0
 10
3.081992125984252
 20
0.3494251968503937
 30
0.0
 10
3.081992125984252
 20
0.3494251968503937
 30
0.0
 10
3.137444881889764
 20
0.3452677165354331
 30
0.0
 10
3.190129921259842
 20
0.3674488188976378
 30
0.0
 10
3.235877952755906
 20
0.3896338582677165
 30
0.0
 10
3.235877952755906
 20
0.3896338582677165
 30
0.0
 10
3.281633858267717
 20
0.4118149606299212
 30
0.0
 10
3.320448818897638
 20
0.433996062992126
 30
0.0
 10
3.33986220472441
 20
0.4076535433070866
 30
0.0
 10
3.33986220472441
 20
0.4076535433070866
 30
0.0
 10
3.359271653543307
 20
0.3813149606299213
 30
0.0
 10
3.359271653543307
 20
0.3064488188976378
 30
0.0
 10
3.341248031496063
 20
0.1983110236220472
 30
0.0
 10
3.341248031496063
 20
0.1983110236220472
 30
0.0
 10
3.323224409448819
 20
0.0901692913385827
 30
0.0
 10
3.287177165354331
 20
-0.051244094488189
 30
0.0
 10
3.276086614173229
 20
-0.1815629921259843
 30
0.0
 10
3.276086614173229
 20
-0.1815629921259843
 30
0.0
 10
3.264996062992126
 20
-0.3118858267716536
 30
0.0
 10
3.278858267716535
 20
-0.4311181102362205
 30
0.0
 10
3.273311023622047
 20
-0.5406456692913386
 30
0.0
 10
3.273311023622047
 20
-0.5406456692913386
 30
0.0
 10
3.264925196850394
 20
-0.706263779527559
 30
0.0
 10
3.212287401574803
 20
-0.9001102362204725
 30
0.0
 10
3.041783464566929
 20
-0.9080433070866142
 30
0.0
 10
3.041783464566929
 20
-0.9080433070866142
 30
0.0
 10
2.982169291338583
 20
-0.9108149606299213
 30
0.0
 10
2.921165354330709
 20
-0.8886338582677166
 30
0.0
 10
2.901755905511811
 20
-0.905267716535433
 30
0.0
 10
2.901755905511811
 20
-0.905267716535433
 30
0.0
 10
2.882346456692913
 20
-0.9219055118110236
 30
0.0
 10
2.904531496062992
 20
-0.9773622047244095
 30
0.0
 10
2.935031496062992
 20
-1.021724409448819
 30
0.0
 10
2.935031496062992
 20
-1.021724409448819
 30
0.0
 10
2.965531496062992
 20
-1.066090551181102
 30
0.0
 10
3.004350393700788
 20
-1.099366141732284
 30
0.0
 10
2.99742125984252
 20
-1.196413385826772
 30
0.0
 10
2.99742125984252
 20
-1.196413385826772
 30
0.0
 10
2.990488188976378
 20
-1.293464566929134
 30
0.0
 10
2.937803149606299
 20
-1.454283464566929
 30
0.0
 10
2.842141732283465
 20
-1.57490157480315
 30
0.0
 10
2.842141732283465
 20
-1.57490157480315
 30
0.0
 10
2.74648031496063
 20
-1.69551968503937
 30
0.0
 10
2.607838582677165
 20
-1.775933070866142
 30
0.0
 10
2.471972440944882
 20
-1.859114173228346
 30
0.0
 10
2.471972440944882
 20
-1.859114173228346
 30
0.0
 10
2.336106299212598
 20
-1.942299212598425
 30
0.0
 10
2.203007874015748
 20
-2.028255905511811
 30
0.0
 10
2.133688976377953
 20
-2.061531496062992
 30
0.0
 10
2.133688976377953
 20
-2.061531496062992
 30
0.0
 10
2.064370078740157
 20
-2.094803149606299
 30
0.0
 10
2.058822834645669
 20
-2.075393700787401
 30
0.0
 10
2.054661417322835
 20
-2.021326771653543
 30
0.0
 10
2.054661417322835
 20
-2.021326771653543
 30
0.0
 10
2.050503937007874
 20
-1.967255905511811
 30
0.0
 10
2.047732283464567
 20
-1.878527559055118
 30
0.0
 10
2.013070866141732
 20
-1.791181102362205
 30
0.0
 10
2.013070866141732
 20
-1.791181102362205
 30
0.0
 10
1.978413385826772
 20
-1.703838582677165
 30
0.0
 10
1.911866141732284
 20
-1.617881889763779
 30
0.0
 10
1.891066929133858
 20
-1.555492125984252
 30
0.0
 10
1.891066929133858
 20
-1.555492125984252
 30
0.0
 10
1.870271653543307
 20
-1.493106299212599
 30
0.0
 10
1.895228346456693
 20
-1.454287401574803
 30
0.0
 10
1.917409448818898
 20
-1.386350393700787
 30
0.0
 10
1.917409448818898
 20
-1.386350393700787
 30
0.0
 10
1.939594488188976
 20
-1.318417322834646
 30
0.0
 10
1.959
 20
-1.221370078740158
 30
0.0
 10
1.98811811023622
 20
-1.165913385826772
 30
0.0
 10
1.98811811023622
 20
-1.165913385826772
 30
0.0
 10
2.017232283464567
 20
-1.110456692913386
 30
0.0
 10
2.056051181102362
 20
-1.096594488188976
 30
0.0
 10
2.101799212598425
 20
-1.050842519685039
 30
0.0
  0
SPLINE
  5
74
330
1F
100
AcDbEntity
  8
Layer 1
 62
   250
370
    18
100
AcDbSpline
210
0.0
220
0.0
230
1.0
 70
    11
 71
     3
 72
    72
 73
    68
 74
     0
 42
0.000000001
 43
0.0000000001
 40
0.0
 40
0.0
 40
0.0
 40
0.0
 40
0.0555555555555556
 40
0.0555555555555556
 40
0.0555555555555556
 40
0.0555555555555556
 40
0.1111111111111111
 40
0.1111111111111111
 40
0.1111111111111111
 40
0.1111111111111111
 40
0.1666666666666667
 40
0.1666666666666667
 40
0.1666666666666667
 40
0.1666666666666667
 40
0.2222222222222222
 40
0.2222222222222222
 40
0.2222222222222222
 40
0.2222222222222222
 40
0.2777777777777778
 40
0.2777777777777778
 40
0.2777777777777778
 40
0.2777777777777778
 40
0.3333333333333333
 40
0.3333333333333333
 40
0.3333333333333333
 40
0.3333333333333333
 40
0.3888888888888889
 40
0.3888888888888889
 40
0.3888888888888889
 40
0.3888888888888889
 40
0.4444444444444444
 40
0.4444444444444444
 40
0.4444444444444444
 40
0.4444444444444444
 40
0.5
 40
0.5
 40
0.5
 40
0.5
 40
0.5555555555555556
 40
0.5555555555555556
 40
0.5555555555555556
 40
0.5555555555555556
 40
0.6111111111111112
 40
0.6111111111111112
 40
0.6111111111111112
 40
0.6111111111111112
 40
0.6666666666666666
 40
0.6666666666666666
 40
0.6666666666666666
 40
0.6666666666666666
 40
0.7222222222222222
 40
0.7222222222222222
 40
0.7222222222222222
 40
0.7222222222222222
 40
0.7777777777777778
 40
0.7777777777777778
 40
0.7777777777777778
 40
0.7777777777777778
 40
0.8333333333333334
 40
0.8333333333333334
 40
0.8333333333333334
 40
0.8333333333333334
 40
0.8888888888888888
 40
0.8888888888888888
 40
0.8888888888888888
 40
0.8888888888888888
 40
1.0
 40
1.0
 40
1.0
 40
1.0
 10
2.475437007874016
 20
-2.073322834645669
 30
0.0
 10
2.683417322834646
 20
-1.929338582677165
 30
0.0
 10
2.939110236220472
 20
-1.502350393700787
 30
0.0
 10
2.941271653543307
 20
-1.787031496062992
 30
0.0
 10
2.941271653543307
 20
-1.787031496062992
 30
0.0
 10
2.941964566929134
 20
-1.878535433070866
 30
0.0
 10
2.936417322834646
 20
-2.021334645669291
 30
0.0
 10
2.918393700787401
 20
-2.134326771653543
 30
0.0
 10
2.918393700787401
 20
-2.134326771653543
 30
0.0
 10
2.900370078740158
 20
-2.247318897637795
 30
0.0
 10
2.869870078740158
 20
-2.330503937007874
 30
0.0
 10
2.887196850393701
 20
-2.422696850393701
 30
0.0
 10
2.887196850393701
 20
-2.422696850393701
 30
0.0
 10
2.904527559055118
 20
-2.514893700787402
 30
0.0
 10
2.969692913385827
 20
-2.616102362204725
 30
0.0
 10
3.069511811023622
 20
-2.68334251968504
 30
0.0
 10
3.069511811023622
 20
-2.68334251968504
 30
0.0
 10
3.169334645669291
 20
-2.750582677165355
 30
0.0
 10
3.303814960629921
 20
-2.783854330708662
 30
0.0
 10
3.396700787401575
 20
-2.831685039370079
 30
0.0
 10
3.396700787401575
 20
-2.831685039370079
 30
0.0
 10
3.489590551181102
 20
-2.879515748031496
 30
0.0
 10
3.540889763779528
 20
-2.941905511811024
 30
0.0
 10
3.560992125984252
 20
-2.980724409448819
 30
0.0
 10
3.560992125984252
 20
-2.980724409448819
 30
0.0
 10
3.581094488188977
 20
-3.019543307086614
 30
0.0
 10
3.570003937007874
 20
-3.034795275590551
 30
0.0
 10
3.533956692913386
 20
-3.026472440944882
 30
0.0
 10
3.533956692913386
 20
-3.026472440944882
 30
0.0
 10
3.497909448818898
 20
-3.018157480314961
 30
0.0
 10
3.436909448818898
 20
-2.986271653543307
 30
0.0
 10
3.38907874015748
 20
-2.995283464566929
 30
0.0
 10
3.38907874015748
 20
-2.995283464566929
 30
0.0
 10
3.341244094488189
 20
-3.004295275590551
 30
0.0
 10
3.306586614173229
 20
-3.054204724409449
 30
0.0
 10
3.246279527559055
 20
-3.06044094488189
 30
0.0
 10
3.246279527559055
 20
-3.06044094488189
 30
0.0
 10
3.185968503937008
 20
-3.066681102362205
 30
0.0
 10
3.100011811023622
 20
-3.029248031496063
 30
0.0
 10
3.044555118110236
 20
-3.000826771653543
 30
0.0
 10
3.044555118110236
 20
-3.000826771653543
 30
0.0
 10
2.98909842519685
 20
-2.972405511811024
 30
0.0
 10
2.964145669291339
 20
-2.952996062992126
 30
0.0
 10
2.937106299212598
 20
-2.959929133858268
 30
0.0
 10
2.937106299212598
 20
-2.959929133858268
 30
0.0
 10
2.910074803149606
 20
-2.966862204724409
 30
0.0
 10
2.88096062992126
 20
-3.000133858267716
 30
0.0
 10
2.817877952755905
 20
-2.9835
 30
0.0
 10
2.817877952755905
 20
-2.9835
 30
0.0
 10
2.606003937007874
 20
-2.92761811023622
 30
0.0
 10
2.576283464566929
 20
-2.750204724409449
 30
0.0
 10
2.57317716535433
 20
-2.565496062992126
 30
0.0
 10
2.57317716535433
 20
-2.565496062992126
 30
0.0
 10
2.56894094488189
 20
-2.31336220472441
 30
0.0
 10
2.494433070866142
 20
-2.373192913385827
 30
0.0
 10
2.420673228346457
 20
-2.354070866141732
 30
0.0
 10
2.420673228346457
 20
-2.354070866141732
 30
0.0
 10
2.383240157480315
 20
-2.344366141732284
 30
0.0
 10
2.355511811023622
 20
-2.31248031496063
 30
0.0
 10
2.334716535433071
 20
-2.277818897637795
 30
0.0
 10
2.334716535433071
 20
-2.277818897637795
 30
0.0
 10
2.31392125984252
 20
-2.243157480314961
 30
0.0
 10
2.30005905511811
 20
-2.205724409448819
 30
0.0
 10
2.320157480314961
 20
-2.177303149606299
 30
0.0
 10
2.320157480314961
 20
-2.177303149606299
 30
0.0
 10
2.340263779527559
 20
-2.148881889763779
 30
0.0
 10
2.394330708661417
 20
-2.129472440944882
 30
0.0
 10
2.475437007874016
 20
-2.073322834645669
 30
0.0
  0
SPLINE
  5
75
330
1F
100
AcDbEntity
  8
Layer 1
 62
   250
370
    18
100
AcDbSpline
210
0.0
220
0.0
230
1.0
 70
    11
 71
     3
 72
    84
 73
    80
 74
     0
 42
0.000000001
 43
0.0000000001
 40
0.0
 40
0.0
 40
0.0
 40
0.0
 40
0.0476190476190476
 40
0.0476190476190476
 40
0.0476190476190476
 40
0.0476190476190476
 40
0.0952380952380952
 40
0.0952380952380952
 40
0.0952380952380952
 40
0.0952380952380952
 40
0.1428571428571428
 40
0.1428571428571428
 40
0.1428571428571428
 40
0.1428571428571428
 40
0.1904761904761905
 40
0.1904761904761905
 40
0.1904761904761905
 40
0.1904761904761905
 40
0.2380952380952381
 40
0.2380952380952381
 40
0.2380952380952381
 40
0.2380952380952381
 40
0.2857142857142857
 40
0.2857142857142857
 40
0.2857142857142857
 40
0.2857142857142857
 40
0.3333333333333333
 40
0.3333333333333333
 40
0.3333333333333333
 40
0.3333333333333333
 40
0.3809523809523809
 40
0.3809523809523809
 40
0.3809523809523809
 40
0.3809523809523809
 40
0.4285714285714285
 40
0.4285714285714285
 40
0.4285714285714285
 40
0.4285714285714285
 40
0.4761904761904762
 40
0.4761904761904762
 40
0.4761904761904762
 40
0.4761904761904762
 40
0.5238095238095238
 40
0.5238095238095238
 40
0.5238095238095238
 40
0.5238095238095238
 40
0.5714285714285714
 40
0.5714285714285714
 40
0.5714285714285714
 40
0.5714285714285714
 40
0.6190476190476191
 40
0.6190476190476191
 40
0.6190476190476191
 40
0.6190476190476191
 40
0.6666666666666666
 40
0.6666666666666666
 40
0.6666666666666666
 40
0.6666666666666666
 40
0.7142857142857143
 40
0.7142857142857143
 40
0.7142857142857143
 40
0.7142857142857143
 40
0.7619047619047619
 40
0.7619047619047619
 40
0.7619047619047619
 40
0.7619047619047619
 40
0.8095238095238095
 40
0.8095238095238095
 40
0.8095238095238095
 40
0.8095238095238095
 40
0.8571428571428571
 40
0.8571428571428571
 40
0.8571428571428571
 40
0.8571428571428571
 40
0.9047619047619048
 40
0.9047619047619048
 40
0.9047619047619048
 40
0.9047619047619048
 40
1.0
 40
1.0
 40
1.0
 40
1.0
 10
1.269263779527559
 20
-2.147492125984252
 30
0.0
 10
1.287976377952756
 20
-2.18353937007874
 30
0.0
 10
1.300456692913386
 20
-2.236220472440945
 30
0.0
 10
1.298374015748031
 20
-2.279893700787401
 30
0.0
 10
1.298374015748031
 20
-2.279893700787401
 30
0.0
 10
1.296295275590551
 20
-2.323562992125984
 30
0.0
 10
1.279661417322835
 20
-2.358224409448819
 30
0.0
 10
1.288673228346457
 20
-2.406055118110236
 30
0.0
 10
1.288673228346457
 20
-2.406055118110236
 30
0.0
 10
1.297685039370079
 20
-2.453889763779527
 30
0.0
 10
1.332342519685039
 20
-2.514889763779528
 30
0.0
 10
1.339275590551181
 20
-2.583515748031496
 30
0.0
 10
1.339275590551181
 20
-2.583515748031496
 30
0.0
 10
1.354968503937008
 20
-2.738874015748031
 30
0.0
 10
1.237523622047244
 20
-2.892826771653543
 30
0.0
 10
1.238759842519685
 20
-2.957153543307087
 30
0.0
 10
1.238759842519685
 20
-2.957153543307087
 30
0.0
 10
1.239456692913386
 20
-2.993200787401575
 30
0.0
 10
1.274114173228347
 20
-3.007062992125984
 30
0.0
 10
1.295602362204724
 20
-3.041720472440945
 30
0.0
 10
1.295602362204724
 20
-3.041720472440945
 30
0.0
 10
1.335232283464567
 20
-3.105641732283464
 30
0.0
 10
1.326566929133858
 20
-3.235838582677165
 30
0.0
 10
1.461279527559055
 20
-3.153330708661418
 30
0.0
 10
1.461279527559055
 20
-3.153330708661418
 30
0.0
 10
1.516736220472441
 20
-3.11936220472441
 30
0.0
 10
1.591602362204724
 20
-3.051429133858268
 30
0.0
 10
1.644976377952756
 20
-3.05003937007874
 30
0.0
 10
1.644976377952756
 20
-3.05003937007874
 30
0.0
 10
1.698354330708661
 20
-3.048653543307087
 30
0.0
 10
1.730240157480315
 20
-3.113818897637795
 30
0.0
 10
1.778070866141732
 20
-3.138771653543307
 30
0.0
 10
1.778070866141732
 20
-3.138771653543307
 30
0.0
 10
1.825905511811024
 20
-3.163728346456693
 30
0.0
 10
1.889677165354331
 20
-3.148476377952756
 30
0.0
 10
1.928496062992126
 20
-3.11936220472441
 30
0.0
 10
1.928496062992126
 20
-3.11936220472441
 30
0.0
 10
1.967318897637795
 20
-3.090248031496063
 30
0.0
 10
1.981181102362205
 20
-3.047267716535433
 30
0.0
 10
2.023464566929134
 20
-3.047267716535433
 30
0.0
 10
2.023464566929134
 20
-3.047267716535433
 30
0.0
 10
2.065751968503937
 20
-3.047267716535433
 30
0.0
 10
2.13646062992126
 20
-3.090248031496063
 30
0.0
 10
2.164877952755905
 20
-3.09094094488189
 30
0.0
 10
2.164877952755905
 20
-3.09094094488189
 30
0.0
 10
2.193299212598425
 20
-3.091633858267717
 30
0.0
 10
2.179437007874016
 20
-3.050043307086614
 30
0.0
 10
2.106649606299213
 20
-2.993200787401575
 30
0.0
 10
2.106649606299213
 20
-2.993200787401575
 30
0.0
 10
2.033862204724409
 20
-2.936354330708661
 30
0.0
 10
1.902157480314961
 20
-2.864263779527559
 30
0.0
 10
1.852248031496063
 20
-2.758893700787401
 30
0.0
 10
1.852248031496063
 20
-2.758893700787401
 30
0.0
 10
1.802334645669291
 20
-2.653527559055118
 30
0.0
 10
1.834220472440945
 20
-2.514889763779528
 30
0.0
 10
1.861948818897638
 20
-2.403283464566929
 30
0.0
 10
1.861948818897638
 20
-2.403283464566929
 30
0.0
 10
1.889677165354331
 20
-2.291677165354331
 30
0.0
 10
1.913248031496063
 20
-2.207110236220473
 30
0.0
 10
1.919484251968504
 20
-2.11213779527559
 30
0.0
 10
1.919484251968504
 20
-2.11213779527559
 30
0.0
 10
1.925724409448819
 20
-2.017173228346457
 30
0.0
 10
1.914633858267716
 20
-1.911803149606299
 30
0.0
 10
1.898688976377953
 20
-1.880610236220472
 30
0.0
 10
1.898688976377953
 20
-1.880610236220472
 30
0.0
 10
1.882748031496063
 20
-1.849413385826772
 30
0.0
 10
1.861948818897638
 20
-1.892393700787402
 30
0.0
 10
1.818972440944882
 20
-1.936062992125984
 30
0.0
 10
1.818972440944882
 20
-1.936062992125984
 30
0.0
 10
1.707228346456693
 20
-2.049610236220472
 30
0.0
 10
1.541543307086614
 20
-2.089858267716536
 30
0.0
 10
1.382944881889764
 20
-2.091342519685039
 30
0.0
 10
1.382944881889764
 20
-2.091342519685039
 30
0.0
 10
1.308775590551181
 20
-2.092035433070866
 30
0.0
 10
1.254704724409449
 20
-2.082330708661417
 30
0.0
 10
1.240145669291339
 20
-2.087181102362205
 30
0.0
 10
1.240145669291339
 20
-2.087181102362205
 30
0.0
 10
1.225590551181102
 20
-2.092035433070866
 30
0.0
 10
1.250547244094488
 20
-2.111444881889764
 30
0.0
 10
1.269263779527559
 20
-2.147492125984252
 30
0.0
  0
SPLINE
  5
76
330
1F
100
AcDbEntity
  8
Layer 1
 62
   250
370
    18
100
AcDbSpline
210
0.0
220
0.0
230
1.0
 70
    11
 71
     3
 72
    76
 73
    72
 74
     0
 42
0.000000001
 43
0.0000000001
 40
0.0
 40
0.0
 40
0.0
 40
0.0
 40
0.0526315789473684
 40
0.0526315789473684
 40
0.0526315789473684
 40
0.0526315789473684
 40
0.1052631578947368
 40
0.1052631578947368
 40
0.1052631578947368
 40
0.1052631578947368
 40
0.1578947368421053
 40
0.1578947368421053
 40
0.1578947368421053
 40
0.1578947368421053
 40
0.2105263157894737
 40
0.2105263157894737
 40
0.2105263157894737
 40
0.2105263157894737
 40
0.2631578947368421
 40
0.2631578947368421
 40
0.2631578947368421
 40
0.2631578947368421
 40
0.3157894736842105
 40
0.3157894736842105
 40
0.3157894736842105
 40
0.3157894736842105
 40
0.3684210526315789
 40
0.3684210526315789
 40
0.3684210526315789
 40
0.3684210526315789
 40
0.4210526315789473
 40
0.4210526315789473
 40
0.4210526315789473
 40
0.4210526315789473
 40
0.4736842105263158
 40
0.4736842105263158
 40
0.4736842105263158
 40
0.4736842105263158
 40
0.5263157894736842
 40
0.5263157894736842
 40
0.5263157894736842
 40
0.5263157894736842
 40
0.5789473684210527
 40
0.5789473684210527
 40
0.5789473684210527
 40
0.5789473684210527
 40
0.631578947368421
 40
0.631578947368421
 40
0.631578947368421
 40
0.631578947368421
 40
0.6842105263157895
 40
0.6842105263157895
 40
0.6842105263157895
 40
0.6842105263157895
 40
0.7368421052631579
 40
0.7368421052631579
 40
0.7368421052631579
 40
0.7368421052631579
 40
0.7894736842105263
 40
0.7894736842105263
 40
0.7894736842105263
 40
0.7894736842105263
 40
0.8421052631578947
 40
0.8421052631578947
 40
0.8421052631578947
 40
0.8421052631578947
 40
0.8947368421052632
 40
0.8947368421052632
 40
0.8947368421052632
 40
0.8947368421052632
 40
1.0
 40
1.0
 40
1.0
 40
1.0
 10
-3.692
 20
-2.214732283464567
 30
0.0
 10
-3.593976377952756
 20
-2.218814960629921
 30
0.0
 10
-3.565267716535433
 20
-2.335177165354331
 30
0.0
 10
-3.272614173228346
 20
-2.186307086614173
 30
0.0
 10
-3.272614173228346
 20
-2.186307086614173
 30
0.0
 10
-3.200094488188976
 20
-2.14942125984252
 30
0.0
 10
-2.740267716535433
 20
-1.853933070866142
 30
0.0
 10
-2.706267716535433
 20
-1.869515748031496
 30
0.0
 10
-2.706267716535433
 20
-1.869515748031496
 30
0.0
 10
-2.689629921259843
 20
-1.877141732283464
 30
0.0
 10
-2.715972440944882
 20
-1.922893700787402
 30
0.0
 10
-2.766574803149606
 20
-1.981814960629921
 30
0.0
 10
-2.766574803149606
 20
-1.981814960629921
 30
0.0
 10
-2.890547244094488
 20
-2.126161417322835
 30
0.0
 10
-3.077484251968504
 20
-2.241814960629921
 30
0.0
 10
-3.182496062992126
 20
-2.373472440944882
 30
0.0
 10
-3.182496062992126
 20
-2.373472440944882
 30
0.0
 10
-3.22894094488189
 20
-2.431704724409449
 30
0.0
 10
-3.237259842519685
 20
-2.483
 30
0.0
 10
-3.215771653543307
 20
-2.51142125984252
 30
0.0
 10
-3.215771653543307
 20
-2.51142125984252
 30
0.0
 10
-3.194279527559055
 20
-2.539842519685039
 30
0.0
 10
-3.142984251968504
 20
-2.545389763779528
 30
0.0
 10
-3.087527559055118
 20
-2.553015748031496
 30
0.0
 10
-3.087527559055118
 20
-2.553015748031496
 30
0.0
 10
-2.914370078740157
 20
-2.576826771653543
 30
0.0
 10
-2.611216535433071
 20
-2.581338582677165
 30
0.0
 10
-2.500385826771653
 20
-2.708291338582677
 30
0.0
 10
-2.500385826771653
 20
-2.708291338582677
 30
0.0
 10
-2.462259842519685
 20
-2.75196062992126
 30
0.0
 10
-2.440074803149606
 20
-2.80742125984252
 30
0.0
 10
-2.454633858267717
 20
-2.830295275590551
 30
0.0
 10
-2.454633858267717
 20
-2.830295275590551
 30
0.0
 10
-2.469192913385827
 20
-2.853169291338583
 30
0.0
 10
-2.520488188976378
 20
-2.843464566929134
 30
0.0
 10
-2.555145669291339
 20
-2.853169291338583
 30
0.0
 10
-2.555145669291339
 20
-2.853169291338583
 30
0.0
 10
-2.737972440944882
 20
-2.904362204724409
 30
0.0
 10
-2.636212598425197
 20
-2.828523622047244
 30
0.0
 10
-2.790838582677166
 20
-2.777610236220473
 30
0.0
 10
-2.790838582677166
 20
-2.777610236220473
 30
0.0
 10
-2.876897637795276
 20
-2.749275590551181
 30
0.0
 10
-3.063885826771653
 20
-2.850633858267717
 30
0.0
 10
-3.118720472440945
 20
-2.916944881889764
 30
0.0
 10
-3.118720472440945
 20
-2.916944881889764
 30
0.0
 10
-3.148531496062992
 20
-2.952992125984252
 30
0.0
 10
-3.147141732283464
 20
-2.98903937007874
 30
0.0
 10
-3.278850393700787
 20
-2.995279527559055
 30
0.0
 10
-3.278850393700787
 20
-2.995279527559055
 30
0.0
 10
-3.41055905511811
 20
-3.001515748031496
 30
0.0
 10
-3.675366141732284
 20
-2.977948818897638
 30
0.0
 10
-3.875007874015748
 20
-2.964775590551181
 30
0.0
 10
-3.875007874015748
 20
-2.964775590551181
 30
0.0
 10
-4.074649606299213
 20
-2.951606299212598
 30
0.0
 10
-4.209129921259843
 20
-2.948830708661417
 30
0.0
 10
-4.283303149606299
 20
-2.907240157480315
 30
0.0
 10
-4.283303149606299
 20
-2.907240157480315
 30
0.0
 10
-4.372992125984252
 20
-2.856948818897638
 30
0.0
 10
-4.42057874015748
 20
-2.665405511811024
 30
0.0
 10
-4.301326771653543
 20
-2.632732283464567
 30
0.0
 10
-4.301326771653543
 20
-2.632732283464567
 30
0.0
 10
-4.19434251968504
 20
-2.603421259842519
 30
0.0
 10
-4.019015748031496
 20
-2.634566929133858
 30
0.0
 10
-3.958188976377953
 20
-2.509342519685039
 30
0.0
 10
-3.958188976377953
 20
-2.509342519685039
 30
0.0
 10
-3.934622047244094
 20
-2.460818897637795
 30
0.0
 10
-3.937393700787402
 20
-2.395657480314961
 30
0.0
 10
-3.925610236220472
 20
-2.354062992125984
 30
0.0
 10
-3.925610236220472
 20
-2.354062992125984
 30
0.0
 10
-3.905570866141732
 20
-2.283334645669291
 30
0.0
 10
-3.759893700787401
 20
-2.21190157480315
 30
0.0
 10
-3.692
 20
-2.214732283464567
 30
0.0
  0
SPLINE
  5
77
330
1F
100
AcDbEntity
  8
Layer 1
 62
   250
370
    18
100
AcDbSpline
210
0.0
220
0.0
230
1.0
 70
    11
 71
     3
 72
    64
 73
    60
 74
     0
 42
0.000000001
 43
0.0000000001
 40
0.0
 40
0.0
 40
0.0
 40
0.0
 40
0.0625
 40
0.0625
 40
0.0625
 40
0.0625
 40
0.125
 40
0.125
 40
0.125
 40
0.125
 40
0.1875
 40
0.1875
 40
0.1875
 40
0.1875
 40
0.25
 40
0.25
 40
0.25
 40
0.25
 40
0.3125
 40
0.3125
 40
0.3125
 40
0.3125
 40
0.375
 40
0.375
 40
0.375
 40
0.375
 40
0.4375
 40
0.4375
 40
0.4375
 40
0.4375
 40
0.5
 40
0.5
 40
0.5
 40
0.5
 40
0.5625
 40
0.5625
 40
0.5625
 40
0.5625
 40
0.625
 40
0.625
 40
0.625
 40
0.625
 40
0.6875
 40
0.6875
 40
0.6875
 40
0.6875
 40
0.75
 40
0.75
 40
0.75
 40
0.75
 40
0.8125
 40
0.8125
 40
0.8125
 40
0.8125
 40
0.875
 40
0.875
 40
0.875
 40
0.875
 40
1.0
 40
1.0
 40
1.0
 40
1.0
 10
-2.567629921259842
 20
-2.106590551181102
 30
0.0
 10
-2.392543307086614
 20
-2.284106299212598
 30
0.0
 10
-2.127917322834646
 20
-2.395259842519685
 30
0.0
 10
-1.882744094488189
 20
-2.424771653543307
 30
0.0
 10
-1.882744094488189
 20
-2.424771653543307
 30
0.0
 10
-1.733011811023622
 20
-2.442795275590551
 30
0.0
 10
-1.592984251968504
 20
-2.426161417322835
 30
0.0
 10
-1.506334645669291
 20
-2.411602362204724
 30
0.0
 10
-1.506334645669291
 20
-2.411602362204724
 30
0.0
 10
-1.419685039370079
 20
-2.397047244094488
 30
0.0
 10
-1.386409448818898
 20
-2.384566929133858
 30
0.0
 10
-1.330259842519685
 20
-2.388724409448819
 30
0.0
 10
-1.330259842519685
 20
-2.388724409448819
 30
0.0
 10
-1.274110236220472
 20
-2.392885826771654
 30
0.0
 10
-1.195086614173228
 20
-2.413681102362205
 30
0.0
 10
-1.138244094488189
 20
-2.403976377952756
 30
0.0
 10
-1.138244094488189
 20
-2.403976377952756
 30
0.0
 10
-1.08140157480315
 20
-2.394271653543307
 30
0.0
 10
-1.046740157480315
 20
-2.354066929133858
 30
0.0
 10
-0.9621692913385826
 20
-2.37901968503937
 30
0.0
 10
-0.9621692913385826
 20
-2.37901968503937
 30
0.0
 10
-0.8775984251968504
 20
-2.403976377952756
 30
0.0
 10
-0.7431181102362204
 20
-2.494094488188976
 30
0.0
 10
-0.6925157480314961
 20
-2.549551181102362
 30
0.0
 10
-0.6925157480314961
 20
-2.549551181102362
 30
0.0
 10
-0.6419094488188977
 20
-2.605003937007874
 30
0.0
 10
-0.6751850393700788
 20
-2.625803149606299
 30
0.0
 10
-0.8325393700787401
 20
-2.626496062992126
 30
0.0
 10
-0.8325393700787401
 20
-2.626496062992126
 30
0.0
 10
-0.9898976377952756
 20
-2.627188976377953
 30
0.0
 10
-1.271338582677165
 20
-2.607779527559055
 30
0.0
 10
-1.47305905511811
 20
-2.587673228346457
 30
0.0
 10
-1.47305905511811
 20
-2.587673228346457
 30
0.0
 10
-1.674783464566929
 20
-2.567570866141732
 30
0.0
 10
-1.796787401574803
 20
-2.546775590551181
 30
0.0
 10
-1.943744094488189
 20
-2.546775590551181
 30
0.0
 10
-1.943744094488189
 20
-2.546775590551181
 30
0.0
 10
-2.090704724409449
 20
-2.546775590551181
 30
0.0
 10
-2.262622047244094
 20
-2.567570866141732
 30
0.0
 10
-2.418590551181103
 20
-2.555787401574803
 30
0.0
 10
-2.418590551181103
 20
-2.555787401574803
 30
0.0
 10
-2.574562992125984
 20
-2.544003937007874
 30
0.0
 10
-2.714586614173228
 20
-2.499637795275591
 30
0.0
 10
-2.814409448818898
 20
-2.467751968503937
 30
0.0
 10
-2.814409448818898
 20
-2.467751968503937
 30
0.0
 10
-2.914228346456693
 20
-2.43586220472441
 30
0.0
 10
-2.973846456692913
 20
-2.416456692913386
 30
0.0
 10
-2.983551181102362
 20
-2.385259842519685
 30
0.0
 10
-2.983551181102362
 20
-2.385259842519685
 30
0.0
 10
-2.993255905511811
 20
-2.354066929133858
 30
0.0
 10
-2.953051181102362
 20
-2.311086614173228
 30
0.0
 10
-2.889275590551181
 20
-2.24453937007874
 30
0.0
 10
-2.889275590551181
 20
-2.24453937007874
 30
0.0
 10
-2.8255
 20
-2.177992125984252
 30
0.0
 10
-2.73815748031496
 20
-2.087874015748032
 30
0.0
 10
-2.686165354330709
 20
-2.057374015748032
 30
0.0
 10
-2.686165354330709
 20
-2.057374015748032
 30
0.0
 10
-2.634173228346457
 20
-2.026874015748032
 30
0.0
 10
-2.61753937007874
 20
-2.055988188976378
 30
0.0
 10
-2.567629921259842
 20
-2.106590551181102
 30
0.0
  0
SPLINE
  5
78
330
1F
100
AcDbEntity
  8
Layer 1
 62
   250
370
    18
100
AcDbSpline
210
0.0
220
0.0
230
1.0
 70
    11
 71
     3
 72
    44
 73
    40
 74
     0
 42
0.000000001
 43
0.0000000001
 40
0.0
 40
0.0
 40
0.0
 40
0.0
 40
0.0909090909090909
 40
0.0909090909090909
 40
0.0909090909090909
 40
0.0909090909090909
 40
0.1818181818181818
 40
0.1818181818181818
 40
0.1818181818181818
 40
0.1818181818181818
 40
0.2727272727272727
 40
0.2727272727272727
 40
0.2727272727272727
 40
0.2727272727272727
 40
0.3636363636363636
 40
0.3636363636363636
 40
0.3636363636363636
 40
0.3636363636363636
 40
0.4545454545454545
 40
0.4545454545454545
 40
0.4545454545454545
 40
0.4545454545454545
 40
0.5454545454545454
 40
0.5454545454545454
 40
0.5454545454545454
 40
0.5454545454545454
 40
0.6363636363636364
 40
0.6363636363636364
 40
0.6363636363636364
 40
0.6363636363636364
 40
0.7272727272727273
 40
0.7272727272727273
 40
0.7272727272727273
 40
0.7272727272727273
 40
0.8181818181818182
 40
0.8181818181818182
 40
0.8181818181818182
 40
0.8181818181818182
 40
1.0
 40
1.0
 40
1.0
 40
1.0
 10
0.2876653543307087
 20
-2.633425196850394
 30
0.0
 10
0.3285629921259843
 20
-2.59946062992126
 30
0.0
 10
0.442248031496063
 20
-2.539846456692914
 30
0.0
 10
0.5108740157480315
 20
-2.517661417322834
 30
0.0
 10
0.5108740157480315
 20
-2.517661417322834
 30
0.0
 10
0.7069370078740157
 20
-2.454287401574803
 30
0.0
 10
0.7160944881889764
 20
-2.492350393700788
 30
0.0
 10
0.9046141732283465
 20
-2.322177165354331
 30
0.0
 10
0.9046141732283465
 20
-2.322177165354331
 30
0.0
 10
0.9829448818897638
 20
-2.251472440944882
 30
0.0
 10
1.039787401574803
 20
-2.176606299212598
 30
0.0
 10
1.075141732283465
 20
-2.155807086614173
 30
0.0
 10
1.075141732283465
 20
-2.155807086614173
 30
0.0
 10
1.110496062992126
 20
-2.135011811023622
 30
0.0
 10
1.124358267716535
 20
-2.168287401574803
 30
0.0
 10
1.125744094488189
 20
-2.218196850393701
 30
0.0
 10
1.125744094488189
 20
-2.218196850393701
 30
0.0
 10
1.127133858267717
 20
-2.268110236220473
 30
0.0
 10
1.116043307086614
 20
-2.334653543307087
 30
0.0
 10
1.120200787401575
 20
-2.384566929133858
 30
0.0
 10
1.120200787401575
 20
-2.384566929133858
 30
0.0
 10
1.124358267716535
 20
-2.434476377952756
 30
0.0
 10
1.143771653543307
 20
-2.467751968503937
 30
0.0
 10
1.12851968503937
 20
-2.491318897637795
 30
0.0
 10
1.12851968503937
 20
-2.491318897637795
 30
0.0
 10
1.113271653543307
 20
-2.514889763779528
 30
0.0
 10
1.063358267716535
 20
-2.528755905511811
 30
0.0
 10
0.9780944881889764
 20
-2.553015748031496
 30
0.0
 10
0.9780944881889764
 20
-2.553015748031496
 30
0.0
 10
0.8928307086614173
 20
-2.577275590551181
 30
0.0
 10
0.7722125984251969
 20
-2.611937007874016
 30
0.0
 10
0.6550629921259843
 20
-2.635503937007874
 30
0.0
 10
0.6550629921259843
 20
-2.635503937007874
 30
0.0
 10
0.5379094488188977
 20
-2.659074803149606
 30
0.0
 10
0.4242244094488189
 20
-2.671555118110236
 30
0.0
 10
0.3514370078740158
 20
-2.673633858267717
 30
0.0
 10
0.3514370078740158
 20
-2.673633858267717
 30
0.0
 10
0.2786535433070866
 20
-2.675712598425197
 30
0.0
 10
0.2467677165354331
 20
-2.667393700787402
 30
0.0
 10
0.2876653543307087
 20
-2.633425196850394
 30
0.0
  0
SPLINE
  5
79
330
1F
100
AcDbEntity
  8
Layer 1
 62
   250
370
    18
100
AcDbSpline
210
0.0
220
0.0
230
1.0
 70
    11
 71
     3
 72
    28
 73
    24
 74
     0
 42
0.000000001
 43
0.0000000001
 40
0.0
 40
0.0
 40
0.0
 40
0.0
 40
0.1428571428571428
 40
0.1428571428571428
 40
0.1428571428571428
 40
0.1428571428571428
 40
0.2857142857142857
 40
0.2857142857142857
 40
0.2857142857142857
 40
0.2857142857142857
 40
0.4285714285714285
 40
0.4285714285714285
 40
0.4285714285714285
 40
0.4285714285714285
 40
0.5714285714285714
 40
0.5714285714285714
 40
0.5714285714285714
 40
0.5714285714285714
 40
0.7142857142857143
 40
0.7142857142857143
 40
0.7142857142857143
 40
0.7142857142857143
 40
1.0
 40
1.0
 40
1.0
 40
1.0
 10
3.161649606299213
 20
2.551374015748031
 30
0.0
 10
3.178287401574803
 20
2.54340157480315
 30
0.0
 10
3.207401574803149
 20
2.513594488188976
 30
0.0
 10
3.241712598425197
 20
2.507007874015748
 30
0.0
 10
3.241712598425197
 20
2.507007874015748
 30
0.0
 10
3.276027559055118
 20
2.500425196850394
 30
0.0
 10
3.315543307086614
 20
2.51705905511811
 30
0.0
 10
3.341188976377953
 20
2.535433070866142
 30
0.0
 10
3.341188976377953
 20
2.535433070866142
 30
0.0
 10
3.366838582677165
 20
2.553803149606299
 30
0.0
 10
3.378622047244094
 20
2.573905511811024
 30
0.0
 10
3.384515748031496
 20
2.572169291338583
 30
0.0
 10
3.384515748031496
 20
2.572169291338583
 30
0.0
 10
3.398566929133858
 20
2.56803937007874
 30
0.0
 10
3.375326771653543
 20
2.450889763779528
 30
0.0
 10
3.317968503937008
 20
2.423133858267716
 30
0.0
 10
3.317968503937008
 20
2.423133858267716
 30
0.0
 10
3.285732283464567
 20
2.407535433070866
 30
0.0
 10
3.241370078740157
 20
2.418625984251968
 30
0.0
 10
3.209133858267716
 20
2.441153543307087
 30
0.0
 10
3.209133858267716
 20
2.441153543307087
 30
0.0
 10
3.150791338582677
 20
2.481933070866142
 30
0.0
 10
3.125566929133858
 20
2.568665354330709
 30
0.0
 10
3.161649606299213
 20
2.551374015748031
 30
0.0
  0
SPLINE
  5
7A
330
1F
100
AcDbEntity
  8
Layer 1
 62
   250
370
    18
100
AcDbSpline
210
0.0
220
0.0
230
1.0
 70
    11
 71
     3
 72
    28
 73
    24
 74
     0
 42
0.000000001
 43
0.0000000001
 40
0.0
 40
0.0
 40
0.0
 40
0.0
 40
0.1428571428571428
 40
0.1428571428571428
 40
0.1428571428571428
 40
0.1428571428571428
 40
0.2857142857142857
 40
0.2857142857142857
 40
0.2857142857142857
 40
0.2857142857142857
 40
0.4285714285714285
 40
0.4285714285714285
 40
0.4285714285714285
 40
0.4285714285714285
 40
0.5714285714285714
 40
0.5714285714285714
 40
0.5714285714285714
 40
0.5714285714285714
 40
0.7142857142857143
 40
0.7142857142857143
 40
0.7142857142857143
 40
0.7142857142857143
 40
1.0
 40
1.0
 40
1.0
 40
1.0
 10
2.268799212598425
 20
2.027661417322835
 30
0.0
 10
2.278503937007874
 20
2.031125984251969
 30
0.0
 10
2.297913385826772
 20
2.029740157480315
 30
0.0
 10
2.317669291338583
 20
2.040830708661417
 30
0.0
 10
2.317669291338583
 20
2.040830708661417
 30
0.0
 10
2.371011811023622
 20
2.070775590551181
 30
0.0
 10
2.384787401574803
 20
2.144094488188976
 30
0.0
 10
2.396350393700788
 20
2.146196850393701
 30
0.0
 10
2.396350393700788
 20
2.146196850393701
 30
0.0
 10
2.403976377952756
 20
2.147582677165354
 30
0.0
 10
2.413677165354331
 20
2.12748031496063
 30
0.0
 10
2.413330708661417
 20
2.09698031496063
 30
0.0
 10
2.413330708661417
 20
2.09698031496063
 30
0.0
 10
2.412984251968504
 20
2.06648031496063
 30
0.0
 10
2.402586614173228
 20
2.025582677165354
 30
0.0
 10
2.388377952755905
 20
2.001665354330709
 30
0.0
 10
2.388377952755905
 20
2.001665354330709
 30
0.0
 10
2.374165354330709
 20
1.977748031496063
 30
0.0
 10
2.356145669291339
 20
1.970818897637795
 30
0.0
 10
2.33396062992126
 20
1.974629921259843
 30
0.0
 10
2.33396062992126
 20
1.974629921259843
 30
0.0
 10
2.298515748031496
 20
1.980724409448819
 30
0.0
 10
2.242015748031496
 20
2.018094488188976
 30
0.0
 10
2.268799212598425
 20
2.027661417322835
 30
0.0
  0
SPLINE
  5
7B
330
1F
100
AcDbEntity
  8
Layer 1
 62
   250
370
    18
100
AcDbSpline
210
0.0
220
0.0
230
1.0
 70
    11
 71
     3
 72
    12
 73
     8
 74
     0
 42
0.000000001
 43
0.0000000001
 40
0.0
 40
0.0
 40
0.0
 40
0.0
 40
0.3333333333333333
 40
0.3333333333333333
 40
0.3333333333333333
 40
0.3333333333333333
 40
1.0
 40
1.0
 40
1.0
 40
1.0
 10
2.277811023622047
 20
2.19888188976378
 30
0.0
 10
2.321791338582677
 20
2.19888188976378
 30
0.0
 10
2.321791338582677
 20
2.163527559055118
 30
0.0
 10
2.277811023622047
 20
2.163527559055118
 30
0.0
 10
2.277811023622047
 20
2.163527559055118
 30
0.0
 10
2.233830708661417
 20
2.163527559055118
 30
0.0
 10
2.233830708661417
 20
2.19888188976378
 30
0.0
 10
2.277811023622047
 20
2.19888188976378
 30
0.0
  0
SPLINE
  5
7C
330
1F
100
AcDbEntity
  8
Layer 1
 62
   250
370
    18
100
AcDbSpline
210
0.0
220
0.0
230
1.0
 70
    11
 71
     3
 72
    12
 73
     8
 74
     0
 42
0.000000001
 43
0.0000000001
 40
0.0
 40
0.0
 40
0.0
 40
0.0
 40
0.3333333333333333
 40
0.3333333333333333
 40
0.3333333333333333
 40
0.3333333333333333
 40
1.0
 40
1.0
 40
1.0
 40
1.0
 10
3.228188976377953
 20
2.668870078740158
 30
0.0
 10
3.26657874015748
 20
2.668870078740158
 30
0.0
 10
3.26657874015748
 20
2.618956692913386
 30
0.0
 10
3.228188976377953
 20
2.618956692913386
 30
0.0
 10
3.228188976377953
 20
2.618956692913386
 30
0.0
 10
3.189795275590551
 20
2.618956692913386
 30
0.0
 10
3.189795275590551
 20
2.668870078740158
 30
0.0
 10
3.228188976377953
 20
2.668870078740158
 30
0.0
  0
SPLINE
  5
7D
330
1F
100
AcDbEntity
  8
Layer 1
 62
   250
370
    18
100
AcDbSpline
210
0.0
220
0.0
230
1.0
 70
    11
 71
     3
 72
   112
 73
   108
 74
     0
 42
0.000000001
 43
0.0000000001
 40
0.0
 40
0.0
 40
0.0
 40
0.0
 40
0.0357142857142857
 40
0.0357142857142857
 40
0.0357142857142857
 40
0.0357142857142857
 40
0.0714285714285714
 40
0.0714285714285714
 40
0.0714285714285714
 40
0.0714285714285714
 40
0.1071428571428571
 40
0.1071428571428571
 40
0.1071428571428571
 40
0.1071428571428571
 40
0.1428571428571428
 40
0.1428571428571428
 40
0.1428571428571428
 40
0.1428571428571428
 40
0.1785714285714286
 40
0.1785714285714286
 40
0.1785714285714286
 40
0.1785714285714286
 40
0.2142857142857143
 40
0.2142857142857143
 40
0.2142857142857143
 40
0.2142857142857143
 40
0.25
 40
0.25
 40
0.25
 40
0.25
 40
0.2857142857142857
 40
0.2857142857142857
 40
0.2857142857142857
 40
0.2857142857142857
 40
0.3214285714285715
 40
0.3214285714285715
 40
0.3214285714285715
 40
0.3214285714285715
 40
0.3571428571428572
 40
0.3571428571428572
 40
0.3571428571428572
 40
0.3571428571428572
 40
0.3928571428571428
 40
0.3928571428571428
 40
0.3928571428571428
 40
0.3928571428571428
 40
0.4285714285714285
 40
0.4285714285714285
 40
0.4285714285714285
 40
0.4285714285714285
 40
0.4642857142857143
 40
0.4642857142857143
 40
0.4642857142857143
 40
0.4642857142857143
 40
0.5
 40
0.5
 40
0.5
 40
0.5
 40
0.5357142857142857
 40
0.5357142857142857
 40
0.5357142857142857
 40
0.5357142857142857
 40
0.5714285714285714
 40
0.5714285714285714
 40
0.5714285714285714
 40
0.5714285714285714
 40
0.6071428571428571
 40
0.6071428571428571
 40
0.6071428571428571
 40
0.6071428571428571
 40
0.6428571428571429
 40
0.6428571428571429
 40
0.6428571428571429
 40
0.6428571428571429
 40
0.6785714285714286
 40
0.6785714285714286
 40
0.6785714285714286
 40
0.6785714285714286
 40
0.7142857142857143
 40
0.7142857142857143
 40
0.7142857142857143
 40
0.7142857142857143
 40
0.75
 40
0.75
 40
0.75
 40
0.75
 40
0.7857142857142857
 40
0.7857142857142857
 40
0.7857142857142857
 40
0.7857142857142857
 40
0.8214285714285714
 40
0.8214285714285714
 40
0.8214285714285714
 40
0.8214285714285714
 40
0.8571428571428571
 40
0.8571428571428571
 40
0.8571428571428571
 40
0.8571428571428571
 40
0.8928571428571429
 40
0.8928571428571429
 40
0.8928571428571429
 40
0.8928571428571429
 40
0.9285714285714286
 40
0.9285714285714286
 40
0.9285714285714286
 40
0.9285714285714286
 40
1.0
 40
1.0
 40
1.0
 40
1.0
 10
-4.4836968503937
 20
-2.226527559055118
 30
0.0
 10
-4.519744094488189
 20
-2.144728346456693
 30
0.0
 10
-4.575200787401575
 20
-2.0255
 30
0.0
 10
-4.608472440944882
 20
-1.888244094488189
 30
0.0
 10
-4.608472440944882
 20
-1.888244094488189
 30
0.0
 10
-4.641748031496063
 20
-1.750992125984252
 30
0.0
 10
-4.652838582677165
 20
-1.595712598425197
 30
0.0
 10
-4.620952755905511
 20
-1.464003937007874
 30
0.0
 10
-4.620952755905511
 20
-1.464003937007874
 30
0.0
 10
-4.589066929133859
 20
-1.332295275590551
 30
0.0
 10
-4.514200787401575
 20
-1.224157480314961
 30
0.0
 10
-4.426858267716535
 20
-1.100763779527559
 30
0.0
 10
-4.426858267716535
 20
-1.100763779527559
 30
0.0
 10
-4.246397637795275
 20
-0.8458346456692913
 30
0.0
 10
-4.052429133858268
 20
-0.5899842519685039
 30
0.0
 10
-3.757224409448819
 20
-0.4616338582677165
 30
0.0
 10
-3.757224409448819
 20
-0.4616338582677165
 30
0.0
 10
-3.629673228346457
 20
-0.4061771653543307
 30
0.0
 10
-3.502125984251968
 20
-0.3867677165354331
 30
0.0
 10
-3.475783464566929
 20
-0.4089527559055118
 30
0.0
 10
-3.475783464566929
 20
-0.4089527559055118
 30
0.0
 10
-3.44944094488189
 20
-0.4311338582677166
 30
0.0
 10
-3.524307086614173
 20
-0.4949094488188976
 30
0.0
 10
-3.486874015748032
 20
-0.5794803149606299
 30
0.0
 10
-3.486874015748032
 20
-0.5794803149606299
 30
0.0
 10
-3.44944094488189
 20
-0.6640511811023622
 30
0.0
 10
-3.299708661417323
 20
-0.7694173228346457
 30
0.0
 10
-3.215137795275591
 20
-0.8706220472440945
 30
0.0
 10
-3.215137795275591
 20
-0.8706220472440945
 30
0.0
 10
-3.130566929133858
 20
-0.9718307086614173
 30
0.0
 10
-3.111157480314961
 20
-1.068877952755906
 30
0.0
 10
-3.127795275590551
 20
-1.110472440944882
 30
0.0
 10
-3.127795275590551
 20
-1.110472440944882
 30
0.0
 10
-3.144433070866142
 20
-1.152062992125984
 30
0.0
 10
-3.197114173228346
 20
-1.138200787401575
 30
0.0
 10
-3.298322834645669
 20
-1.117405511811024
 30
0.0
 10
-3.298322834645669
 20
-1.117405511811024
 30
0.0
 10
-3.399527559055118
 20
-1.096610236220472
 30
0.0
 10
-3.549263779527559
 20
-1.068877952755906
 30
0.0
 10
-3.619968503937008
 20
-1.005102362204724
 30
0.0
 10
-3.619968503937008
 20
-1.005102362204724
 30
0.0
 10
-3.690677165354331
 20
-0.9413307086614173
 30
0.0
 10
-3.682358267716535
 20
-0.841507874015748
 30
0.0
 10
-3.73503937007874
 20
-0.823488188976378
 30
0.0
 10
-3.73503937007874
 20
-0.823488188976378
 30
0.0
 10
-3.787724409448819
 20
-0.8054645669291338
 30
0.0
 10
-3.901409448818898
 20
-0.869236220472441
 30
0.0
 10
-3.894476377952756
 20
-0.9496496062992126
 30
0.0
 10
-3.894476377952756
 20
-0.9496496062992126
 30
0.0
 10
-3.886909448818898
 20
-1.037429133858268
 30
0.0
 10
-3.522110236220473
 20
-1.356665354330709
 30
0.0
 10
-3.428645669291339
 20
-1.405775590551181
 30
0.0
 10
-3.428645669291339
 20
-1.405775590551181
 30
0.0
 10
-3.346846456692913
 20
-1.448755905511811
 30
0.0
 10
-3.244251968503937
 20
-1.465389763779527
 30
0.0
 10
-3.206818897637795
 20
-1.533322834645669
 30
0.0
 10
-3.206818897637795
 20
-1.533322834645669
 30
0.0
 10
-3.169385826771653
 20
-1.601259842519685
 30
0.0
 10
-3.197114173228346
 20
-1.720492125984252
 30
0.0
 10
-3.238704724409449
 20
-1.825858267716535
 30
0.0
 10
-3.238704724409449
 20
-1.825858267716535
 30
0.0
 10
-3.280299212598425
 20
-1.931224409448819
 30
0.0
 10
-3.335755905511811
 20
-2.022724409448819
 30
0.0
 10
-3.369027559055118
 20
-2.010248031496063
 30
0.0
 10
-3.369027559055118
 20
-2.010248031496063
 30
0.0
 10
-3.402303149606299
 20
-1.997771653543307
 30
0.0
 10
-3.413393700787402
 20
-1.881311023622047
 30
0.0
 10
-3.450826771653543
 20
-1.803673228346457
 30
0.0
 10
-3.450826771653543
 20
-1.803673228346457
 30
0.0
 10
-3.488259842519685
 20
-1.726035433070866
 30
0.0
 10
-3.552035433070866
 20
-1.687216535433071
 30
0.0
 10
-3.60055905511811
 20
-1.692759842519685
 30
0.0
 10
-3.60055905511811
 20
-1.692759842519685
 30
0.0
 10
-3.649082677165354
 20
-1.698307086614173
 30
0.0
 10
-3.682358267716535
 20
-1.748216535433071
 30
0.0
 10
-3.740586614173228
 20
-1.689988188976378
 30
0.0
 10
-3.740586614173228
 20
-1.689988188976378
 30
0.0
 10
-3.851889763779528
 20
-1.578681102362205
 30
0.0
 10
-3.996842519685039
 20
-1.174224409448819
 30
0.0
 10
-4.156507874015748
 20
-1.188110236220473
 30
0.0
 10
-4.156507874015748
 20
-1.188110236220473
 30
0.0
 10
-4.220283464566929
 20
-1.193657480314961
 30
0.0
 10
-4.284055118110237
 20
-1.262976377952756
 30
0.0
 10
-4.340897637795275
 20
-1.350318897637795
 30
0.0
 10
-4.340897637795275
 20
-1.350318897637795
 30
0.0
 10
-4.397740157480315
 20
-1.437661417322835
 30
0.0
 10
-4.447653543307086
 20
-1.543031496062992
 30
0.0
 10
-4.451811023622048
 20
-1.65255905511811
 30
0.0
 10
-4.451811023622048
 20
-1.65255905511811
 30
0.0
 10
-4.455968503937008
 20
-1.762082677165354
 30
0.0
 10
-4.414377952755905
 20
-1.875767716535433
 30
0.0
 10
-4.383877952755905
 20
-1.954791338582677
 30
0.0
 10
-4.383877952755905
 20
-1.954791338582677
 30
0.0
 10
-4.353377952755905
 20
-2.033818897637795
 30
0.0
 10
-4.333968503937008
 20
-2.078181102362205
 30
0.0
 10
-4.315944881889764
 20
-2.154433070866142
 30
0.0
 10
-4.315944881889764
 20
-2.154433070866142
 30
0.0
 10
-4.29792125984252
 20
-2.230685039370079
 30
0.0
 10
-4.281283464566929
 20
-2.338826771653543
 30
0.0
 10
-4.29792125984252
 20
-2.384578740157481
 30
0.0
 10
-4.29792125984252
 20
-2.384578740157481
 30
0.0
 10
-4.31455905511811
 20
-2.430326771653543
 30
0.0
 10
-4.364468503937008
 20
-2.413692913385827
 30
0.0
 10
-4.397740157480315
 20
-2.383188976377953
 30
0.0
 10
-4.397740157480315
 20
-2.383188976377953
 30
0.0
 10
-4.431015748031496
 20
-2.352688976377953
 30
0.0
 10
-4.447653543307086
 20
-2.308326771653543
 30
0.0
 10
-4.4836968503937
 20
-2.226527559055118
 30
0.0
  0
SPLINE
  5
7E
330
1F
100
AcDbEntity
  8
Layer 1
 62
   250
370
    18
100
AcDbSpline
210
0.0
220
0.0
230
1.0
 70
    11
 71
     3
 72
    56
 73
    52
 74
     0
 42
0.000000001
 43
0.0000000001
 40
0.0
 40
0.0
 40
0.0
 40
0.0
 40
0.0714285714285714
 40
0.0714285714285714
 40
0.0714285714285714
 40
0.0714285714285714
 40
0.1428571428571428
 40
0.1428571428571428
 40
0.1428571428571428
 40
0.1428571428571428
 40
0.2142857142857143
 40
0.2142857142857143
 40
0.2142857142857143
 40
0.2142857142857143
 40
0.2857142857142857
 40
0.2857142857142857
 40
0.2857142857142857
 40
0.2857142857142857
 40
0.3571428571428572
 40
0.3571428571428572
 40
0.3571428571428572
 40
0.3571428571428572
 40
0.4285714285714285
 40
0.4285714285714285
 40
0.4285714285714285
 40
0.4285714285714285
 40
0.5
 40
0.5
 40
0.5
 40
0.5
 40
0.5714285714285714
 40
0.5714285714285714
 40
0.5714285714285714
 40
0.5714285714285714
 40
0.6428571428571429
 40
0.6428571428571429
 40
0.6428571428571429
 40
0.6428571428571429
 40
0.7142857142857143
 40
0.7142857142857143
 40
0.7142857142857143
 40
0.7142857142857143
 40
0.7857142857142857
 40
0.7857142857142857
 40
0.7857142857142857
 40
0.7857142857142857
 40
0.8571428571428571
 40
0.8571428571428571
 40
0.8571428571428571
 40
0.8571428571428571
 40
1.0
 40
1.0
 40
1.0
 40
1.0
 10
-4.166905511811024
 20
-2.122547244094488
 30
0.0
 10
-4.187007874015748
 20
-2.056
 30
0.0
 10
-4.234145669291339
 20
-1.976972440944882
 30
0.0
 10
-4.259102362204724
 20
-1.90488188976378
 30
0.0
 10
-4.259102362204724
 20
-1.90488188976378
 30
0.0
 10
-4.28405905511811
 20
-1.832787401574803
 30
0.0
 10
-4.286830708661418
 20
-1.767625984251969
 30
0.0
 10
-4.276433070866141
 20
-1.676814960629921
 30
0.0
 10
-4.276433070866141
 20
-1.676814960629921
 30
0.0
 10
-4.259027559055118
 20
-1.524822834645669
 30
0.0
 10
-4.222271653543307
 20
-1.279633858267716
 30
0.0
 10
-4.049062992125984
 20
-1.493811023622047
 30
0.0
 10
-4.049062992125984
 20
-1.493811023622047
 30
0.0
 10
-3.984594488188976
 20
-1.573531496062992
 30
0.0
 10
-3.908342519685039
 20
-1.702464566929134
 30
0.0
 10
-3.829318897637795
 20
-1.77455905511811
 30
0.0
 10
-3.829318897637795
 20
-1.77455905511811
 30
0.0
 10
-3.750291338582677
 20
-1.846653543307087
 30
0.0
 10
-3.668496062992126
 20
-1.86190157480315
 30
0.0
 10
-3.616503937007874
 20
-1.904185039370079
 30
0.0
 10
-3.616503937007874
 20
-1.904185039370079
 30
0.0
 10
-3.564515748031496
 20
-1.946472440944882
 30
0.0
 10
-3.542330708661417
 20
-2.015791338582677
 30
0.0
 10
-3.506976377952756
 20
-2.052531496062992
 30
0.0
 10
-3.506976377952756
 20
-2.052531496062992
 30
0.0
 10
-3.471625984251968
 20
-2.089271653543307
 30
0.0
 10
-3.423102362204725
 20
-2.093429133858268
 30
0.0
 10
-3.407850393700787
 20
-2.101055118110236
 30
0.0
 10
-3.407850393700787
 20
-2.101055118110236
 30
0.0
 10
-3.392602362204725
 20
-2.108681102362205
 30
0.0
 10
-3.410622047244094
 20
-2.119771653543307
 30
0.0
 10
-3.470240157480315
 20
-2.111456692913386
 30
0.0
 10
-3.470240157480315
 20
-2.111456692913386
 30
0.0
 10
-3.568204724409449
 20
-2.097787401574803
 30
0.0
 10
-3.88203937007874
 20
-1.972881889763779
 30
0.0
 10
-3.92705905511811
 20
-1.994996062992126
 30
0.0
 10
-3.92705905511811
 20
-1.994996062992126
 30
0.0
 10
-3.966570866141732
 20
-2.014405511811024
 30
0.0
 10
-3.967956692913386
 20
-2.089271653543307
 30
0.0
 10
-3.990137795275591
 20
-2.16413779527559
 30
0.0
 10
-3.990137795275591
 20
-2.16413779527559
 30
0.0
 10
-4.012322834645669
 20
-2.239003937007874
 30
0.0
 10
-4.055303149606299
 20
-2.313870078740158
 30
0.0
 10
-4.087188976377953
 20
-2.336051181102362
 30
0.0
 10
-4.087188976377953
 20
-2.336051181102362
 30
0.0
 10
-4.119074803149607
 20
-2.358236220472441
 30
0.0
 10
-4.139874015748031
 20
-2.327732283464567
 30
0.0
 10
-4.146803149606299
 20
-2.285444881889764
 30
0.0
 10
-4.146803149606299
 20
-2.285444881889764
 30
0.0
 10
-4.153736220472441
 20
-2.243161417322835
 30
0.0
 10
-4.146803149606299
 20
-2.189094488188976
 30
0.0
 10
-4.166905511811024
 20
-2.122547244094488
 30
0.0
  0
SPLINE
  5
7F
330
1F
100
AcDbEntity
  8
Layer 1
 62
   250
370
    18
100
AcDbSpline
210
0.0
220
0.0
230
1.0
 70
    11
 71
     3
 72
    64
 73
    60
 74
     0
 42
0.000000001
 43
0.0000000001
 40
0.0
 40
0.0
 40
0.0
 40
0.0
 40
0.0625
 40
0.0625
 40
0.0625
 40
0.0625
 40
0.125
 40
0.125
 40
0.125
 40
0.125
 40
0.1875
 40
0.1875
 40
0.1875
 40
0.1875
 40
0.25
 40
0.25
 40
0.25
 40
0.25
 40
0.3125
 40
0.3125
 40
0.3125
 40
0.3125
 40
0.375
 40
0.375
 40
0.375
 40
0.375
 40
0.4375
 40
0.4375
 40
0.4375
 40
0.4375
 40
0.5
 40
0.5
 40
0.5
 40
0.5
 40
0.5625
 40
0.5625
 40
0.5625
 40
0.5625
 40
0.625
 40
0.625
 40
0.625
 40
0.625
 40
0.6875
 40
0.6875
 40
0.6875
 40
0.6875
 40
0.75
 40
0.75
 40
0.75
 40
0.75
 40
0.8125
 40
0.8125
 40
0.8125
 40
0.8125
 40
0.875
 40
0.875
 40
0.875
 40
0.875
 40
1.0
 40
1.0
 40
1.0
 40
1.0
 10
-3.321204724409449
 20
-1.251877952755905
 30
0.0
 10
-3.248417322834646
 20
-1.267129921259843
 30
0.0
 10
-3.118094488188976
 20
-1.301791338582677
 30
0.0
 10
-3.034216535433071
 20
-1.308724409448819
 30
0.0
 10
-3.034216535433071
 20
-1.308724409448819
 30
0.0
 10
-2.950338582677166
 20
-1.315653543307087
 30
0.0
 10
-2.912905511811024
 20
-1.294858267716535
 30
0.0
 10
-2.905972440944882
 20
-1.233854330708661
 30
0.0
 10
-2.905972440944882
 20
-1.233854330708661
 30
0.0
 10
-2.899043307086614
 20
-1.172854330708661
 30
0.0
 10
-2.922610236220472
 20
-1.071649606299213
 30
0.0
 10
-2.995397637795276
 20
-0.9371653543307087
 30
0.0
 10
-2.995397637795276
 20
-0.9371653543307087
 30
0.0
 10
-3.068185039370079
 20
-0.8026850393700787
 30
0.0
 10
-3.190188976377953
 20
-0.6349291338582678
 30
0.0
 10
-3.229007874015748
 20
-0.5503582677165354
 30
0.0
 10
-3.229007874015748
 20
-0.5503582677165354
 30
0.0
 10
-3.267826771653543
 20
-0.4657874015748031
 30
0.0
 10
-3.22346062992126
 20
-0.4644015748031496
 30
0.0
 10
-3.115318897637795
 20
-0.5475866141732283
 30
0.0
 10
-3.115318897637795
 20
-0.5475866141732283
 30
0.0
 10
-2.841122047244094
 20
-0.758503937007874
 30
0.0
 10
-2.660334645669291
 20
-0.9943425196850394
 30
0.0
 10
-2.515700787401575
 20
-1.304562992125984
 30
0.0
 10
-2.515700787401575
 20
-1.304562992125984
 30
0.0
 10
-2.467870078740158
 20
-1.407157480314961
 30
0.0
 10
-2.42211811023622
 20
-1.4945
 30
0.0
 10
-2.432515748031496
 20
-1.547185039370079
 30
0.0
 10
-2.432515748031496
 20
-1.547185039370079
 30
0.0
 10
-2.442917322834646
 20
-1.599866141732283
 30
0.0
 10
-2.50946062992126
 20
-1.617889763779528
 30
0.0
 10
-2.563531496062992
 20
-1.644925196850394
 30
0.0
 10
-2.563531496062992
 20
-1.644925196850394
 30
0.0
 10
-2.617602362204724
 20
-1.67196062992126
 30
0.0
 10
-2.659192913385827
 20
-1.708007874015748
 30
0.0
 10
-2.743763779527559
 20
-1.759996062992126
 30
0.0
 10
-2.743763779527559
 20
-1.759996062992126
 30
0.0
 10
-2.828334645669291
 20
-1.811984251968504
 30
0.0
 10
-2.955885826771654
 20
-1.87992125984252
 30
0.0
 10
-3.008566929133858
 20
-1.877149606299213
 30
0.0
 10
-3.008566929133858
 20
-1.877149606299213
 30
0.0
 10
-3.061251968503937
 20
-1.874377952755905
 30
0.0
 10
-3.039070866141732
 20
-1.800893700787402
 30
0.0
 10
-3.025897637795276
 20
-1.715629921259842
 30
0.0
 10
-3.025897637795276
 20
-1.715629921259842
 30
0.0
 10
-3.012728346456693
 20
-1.630370078740157
 30
0.0
 10
-3.008566929133858
 20
-1.533318897637795
 30
0.0
 10
-3.039070866141732
 20
-1.470240157480315
 30
0.0
 10
-3.039070866141732
 20
-1.470240157480315
 30
0.0
 10
-3.069570866141732
 20
-1.407157480314961
 30
0.0
 10
-3.134732283464567
 20
-1.378043307086614
 30
0.0
 10
-3.204744094488189
 20
-1.346157480314961
 30
0.0
 10
-3.204744094488189
 20
-1.346157480314961
 30
0.0
 10
-3.274759842519685
 20
-1.314267716535433
 30
0.0
 10
-3.349625984251968
 20
-1.279606299212598
 30
0.0
 10
-3.379433070866142
 20
-1.260196850393701
 30
0.0
 10
-3.379433070866142
 20
-1.260196850393701
 30
0.0
 10
-3.409240157480315
 20
-1.240787401574803
 30
0.0
 10
-3.393988188976378
 20
-1.236629921259843
 30
0.0
 10
-3.321204724409449
 20
-1.251877952755905
 30
0.0
  0
SPLINE
  5
80
330
1F
100
AcDbEntity
  8
Layer 1
 62
   250
370
    18
100
AcDbSpline
210
0.0
220
0.0
230
1.0
 70
    11
 71
     3
 72
    32
 73
    28
 74
     0
 42
0.000000001
 43
0.0000000001
 40
0.0
 40
0.0
 40
0.0
 40
0.0
 40
0.125
 40
0.125
 40
0.125
 40
0.125
 40
0.25
 40
0.25
 40
0.25
 40
0.25
 40
0.375
 40
0.375
 40
0.375
 40
0.375
 40
0.5
 40
0.5
 40
0.5
 40
0.5
 40
0.625
 40
0.625
 40
0.625
 40
0.625
 40
0.75
 40
0.75
 40
0.75
 40
0.75
 40
1.0
 40
1.0
 40
1.0
 40
1.0
 10
-2.33755905511811
 20
-1.728799212598425
 30
0.0
 10
-2.279330708661417
 20
-1.745437007874016
 30
0.0
 10
-2.19059842519685
 20
-1.775937007874016
 30
0.0
 10
-2.103255905511811
 20
-1.83694094488189
 30
0.0
 10
-2.103255905511811
 20
-1.83694094488189
 30
0.0
 10
-2.015913385826772
 20
-1.89794094488189
 30
0.0
 10
-1.929956692913386
 20
-1.989444881889764
 30
0.0
 10
-1.812110236220472
 20
-2.061535433070866
 30
0.0
 10
-1.812110236220472
 20
-2.061535433070866
 30
0.0
 10
-1.694267716535433
 20
-2.133629921259843
 30
0.0
 10
-1.544535433070866
 20
-2.186311023622047
 30
0.0
 10
-1.498779527559055
 20
-2.219586614173228
 30
0.0
 10
-1.498779527559055
 20
-2.219586614173228
 30
0.0
 10
-1.453031496062992
 20
-2.252862204724409
 30
0.0
 10
-1.511259842519685
 20
-2.266724409448819
 30
0.0
 10
-1.647125984251969
 20
-2.250086614173228
 30
0.0
 10
-1.647125984251969
 20
-2.250086614173228
 30
0.0
 10
-1.782996062992126
 20
-2.233452755905512
 30
0.0
 10
-1.9965
 20
-2.186311023622047
 30
0.0
 10
-2.151779527559055
 20
-2.116992125984252
 30
0.0
 10
-2.151779527559055
 20
-2.116992125984252
 30
0.0
 10
-2.307055118110236
 20
-2.047673228346456
 30
0.0
 10
-2.404106299212598
 20
-1.956169291338583
 30
0.0
 10
-2.444311023622047
 20
-1.88407874015748
 30
0.0
 10
-2.444311023622047
 20
-1.88407874015748
 30
0.0
 10
-2.50165748031496
 20
-1.781248031496063
 30
0.0
 10
-2.469007874015748
 20
-1.691244094488189
 30
0.0
 10
-2.33755905511811
 20
-1.728799212598425
 30
0.0
  0
SPLINE
  5
81
330
1F
100
AcDbEntity
  8
Layer 1
 62
   250
370
    18
100
AcDbSpline
210
0.0
220
0.0
230
1.0
 70
    11
 71
     3
 72
    52
 73
    48
 74
     0
 42
0.000000001
 43
0.0000000001
 40
0.0
 40
0.0
 40
0.0
 40
0.0
 40
0.0769230769230769
 40
0.0769230769230769
 40
0.0769230769230769
 40
0.0769230769230769
 40
0.1538461538461539
 40
0.1538461538461539
 40
0.1538461538461539
 40
0.1538461538461539
 40
0.2307692307692308
 40
0.2307692307692308
 40
0.2307692307692308
 40
0.2307692307692308
 40
0.3076923076923077
 40
0.3076923076923077
 40
0.3076923076923077
 40
0.3076923076923077
 40
0.3846153846153846
 40
0.3846153846153846
 40
0.3846153846153846
 40
0.3846153846153846
 40
0.4615384615384616
 40
0.4615384615384616
 40
0.4615384615384616
 40
0.4615384615384616
 40
0.5384615384615384
 40
0.5384615384615384
 40
0.5384615384615384
 40
0.5384615384615384
 40
0.6153846153846154
 40
0.6153846153846154
 40
0.6153846153846154
 40
0.6153846153846154
 40
0.6923076923076923
 40
0.6923076923076923
 40
0.6923076923076923
 40
0.6923076923076923
 40
0.7692307692307693
 40
0.7692307692307693
 40
0.7692307692307693
 40
0.7692307692307693
 40
0.8461538461538461
 40
0.8461538461538461
 40
0.8461538461538461
 40
0.8461538461538461
 40
1.0
 40
1.0
 40
1.0
 40
1.0
 10
-0.3660984251968504
 20
-2.374862204724409
 30
0.0
 10
-0.208240157480315
 20
-2.370594488188976
 30
0.0
 10
0.1818818897637795
 20
-2.365641732283465
 30
0.0
 10
0.2661023622047244
 20
-2.21403937007874
 30
0.0
 10
0.2661023622047244
 20
-2.21403937007874
 30
0.0
 10
0.3076929133858268
 20
-2.139173228346457
 30
0.0
 10
0.3298779527559055
 20
-2.014397637795275
 30
0.0
 10
0.374244094488189
 20
-1.956165354330709
 30
0.0
 10
0.374244094488189
 20
-1.956165354330709
 30
0.0
 10
0.4186062992125984
 20
-1.897937007874016
 30
0.0
 10
0.4851535433070866
 20
-1.906259842519685
 30
0.0
 10
0.5406102362204724
 20
-1.877141732283464
 30
0.0
 10
0.5406102362204724
 20
-1.877141732283464
 30
0.0
 10
0.680003937007874
 20
-1.80396062992126
 30
0.0
 10
0.7345551181102362
 20
-1.493338582677165
 30
0.0
 10
0.786003937007874
 20
-1.505586614173228
 30
0.0
 10
0.786003937007874
 20
-1.505586614173228
 30
0.0
 10
0.8151181102362205
 20
-1.51251968503937
 30
0.0
 10
0.8372992125984252
 20
-1.634523622047244
 30
0.0
 10
0.8691889763779528
 20
-1.731570866141732
 30
0.0
 10
0.8691889763779528
 20
-1.731570866141732
 30
0.0
 10
0.9010748031496063
 20
-1.82861811023622
 30
0.0
 10
0.9426653543307086
 20
-1.900712598425197
 30
0.0
 10
0.9648503937007874
 20
-1.956165354330709
 30
0.0
 10
0.9648503937007874
 20
-1.956165354330709
 30
0.0
 10
0.9870314960629921
 20
-2.011625984251968
 30
0.0
 10
0.9898070866141733
 20
-2.05044094488189
 30
0.0
 10
0.9121692913385827
 20
-2.105897637795275
 30
0.0
 10
0.9121692913385827
 20
-2.105897637795275
 30
0.0
 10
0.8345275590551181
 20
-2.161354330708662
 30
0.0
 10
0.676476377952756
 20
-2.233448818897638
 30
0.0
 10
0.5586338582677165
 20
-2.30138188976378
 30
0.0
 10
0.5586338582677165
 20
-2.30138188976378
 30
0.0
 10
0.2983582677165355
 20
-2.451425196850394
 30
0.0
 10
0.1534842519685039
 20
-2.577594488188976
 30
0.0
 10
-0.1775472440944882
 20
-2.539842519685039
 30
0.0
 10
-0.1775472440944882
 20
-2.539842519685039
 30
0.0
 10
-0.3355984251968504
 20
-2.521818897637795
 30
0.0
 10
-0.4991929133858268
 20
-2.455275590551181
 30
0.0
 10
-0.5560354330708661
 20
-2.416452755905512
 30
0.0
 10
-0.5560354330708661
 20
-2.416452755905512
 30
0.0
 10
-0.6128779527559055
 20
-2.377633858267716
 30
0.0
 10
-0.5629685039370079
 20
-2.366543307086614
 30
0.0
 10
-0.5269212598425197
 20
-2.366543307086614
 30
0.0
 10
-0.5269212598425197
 20
-2.366543307086614
 30
0.0
 10
-0.4908740157480315
 20
-2.366543307086614
 30
0.0
 10
-0.4686929133858267
 20
-2.377633858267716
 30
0.0
 10
-0.3660984251968504
 20
-2.374862204724409
 30
0.0
  0
SPLINE
  5
82
330
1F
100
AcDbEntity
  8
Layer 1
 62
   250
370
    18
100
AcDbSpline
210
0.0
220
0.0
230
1.0
 70
    11
 71
     3
 72
   108
 73
   104
 74
     0
 42
0.000000001
 43
0.0000000001
 40
0.0
 40
0.0
 40
0.0
 40
0.0
 40
0.037037037037037
 40
0.037037037037037
 40
0.037037037037037
 40
0.037037037037037
 40
0.0740740740740741
 40
0.0740740740740741
 40
0.0740740740740741
 40
0.0740740740740741
 40
0.1111111111111111
 40
0.1111111111111111
 40
0.1111111111111111
 40
0.1111111111111111
 40
0.1481481481481481
 40
0.1481481481481481
 40
0.1481481481481481
 40
0.1481481481481481
 40
0.1851851851851852
 40
0.1851851851851852
 40
0.1851851851851852
 40
0.1851851851851852
 40
0.2222222222222222
 40
0.2222222222222222
 40
0.2222222222222222
 40
0.2222222222222222
 40
0.2592592592592592
 40
0.2592592592592592
 40
0.2592592592592592
 40
0.2592592592592592
 40
0.2962962962962963
 40
0.2962962962962963
 40
0.2962962962962963
 40
0.2962962962962963
 40
0.3333333333333333
 40
0.3333333333333333
 40
0.3333333333333333
 40
0.3333333333333333
 40
0.3703703703703703
 40
0.3703703703703703
 40
0.3703703703703703
 40
0.3703703703703703
 40
0.4074074074074074
 40
0.4074074074074074
 40
0.4074074074074074
 40
0.4074074074074074
 40
0.4444444444444444
 40
0.4444444444444444
 40
0.4444444444444444
 40
0.4444444444444444
 40
0.4814814814814815
 40
0.4814814814814815
 40
0.4814814814814815
 40
0.4814814814814815
 40
0.5185185185185185
 40
0.5185185185185185
 40
0.5185185185185185
 40
0.5185185185185185
 40
0.5555555555555556
 40
0.5555555555555556
 40
0.5555555555555556
 40
0.5555555555555556
 40
0.5925925925925926
 40
0.5925925925925926
 40
0.5925925925925926
 40
0.5925925925925926
 40
0.6296296296296297
 40
0.6296296296296297
 40
0.6296296296296297
 40
0.6296296296296297
 40
0.6666666666666666
 40
0.6666666666666666
 40
0.6666666666666666
 40
0.6666666666666666
 40
0.7037037037037037
 40
0.7037037037037037
 40
0.7037037037037037
 40
0.7037037037037037
 40
0.7407407407407407
 40
0.7407407407407407
 40
0.7407407407407407
 40
0.7407407407407407
 40
0.7777777777777778
 40
0.7777777777777778
 40
0.7777777777777778
 40
0.7777777777777778
 40
0.8148148148148148
 40
0.8148148148148148
 40
0.8148148148148148
 40
0.8148148148148148
 40
0.8518518518518519
 40
0.8518518518518519
 40
0.8518518518518519
 40
0.8518518518518519
 40
0.8888888888888888
 40
0.8888888888888888
 40
0.8888888888888888
 40
0.8888888888888888
 40
0.9259259259259259
 40
0.9259259259259259
 40
0.9259259259259259
 40
0.9259259259259259
 40
1.0
 40
1.0
 40
1.0
 40
1.0
 10
1.896511811023622
 20
-0.9981614173228347
 30
0.0
 10
1.907602362204724
 20
-1.018956692913386
 30
0.0
 10
1.874326771653543
 20
-1.079956692913386
 30
0.0
 10
1.832736220472441
 20
-1.164527559055118
 30
0.0
 10
1.832736220472441
 20
-1.164527559055118
 30
0.0
 10
1.791145669291339
 20
-1.24909842519685
 30
0.0
 10
1.741236220472441
 20
-1.357240157480315
 30
0.0
 10
1.725984251968504
 20
-1.458444881889764
 30
0.0
 10
1.725984251968504
 20
-1.458444881889764
 30
0.0
 10
1.710732283464567
 20
-1.559653543307087
 30
0.0
 10
1.730141732283464
 20
-1.653929133858268
 30
0.0
 10
1.720437007874016
 20
-1.720476377952756
 30
0.0
 10
1.720437007874016
 20
-1.720476377952756
 30
0.0
 10
1.710732283464567
 20
-1.787023622047244
 30
0.0
 10
1.671913385826772
 20
-1.825842519685039
 30
0.0
 10
1.610909448818898
 20
-1.861889763779528
 30
0.0
 10
1.610909448818898
 20
-1.861889763779528
 30
0.0
 10
1.549909448818898
 20
-1.897937007874016
 30
0.0
 10
1.466724409448819
 20
-1.931212598425197
 30
0.0
 10
1.369677165354331
 20
-1.927051181102362
 30
0.0
 10
1.369677165354331
 20
-1.927051181102362
 30
0.0
 10
1.272629921259842
 20
-1.922889763779527
 30
0.0
 10
1.161716535433071
 20
-1.881299212598425
 30
0.0
 10
1.096555118110236
 20
-1.834161417322835
 30
0.0
 10
1.096555118110236
 20
-1.834161417322835
 30
0.0
 10
1.031393700787402
 20
-1.787023622047244
 30
0.0
 10
1.011984251968504
 20
-1.734338582677165
 30
0.0
 10
0.9911889763779528
 20
-1.646996062992126
 30
0.0
 10
0.9911889763779528
 20
-1.646996062992126
 30
0.0
 10
0.9703937007874016
 20
-1.559653543307087
 30
0.0
 10
0.9482125984251969
 20
-1.437649606299213
 30
0.0
 10
0.8858228346456692
 20
-1.323964566929134
 30
0.0
 10
0.8858228346456692
 20
-1.323964566929134
 30
0.0
 10
0.8234370078740157
 20
-1.210279527559055
 30
0.0
 10
0.7208385826771654
 20
-1.104913385826772
 30
0.0
 10
0.7000433070866142
 20
-1.03698031496063
 30
0.0
 10
0.7000433070866142
 20
-1.03698031496063
 30
0.0
 10
0.6792480314960629
 20
-0.9690472440944882
 30
0.0
 10
0.740248031496063
 20
-0.9385433070866142
 30
0.0
 10
0.7873858267716536
 20
-0.8900196850393701
 30
0.0
 10
0.7873858267716536
 20
-0.8900196850393701
 30
0.0
 10
0.8345236220472441
 20
-0.841496062992126
 30
0.0
 10
0.8677992125984252
 20
-0.7749488188976378
 30
0.0
 10
0.8969133858267716
 20
-0.7000826771653543
 30
0.0
 10
0.8969133858267716
 20
-0.7000826771653543
 30
0.0
 10
0.9260275590551181
 20
-0.6252165354330709
 30
0.0
 10
0.9509842519685039
 20
-0.5420314960629922
 30
0.0
 10
0.9606889763779528
 20
-0.4865748031496063
 30
0.0
 10
0.9606889763779528
 20
-0.4865748031496063
 30
0.0
 10
0.9703937007874016
 20
-0.4311220472440945
 30
0.0
 10
0.9648464566929134
 20
-0.4033937007874016
 30
0.0
 10
0.9454370078740157
 20
-0.3479370078740158
 30
0.0
 10
0.9454370078740157
 20
-0.3479370078740158
 30
0.0
 10
0.9260275590551181
 20
-0.2924803149606299
 30
0.0
 10
0.892751968503937
 20
-0.2092952755905512
 30
0.0
 10
0.8899803149606299
 20
-0.1593858267716536
 30
0.0
 10
0.8899803149606299
 20
-0.1593858267716536
 30
0.0
 10
0.8872086614173228
 20
-0.1094763779527559
 30
0.0
 10
0.9149370078740158
 20
-0.0928385826771654
 30
0.0
 10
0.9329606299212598
 20
-0.0429291338582677
 30
0.0
 10
0.9329606299212598
 20
-0.0429291338582677
 30
0.0
 10
0.9744055118110236
 20
0.0718464566929134
 30
0.0
 10
0.9572244094488189
 20
0.3054094488188976
 30
0.0
 10
0.981484251968504
 20
0.3466496062992126
 30
0.0
 10
0.981484251968504
 20
0.3466496062992126
 30
0.0
 10
0.9953464566929134
 20
0.3702204724409449
 30
0.0
 10
1.02307874015748
 20
0.342492125984252
 30
0.0
 10
1.049417322834646
 20
0.3591259842519685
 30
0.0
 10
1.049417322834646
 20
0.3591259842519685
 30
0.0
 10
1.075759842519685
 20
0.3757637795275591
 30
0.0
 10
1.100716535433071
 20
0.4367677165354331
 30
0.0
 10
1.153397637795275
 20
0.4450866141732284
 30
0.0
 10
1.153397637795275
 20
0.4450866141732284
 30
0.0
 10
1.206082677165354
 20
0.4534055118110236
 30
0.0
 10
1.286496062992126
 20
0.4090393700787401
 30
0.0
 10
1.314224409448819
 20
0.3300157480314961
 30
0.0
 10
1.314224409448819
 20
0.3300157480314961
 30
0.0
 10
1.341948818897638
 20
0.250988188976378
 30
0.0
 10
1.316996062992126
 20
0.1373031496062992
 30
0.0
 10
1.30590157480315
 20
0.0582795275590551
 30
0.0
 10
1.30590157480315
 20
0.0582795275590551
 30
0.0
 10
1.294811023622047
 20
-0.020748031496063
 30
0.0
 10
1.297586614173228
 20
-0.0651102362204724
 30
0.0
 10
1.257377952755905
 20
-0.1718622047244094
 30
0.0
 10
1.257377952755905
 20
-0.1718622047244094
 30
0.0
 10
1.217173228346457
 20
-0.2786181102362205
 30
0.0
 10
1.133988188976378
 20
-0.447759842519685
 30
0.0
 10
1.085464566929134
 20
-0.5572834645669291
 30
0.0
 10
1.085464566929134
 20
-0.5572834645669291
 30
0.0
 10
1.03694094488189
 20
-0.6668110236220472
 30
0.0
 10
1.02307874015748
 20
-0.7167204724409448
 30
0.0
 10
1.050803149606299
 20
-0.7597007874015748
 30
0.0
 10
1.050803149606299
 20
-0.7597007874015748
 30
0.0
 10
1.110925196850394
 20
-0.8528897637795275
 30
0.0
 10
1.333641732283465
 20
-0.9675708661417323
 30
0.0
 10
1.43448031496063
 20
-1.002704724409449
 30
0.0
 10
1.43448031496063
 20
-1.002704724409449
 30
0.0
 10
1.528909448818898
 20
-1.035610236220472
 30
0.0
 10
1.618334645669291
 20
-1.042543307086614
 30
0.0
 10
1.686244094488189
 20
-1.037870078740158
 30
0.0
 10
1.686244094488189
 20
-1.037870078740158
 30
0.0
 10
1.731062992125984
 20
-1.034791338582677
 30
0.0
 10
1.886905511811024
 20
-0.9801456692913386
 30
0.0
 10
1.896511811023622
 20
-0.9981614173228347
 30
0.0
  0
SPLINE
  5
83
330
1F
100
AcDbEntity
  8
Layer 1
 62
   250
370
    18
100
AcDbSpline
210
0.0
220
0.0
230
1.0
 70
    11
 71
     3
 72
    52
 73
    48
 74
     0
 42
0.000000001
 43
0.0000000001
 40
0.0
 40
0.0
 40
0.0
 40
0.0
 40
0.0769230769230769
 40
0.0769230769230769
 40
0.0769230769230769
 40
0.0769230769230769
 40
0.1538461538461539
 40
0.1538461538461539
 40
0.1538461538461539
 40
0.1538461538461539
 40
0.2307692307692308
 40
0.2307692307692308
 40
0.2307692307692308
 40
0.2307692307692308
 40
0.3076923076923077
 40
0.3076923076923077
 40
0.3076923076923077
 40
0.3076923076923077
 40
0.3846153846153846
 40
0.3846153846153846
 40
0.3846153846153846
 40
0.3846153846153846
 40
0.4615384615384616
 40
0.4615384615384616
 40
0.4615384615384616
 40
0.4615384615384616
 40
0.5384615384615384
 40
0.5384615384615384
 40
0.5384615384615384
 40
0.5384615384615384
 40
0.6153846153846154
 40
0.6153846153846154
 40
0.6153846153846154
 40
0.6153846153846154
 40
0.6923076923076923
 40
0.6923076923076923
 40
0.6923076923076923
 40
0.6923076923076923
 40
0.7692307692307693
 40
0.7692307692307693
 40
0.7692307692307693
 40
0.7692307692307693
 40
0.8461538461538461
 40
0.8461538461538461
 40
0.8461538461538461
 40
0.8461538461538461
 40
1.0
 40
1.0
 40
1.0
 40
1.0
 10
1.928381889763779
 20
1.891799212598425
 30
0.0
 10
1.929767716535433
 20
1.823173228346457
 30
0.0
 10
1.926992125984252
 20
1.701169291338583
 30
0.0
 10
1.945015748031496
 20
1.604814960629921
 30
0.0
 10
1.945015748031496
 20
1.604814960629921
 30
0.0
 10
1.980488188976378
 20
1.415185039370079
 30
0.0
 10
2.118208661417323
 20
1.284055118110236
 30
0.0
 10
2.191102362204724
 20
1.048866141732284
 30
0.0
 10
2.191102362204724
 20
1.048866141732284
 30
0.0
 10
2.227842519685039
 20
0.9303267716535433
 30
0.0
 10
2.24448031496063
 20
0.7930748031496063
 30
0.0
 10
2.256956692913386
 20
0.7376181102362205
 30
0.0
 10
2.256956692913386
 20
0.7376181102362205
 30
0.0
 10
2.269437007874016
 20
0.6821614173228346
 30
0.0
 10
2.277755905511811
 20
0.7085039370078741
 30
0.0
 10
2.27290157480315
 20
0.7833700787401575
 30
0.0
 10
2.27290157480315
 20
0.7833700787401575
 30
0.0
 10
2.268051181102362
 20
0.858236220472441
 30
0.0
 10
2.250027559055118
 20
0.9816259842519685
 30
0.0
 10
2.234082677165354
 20
1.057877952755905
 30
0.0
 10
2.234082677165354
 20
1.057877952755905
 30
0.0
 10
2.218137795275591
 20
1.134129921259843
 30
0.0
 10
2.204275590551181
 20
1.163244094488189
 30
0.0
 10
2.176547244094488
 20
1.225629921259842
 30
0.0
 10
2.176547244094488
 20
1.225629921259842
 30
0.0
 10
2.148818897637795
 20
1.28801968503937
 30
0.0
 10
2.107228346456693
 20
1.383681102362205
 30
0.0
 10
2.089897637795275
 20
1.477956692913386
 30
0.0
 10
2.089897637795275
 20
1.477956692913386
 30
0.0
 10
2.072566929133858
 20
1.572232283464567
 30
0.0
 10
2.0795
 20
1.665122047244094
 30
0.0
 10
2.082271653543307
 20
1.726818897637795
 30
0.0
 10
2.082271653543307
 20
1.726818897637795
 30
0.0
 10
2.085047244094488
 20
1.788511811023622
 30
0.0
 10
2.083657480314961
 20
1.819015748031496
 30
0.0
 10
2.055929133858268
 20
1.86961811023622
 30
0.0
 10
2.055929133858268
 20
1.86961811023622
 30
0.0
 10
2.028200787401575
 20
1.920220472440945
 30
0.0
 10
1.974133858267717
 20
1.990929133858268
 30
0.0
 10
1.946405511811024
 20
2.014496062992126
 30
0.0
 10
1.946405511811024
 20
2.014496062992126
 30
0.0
 10
1.918677165354331
 20
2.038066929133858
 30
0.0
 10
1.917291338582677
 20
2.014496062992126
 30
0.0
 10
1.919370078740158
 20
1.995086614173228
 30
0.0
 10
1.919370078740158
 20
1.995086614173228
 30
0.0
 10
1.921448818897638
 20
1.975677165354331
 30
0.0
 10
1.926996062992126
 20
1.960425196850394
 30
0.0
 10
1.928381889763779
 20
1.891799212598425
 30
0.0
  0
SPLINE
  5
84
330
1F
100
AcDbEntity
  8
Layer 1
 62
   250
370
    18
100
AcDbSpline
210
0.0
220
0.0
230
1.0
 70
    11
 71
     3
 72
    44
 73
    40
 74
     0
 42
0.000000001
 43
0.0000000001
 40
0.0
 40
0.0
 40
0.0
 40
0.0
 40
0.0909090909090909
 40
0.0909090909090909
 40
0.0909090909090909
 40
0.0909090909090909
 40
0.1818181818181818
 40
0.1818181818181818
 40
0.1818181818181818
 40
0.1818181818181818
 40
0.2727272727272727
 40
0.2727272727272727
 40
0.2727272727272727
 40
0.2727272727272727
 40
0.3636363636363636
 40
0.3636363636363636
 40
0.3636363636363636
 40
0.3636363636363636
 40
0.4545454545454545
 40
0.4545454545454545
 40
0.4545454545454545
 40
0.4545454545454545
 40
0.5454545454545454
 40
0.5454545454545454
 40
0.5454545454545454
 40
0.5454545454545454
 40
0.6363636363636364
 40
0.6363636363636364
 40
0.6363636363636364
 40
0.6363636363636364
 40
0.7272727272727273
 40
0.7272727272727273
 40
0.7272727272727273
 40
0.7272727272727273
 40
0.8181818181818182
 40
0.8181818181818182
 40
0.8181818181818182
 40
0.8181818181818182
 40
1.0
 40
1.0
 40
1.0
 40
1.0
 10
1.533248031496063
 20
-0.0498622047244094
 30
0.0
 10
1.483338582677165
 20
-0.1191850393700787
 30
0.0
 10
1.433425196850394
 20
-0.2411889763779528
 30
0.0
 10
1.376582677165354
 20
-0.3493267716535433
 30
0.0
 10
1.376582677165354
 20
-0.3493267716535433
 30
0.0
 10
1.319740157480315
 20
-0.4574685039370079
 30
0.0
 10
1.255968503937008
 20
-0.5517401574803149
 30
0.0
 10
1.241590551181102
 20
-0.6146535433070867
 30
0.0
 10
1.241590551181102
 20
-0.6146535433070867
 30
0.0
 10
1.227216535433071
 20
-0.6775629921259843
 30
0.0
 10
1.262236220472441
 20
-0.7091141732283465
 30
0.0
 10
1.33155905511811
 20
-0.7479330708661417
 30
0.0
 10
1.33155905511811
 20
-0.7479330708661417
 30
0.0
 10
1.522677165354331
 20
-0.8549606299212599
 30
0.0
 10
1.760177165354331
 20
-0.8971417322834646
 30
0.0
 10
1.95194094488189
 20
-0.7666338582677166
 30
0.0
 10
1.95194094488189
 20
-0.7666338582677166
 30
0.0
 10
2.017645669291339
 20
-0.7219212598425196
 30
0.0
 10
2.298338582677165
 20
-0.3791614173228346
 30
0.0
 10
2.226448818897638
 20
-0.3534842519685039
 30
0.0
 10
2.226448818897638
 20
-0.3534842519685039
 30
0.0
 10
2.20703937007874
 20
-0.3465551181102362
 30
0.0
 10
2.148807086614173
 20
-0.3881456692913386
 30
0.0
 10
2.112763779527559
 20
-0.3604173228346457
 30
0.0
 10
2.112763779527559
 20
-0.3604173228346457
 30
0.0
 10
2.076716535433071
 20
-0.3326889763779527
 30
0.0
 10
2.062854330708662
 20
-0.2356417322834646
 30
0.0
 10
2.017102362204724
 20
-0.2092992125984252
 30
0.0
 10
2.017102362204724
 20
-0.2092992125984252
 30
0.0
 10
1.971350393700787
 20
-0.1829606299212598
 30
0.0
 10
1.893712598425197
 20
-0.2273228346456693
 30
0.0
 10
1.842413385826772
 20
-0.2245511811023622
 30
0.0
 10
1.842413385826772
 20
-0.2245511811023622
 30
0.0
 10
1.741885826771653
 20
-0.2191181102362205
 30
0.0
 10
1.739200787401575
 20
-0.0275826771653543
 30
0.0
 10
1.667728346456693
 20
0.0152992125984252
 30
0.0
 10
1.667728346456693
 20
0.0152992125984252
 30
0.0
 10
1.633066929133858
 20
0.0360944881889764
 30
0.0
 10
1.583157480314961
 20
0.0194566929133858
 30
0.0
 10
1.533248031496063
 20
-0.0498622047244094
 30
0.0
  0
SPLINE
  5
85
330
1F
100
AcDbEntity
  8
Layer 1
 62
   250
370
    18
100
AcDbSpline
210
0.0
220
0.0
230
1.0
 70
    11
 71
     3
 72
    64
 73
    60
 74
     0
 42
0.000000001
 43
0.0000000001
 40
0.0
 40
0.0
 40
0.0
 40
0.0
 40
0.0625
 40
0.0625
 40
0.0625
 40
0.0625
 40
0.125
 40
0.125
 40
0.125
 40
0.125
 40
0.1875
 40
0.1875
 40
0.1875
 40
0.1875
 40
0.25
 40
0.25
 40
0.25
 40
0.25
 40
0.3125
 40
0.3125
 40
0.3125
 40
0.3125
 40
0.375
 40
0.375
 40
0.375
 40
0.375
 40
0.4375
 40
0.4375
 40
0.4375
 40
0.4375
 40
0.5
 40
0.5
 40
0.5
 40
0.5
 40
0.5625
 40
0.5625
 40
0.5625
 40
0.5625
 40
0.625
 40
0.625
 40
0.625
 40
0.625
 40
0.6875
 40
0.6875
 40
0.6875
 40
0.6875
 40
0.75
 40
0.75
 40
0.75
 40
0.75
 40
0.8125
 40
0.8125
 40
0.8125
 40
0.8125
 40
0.875
 40
0.875
 40
0.875
 40
0.875
 40
1.0
 40
1.0
 40
1.0
 40
1.0
 10
1.705157480314961
 20
2.018657480314961
 30
0.0
 10
1.669110236220472
 20
1.979838582677165
 30
0.0
 10
1.621972440944882
 20
1.927153543307087
 30
0.0
 10
1.597015748031496
 20
1.856444881889764
 30
0.0
 10
1.597015748031496
 20
1.856444881889764
 30
0.0
 10
1.572062992125984
 20
1.785740157480315
 30
0.0
 10
1.569287401574803
 20
1.697011811023622
 30
0.0
 10
1.548492125984252
 20
1.591641732283465
 30
0.0
 10
1.548492125984252
 20
1.591641732283465
 30
0.0
 10
1.527696850393701
 20
1.486275590551181
 30
0.0
 10
1.488877952755906
 20
1.364275590551181
 30
0.0
 10
1.472240157480315
 20
1.246429133858268
 30
0.0
 10
1.472240157480315
 20
1.246429133858268
 30
0.0
 10
1.455602362204724
 20
1.128586614173228
 30
0.0
 10
1.461149606299213
 20
1.01490157480315
 30
0.0
 10
1.498582677165354
 20
0.8748740157480315
 30
0.0
 10
1.498582677165354
 20
0.8748740157480315
 30
0.0
 10
1.536015748031496
 20
0.7348464566929134
 30
0.0
 10
1.605334645669291
 20
0.5684803149606299
 30
0.0
 10
1.61503937007874
 20
0.4423149606299213
 30
0.0
 10
1.61503937007874
 20
0.4423149606299213
 30
0.0
 10
1.624744094488189
 20
0.3161535433070866
 30
0.0
 10
1.574834645669291
 20
0.2301968503937008
 30
0.0
 10
1.572062992125984
 20
0.2024685039370079
 30
0.0
 10
1.572062992125984
 20
0.2024685039370079
 30
0.0
 10
1.569287401574803
 20
0.1747362204724409
 30
0.0
 10
1.613653543307087
 20
0.205240157480315
 30
0.0
 10
1.648314960629921
 20
0.2537637795275591
 30
0.0
 10
1.648314960629921
 20
0.2537637795275591
 30
0.0
 10
1.682976377952756
 20
0.3022874015748032
 30
0.0
 10
1.707929133858268
 20
0.3688346456692914
 30
0.0
 10
1.705157480314961
 20
0.494996062992126
 30
0.0
 10
1.705157480314961
 20
0.494996062992126
 30
0.0
 10
1.702385826771654
 20
0.6211614173228347
 30
0.0
 10
1.671881889763779
 20
0.8069409448818897
 30
0.0
 10
1.638610236220472
 20
0.9414212598425197
 30
0.0
 10
1.638610236220472
 20
0.9414212598425197
 30
0.0
 10
1.605334645669291
 20
1.07590157480315
 30
0.0
 10
1.569287401574803
 20
1.159086614173228
 30
0.0
 10
1.573448818897638
 20
1.261681102362205
 30
0.0
 10
1.573448818897638
 20
1.261681102362205
 30
0.0
 10
1.577610236220472
 20
1.364275590551181
 30
0.0
 10
1.621972440944882
 20
1.486275590551181
 30
0.0
 10
1.662177165354331
 20
1.588870078740158
 30
0.0
 10
1.662177165354331
 20
1.588870078740158
 30
0.0
 10
1.702381889763779
 20
1.691464566929134
 30
0.0
 10
1.738429133858268
 20
1.774649606299213
 30
0.0
 10
1.763385826771654
 20
1.831492125984252
 30
0.0
 10
1.763385826771654
 20
1.831492125984252
 30
0.0
 10
1.788342519685039
 20
1.888334645669291
 30
0.0
 10
1.802204724409449
 20
1.918834645669291
 30
0.0
 10
1.817452755905512
 20
1.967358267716535
 30
0.0
 10
1.817452755905512
 20
1.967358267716535
 30
0.0
 10
1.832704724409449
 20
2.015885826771654
 30
0.0
 10
1.849342519685039
 20
2.082429133858268
 30
0.0
 10
1.845181102362205
 20
2.108771653543307
 30
0.0
 10
1.845181102362205
 20
2.108771653543307
 30
0.0
 10
1.836527559055118
 20
2.163582677165354
 30
0.0
 10
1.727992125984252
 20
2.043251968503937
 30
0.0
 10
1.705157480314961
 20
2.018657480314961
 30
0.0
  0
SPLINE
  5
86
330
1F
100
AcDbEntity
  8
Layer 1
 62
   250
370
    18
100
AcDbSpline
210
0.0
220
0.0
230
1.0
 70
    11
 71
     3
 72
    72
 73
    68
 74
     0
 42
0.000000001
 43
0.0000000001
 40
0.0
 40
0.0
 40
0.0
 40
0.0
 40
0.0555555555555556
 40
0.0555555555555556
 40
0.0555555555555556
 40
0.0555555555555556
 40
0.1111111111111111
 40
0.1111111111111111
 40
0.1111111111111111
 40
0.1111111111111111
 40
0.1666666666666667
 40
0.1666666666666667
 40
0.1666666666666667
 40
0.1666666666666667
 40
0.2222222222222222
 40
0.2222222222222222
 40
0.2222222222222222
 40
0.2222222222222222
 40
0.2777777777777778
 40
0.2777777777777778
 40
0.2777777777777778
 40
0.2777777777777778
 40
0.3333333333333333
 40
0.3333333333333333
 40
0.3333333333333333
 40
0.3333333333333333
 40
0.3888888888888889
 40
0.3888888888888889
 40
0.3888888888888889
 40
0.3888888888888889
 40
0.4444444444444444
 40
0.4444444444444444
 40
0.4444444444444444
 40
0.4444444444444444
 40
0.5
 40
0.5
 40
0.5
 40
0.5
 40
0.5555555555555556
 40
0.5555555555555556
 40
0.5555555555555556
 40
0.5555555555555556
 40
0.6111111111111112
 40
0.6111111111111112
 40
0.6111111111111112
 40
0.6111111111111112
 40
0.6666666666666666
 40
0.6666666666666666
 40
0.6666666666666666
 40
0.6666666666666666
 40
0.7222222222222222
 40
0.7222222222222222
 40
0.7222222222222222
 40
0.7222222222222222
 40
0.7777777777777778
 40
0.7777777777777778
 40
0.7777777777777778
 40
0.7777777777777778
 40
0.8333333333333334
 40
0.8333333333333334
 40
0.8333333333333334
 40
0.8333333333333334
 40
0.8888888888888888
 40
0.8888888888888888
 40
0.8888888888888888
 40
0.8888888888888888
 40
1.0
 40
1.0
 40
1.0
 40
1.0
 10
1.759220472440945
 20
1.312976377952756
 30
0.0
 10
1.746744094488189
 20
1.251972440944882
 30
0.0
 10
1.727330708661417
 20
1.157700787401575
 30
0.0
 10
1.757834645669291
 20
1.056492125984252
 30
0.0
 10
1.757834645669291
 20
1.056492125984252
 30
0.0
 10
1.788334645669291
 20
0.9552874015748032
 30
0.0
 10
1.868748031496063
 20
0.8471456692913386
 30
0.0
 10
1.886767716535433
 20
0.7653464566929133
 30
0.0
 10
1.886767716535433
 20
0.7653464566929133
 30
0.0
 10
1.904791338582677
 20
0.6835511811023622
 30
0.0
 10
1.860429133858268
 20
0.6280944881889764
 30
0.0
 10
1.864586614173228
 20
0.5546102362204725
 30
0.0
 10
1.864586614173228
 20
0.5546102362204725
 30
0.0
 10
1.868748031496063
 20
0.4811338582677165
 30
0.0
 10
1.921429133858268
 20
0.3896338582677165
 30
0.0
 10
1.957476377952756
 20
0.3064488188976378
 30
0.0
 10
1.957476377952756
 20
0.3064488188976378
 30
0.0
 10
1.993523622047244
 20
0.223263779527559
 30
0.0
 10
2.012933070866142
 20
0.1483976377952756
 30
0.0
 10
1.994909448818898
 20
0.0929409448818898
 30
0.0
 10
1.994909448818898
 20
0.0929409448818898
 30
0.0
 10
1.976885826771654
 20
0.0374842519685039
 30
0.0
 10
1.921429133858268
 20
0.0014370078740157
 30
0.0
 10
1.929748031496063
 20
-0.0165826771653543
 30
0.0
 10
1.929748031496063
 20
-0.0165826771653543
 30
0.0
 10
1.938066929133858
 20
-0.0346102362204724
 30
0.0
 10
2.010161417322835
 20
-0.0346102362204724
 30
0.0
 10
2.068389763779527
 20
-0.066496062992126
 30
0.0
 10
2.068389763779527
 20
-0.066496062992126
 30
0.0
 10
2.12661811023622
 20
-0.0983818897637795
 30
0.0
 10
2.17098031496063
 20
-0.1621574803149606
 30
0.0
 10
2.194551181102362
 20
-0.1510669291338583
 30
0.0
 10
2.194551181102362
 20
-0.1510669291338583
 30
0.0
 10
2.218118110236221
 20
-0.1399763779527559
 30
0.0
 10
2.220893700787402
 20
-0.0540157480314961
 30
0.0
 10
2.200094488188976
 20
0.0693740157480315
 30
0.0
 10
2.200094488188976
 20
0.0693740157480315
 30
0.0
 10
2.179299212598425
 20
0.192763779527559
 30
0.0
 10
2.134937007874016
 20
0.3535866141732283
 30
0.0
 10
2.104433070866142
 20
0.4617244094488189
 30
0.0
 10
2.104433070866142
 20
0.4617244094488189
 30
0.0
 10
2.073933070866142
 20
0.5698661417322834
 30
0.0
 10
2.057299212598425
 20
0.6253188976377952
 30
0.0
 10
2.064228346456693
 20
0.6447283464566929
 30
0.0
 10
2.064228346456693
 20
0.6447283464566929
 30
0.0
 10
2.071161417322835
 20
0.6641377952755906
 30
0.0
 10
2.101661417322835
 20
0.647503937007874
 30
0.0
 10
2.100275590551181
 20
0.6960275590551182
 30
0.0
 10
2.100275590551181
 20
0.6960275590551182
 30
0.0
 10
2.098889763779527
 20
0.7445511811023622
 30
0.0
 10
2.065614173228346
 20
0.858236220472441
 30
0.0
 10
2.025409448818898
 20
0.9566692913385827
 30
0.0
 10
2.025409448818898
 20
0.9566692913385827
 30
0.0
 10
1.985204724409449
 20
1.055106299212598
 30
0.0
 10
1.938066929133858
 20
1.138291338582677
 30
0.0
 10
1.900633858267716
 20
1.246429133858268
 30
0.0
 10
1.900633858267716
 20
1.246429133858268
 30
0.0
 10
1.863200787401575
 20
1.354570866141732
 30
0.0
 10
1.835472440944882
 20
1.487665354330709
 30
0.0
 10
1.817448818897638
 20
1.522322834645669
 30
0.0
 10
1.817448818897638
 20
1.522322834645669
 30
0.0
 10
1.799425196850394
 20
1.556984251968504
 30
0.0
 10
1.791106299212598
 20
1.493212598425197
 30
0.0
 10
1.784173228346457
 20
1.447456692913386
 30
0.0
 10
1.784173228346457
 20
1.447456692913386
 30
0.0
 10
1.777244094488189
 20
1.401708661417323
 30
0.0
 10
1.771696850393701
 20
1.373976377952756
 30
0.0
 10
1.759220472440945
 20
1.312976377952756
 30
0.0
  0
SPLINE
  5
87
330
1F
100
AcDbEntity
  8
Layer 1
 62
   250
370
    18
100
AcDbSpline
210
0.0
220
0.0
230
1.0
 70
    11
 71
     3
 72
   112
 73
   108
 74
     0
 42
0.000000001
 43
0.0000000001
 40
0.0
 40
0.0
 40
0.0
 40
0.0
 40
0.0357142857142857
 40
0.0357142857142857
 40
0.0357142857142857
 40
0.0357142857142857
 40
0.0714285714285714
 40
0.0714285714285714
 40
0.0714285714285714
 40
0.0714285714285714
 40
0.1071428571428571
 40
0.1071428571428571
 40
0.1071428571428571
 40
0.1071428571428571
 40
0.1428571428571428
 40
0.1428571428571428
 40
0.1428571428571428
 40
0.1428571428571428
 40
0.1785714285714286
 40
0.1785714285714286
 40
0.1785714285714286
 40
0.1785714285714286
 40
0.2142857142857143
 40
0.2142857142857143
 40
0.2142857142857143
 40
0.2142857142857143
 40
0.25
 40
0.25
 40
0.25
 40
0.25
 40
0.2857142857142857
 40
0.2857142857142857
 40
0.2857142857142857
 40
0.2857142857142857
 40
0.3214285714285715
 40
0.3214285714285715
 40
0.3214285714285715
 40
0.3214285714285715
 40
0.3571428571428572
 40
0.3571428571428572
 40
0.3571428571428572
 40
0.3571428571428572
 40
0.3928571428571428
 40
0.3928571428571428
 40
0.3928571428571428
 40
0.3928571428571428
 40
0.4285714285714285
 40
0.4285714285714285
 40
0.4285714285714285
 40
0.4285714285714285
 40
0.4642857142857143
 40
0.4642857142857143
 40
0.4642857142857143
 40
0.4642857142857143
 40
0.5
 40
0.5
 40
0.5
 40
0.5
 40
0.5357142857142857
 40
0.5357142857142857
 40
0.5357142857142857
 40
0.5357142857142857
 40
0.5714285714285714
 40
0.5714285714285714
 40
0.5714285714285714
 40
0.5714285714285714
 40
0.6071428571428571
 40
0.6071428571428571
 40
0.6071428571428571
 40
0.6071428571428571
 40
0.6428571428571429
 40
0.6428571428571429
 40
0.6428571428571429
 40
0.6428571428571429
 40
0.6785714285714286
 40
0.6785714285714286
 40
0.6785714285714286
 40
0.6785714285714286
 40
0.7142857142857143
 40
0.7142857142857143
 40
0.7142857142857143
 40
0.7142857142857143
 40
0.75
 40
0.75
 40
0.75
 40
0.75
 40
0.7857142857142857
 40
0.7857142857142857
 40
0.7857142857142857
 40
0.7857142857142857
 40
0.8214285714285714
 40
0.8214285714285714
 40
0.8214285714285714
 40
0.8214285714285714
 40
0.8571428571428571
 40
0.8571428571428571
 40
0.8571428571428571
 40
0.8571428571428571
 40
0.8928571428571429
 40
0.8928571428571429
 40
0.8928571428571429
 40
0.8928571428571429
 40
0.9285714285714286
 40
0.9285714285714286
 40
0.9285714285714286
 40
0.9285714285714286
 40
1.0
 40
1.0
 40
1.0
 40
1.0
 10
3.800003937007874
 20
2.82553937007874
 30
0.0
 10
3.845755905511811
 20
2.799196850393701
 30
0.0
 10
3.912299212598425
 20
2.746511811023622
 30
0.0
 10
3.967755905511811
 20
2.688283464566929
 30
0.0
 10
3.967755905511811
 20
2.688283464566929
 30
0.0
 10
4.023212598425197
 20
2.630055118110236
 30
0.0
 10
4.06757874015748
 20
2.566279527559055
 30
0.0
 10
4.138287401574803
 20
2.484484251968504
 30
0.0
 10
4.138287401574803
 20
2.484484251968504
 30
0.0
 10
4.208992125984252
 20
2.402685039370079
 30
0.0
 10
4.30603937007874
 20
2.30286220472441
 30
0.0
 10
4.369814960629921
 20
2.226610236220472
 30
0.0
 10
4.369814960629921
 20
2.226610236220472
 30
0.0
 10
4.433590551181102
 20
2.150358267716535
 30
0.0
 10
4.464090551181102
 20
2.097677165354331
 30
0.0
 10
4.451614173228347
 20
2.071334645669291
 30
0.0
 10
4.451614173228347
 20
2.071334645669291
 30
0.0
 10
4.439137795275591
 20
2.044992125984252
 30
0.0
 10
4.383677165354331
 20
2.044992125984252
 30
0.0
 10
4.343472440944882
 20
2.067177165354331
 30
0.0
 10
4.343472440944882
 20
2.067177165354331
 30
0.0
 10
4.303267716535433
 20
2.089358267716535
 30
0.0
 10
4.278311023622047
 20
2.133720472440945
 30
0.0
 10
4.243653543307087
 20
2.151744094488189
 30
0.0
 10
4.243653543307087
 20
2.151744094488189
 30
0.0
 10
4.208992125984252
 20
2.169771653543307
 30
0.0
 10
4.164629921259842
 20
2.161448818897638
 30
0.0
 10
4.142444881889764
 20
2.197496062992126
 30
0.0
 10
4.142444881889764
 20
2.197496062992126
 30
0.0
 10
4.120263779527559
 20
2.233543307086614
 30
0.0
 10
4.120263779527559
 20
2.313956692913386
 30
0.0
 10
4.09807874015748
 20
2.345842519685039
 30
0.0
 10
4.09807874015748
 20
2.345842519685039
 30
0.0
 10
4.075897637795276
 20
2.377728346456693
 30
0.0
 10
4.031535433070866
 20
2.361094488188976
 30
0.0
 10
4.019055118110236
 20
2.298704724409449
 30
0.0
 10
4.019055118110236
 20
2.298704724409449
 30
0.0
 10
4.00657874015748
 20
2.236318897637795
 30
0.0
 10
4.025988188976378
 20
2.128177165354331
 30
0.0
 10
4.023212598425197
 20
1.981216535433071
 30
0.0
 10
4.023212598425197
 20
1.981216535433071
 30
0.0
 10
4.02044094488189
 20
1.834259842519685
 30
0.0
 10
3.995488188976378
 20
1.64848031496063
 30
0.0
 10
3.998259842519685
 20
1.482114173228346
 30
0.0
 10
3.998259842519685
 20
1.482114173228346
 30
0.0
 10
4.001031496062992
 20
1.315744094488189
 30
0.0
 10
4.031535433070866
 20
1.168787401574803
 30
0.0
 10
4.071740157480315
 20
1.012122047244094
 30
0.0
 10
4.071740157480315
 20
1.012122047244094
 30
0.0
 10
4.111944881889764
 20
0.8554566929133858
 30
0.0
 10
4.161854330708661
 20
0.6890905511811024
 30
0.0
 10
4.217311023622047
 20
0.5449055118110236
 30
0.0
 10
4.217311023622047
 20
0.5449055118110236
 30
0.0
 10
4.272767716535433
 20
0.4007204724409449
 30
0.0
 10
4.333767716535433
 20
0.2787165354330708
 30
0.0
 10
4.339314960629921
 20
0.2093937007874016
 30
0.0
 10
4.339314960629921
 20
0.2093937007874016
 30
0.0
 10
4.344858267716535
 20
0.1400748031496063
 30
0.0
 10
4.294948818897637
 20
0.1234370078740158
 30
0.0
 10
4.213149606299212
 20
0.1386889763779527
 30
0.0
 10
4.213149606299212
 20
0.1386889763779527
 30
0.0
 10
4.041377952755906
 20
0.1707125984251968
 30
0.0
 10
3.858933070866142
 20
0.2825472440944882
 30
0.0
 10
3.826346456692913
 20
0.4658779527559055
 30
0.0
 10
3.826346456692913
 20
0.4658779527559055
 30
0.0
 10
3.803622047244095
 20
0.5937047244094488
 30
0.0
 10
3.892625984251969
 20
0.7130314960629921
 30
0.0
 10
3.919236220472441
 20
0.8388228346456693
 30
0.0
 10
3.919236220472441
 20
0.8388228346456693
 30
0.0
 10
3.95686220472441
 20
1.016704724409449
 30
0.0
 10
3.882413385826772
 20
1.144716535433071
 30
0.0
 10
3.874866141732284
 20
1.315744094488189
 30
0.0
 10
3.874866141732284
 20
1.315744094488189
 30
0.0
 10
3.870708661417323
 20
1.41001968503937
 30
0.0
 10
3.887346456692913
 20
1.515385826771654
 30
0.0
 10
3.876255905511811
 20
1.601342519685039
 30
0.0
 10
3.876255905511811
 20
1.601342519685039
 30
0.0
 10
3.865165354330709
 20
1.687303149606299
 30
0.0
 10
3.826346456692913
 20
1.753846456692913
 30
0.0
 10
3.813866141732284
 20
1.880007874015748
 30
0.0
 10
3.813866141732284
 20
1.880007874015748
 30
0.0
 10
3.801389763779528
 20
2.006173228346457
 30
0.0
 10
3.815255905511811
 20
2.191952755905512
 30
0.0
 10
3.813866141732284
 20
2.33198031496063
 30
0.0
 10
3.813866141732284
 20
2.33198031496063
 30
0.0
 10
3.81248031496063
 20
2.472003937007874
 30
0.0
 10
3.795842519685039
 20
2.566279527559055
 30
0.0
 10
3.81248031496063
 20
2.55796062992126
 30
0.0
 10
3.81248031496063
 20
2.55796062992126
 30
0.0
 10
3.82911811023622
 20
2.549645669291339
 30
0.0
 10
3.879027559055118
 20
2.438732283464567
 30
0.0
 10
3.905370078740158
 20
2.408228346456693
 30
0.0
 10
3.905370078740158
 20
2.408228346456693
 30
0.0
 10
3.931712598425197
 20
2.377728346456693
 30
0.0
 10
3.934484251968504
 20
2.427641732283464
 30
0.0
 10
3.934484251968504
 20
2.469232283464567
 30
0.0
 10
3.934484251968504
 20
2.469232283464567
 30
0.0
 10
3.934484251968504
 20
2.510822834645669
 30
0.0
 10
3.931712598425197
 20
2.544098425196851
 30
0.0
 10
3.892889763779527
 20
2.606488188976378
 30
0.0
 10
3.892889763779527
 20
2.606488188976378
 30
0.0
 10
3.854070866141732
 20
2.668874015748032
 30
0.0
 10
3.779208661417323
 20
2.760377952755905
 30
0.0
 10
3.754251968503937
 20
2.806129921259843
 30
0.0
 10
3.754251968503937
 20
2.806129921259843
 30
0.0
 10
3.729295275590551
 20
2.85188188976378
 30
0.0
 10
3.754251968503937
 20
2.85188188976378
 30
0.0
 10
3.800003937007874
 20
2.82553937007874
 30
0.0
  0
SPLINE
  5
88
330
1F
100
AcDbEntity
  8
Layer 1
 62
   250
370
    18
100
AcDbSpline
210
0.0
220
0.0
230
1.0
 70
    11
 71
     3
 72
    68
 73
    64
 74
     0
 42
0.000000001
 43
0.0000000001
 40
0.0
 40
0.0
 40
0.0
 40
0.0
 40
0.0588235294117647
 40
0.0588235294117647
 40
0.0588235294117647
 40
0.0588235294117647
 40
0.1176470588235294
 40
0.1176470588235294
 40
0.1176470588235294
 40
0.1176470588235294
 40
0.1764705882352941
 40
0.1764705882352941
 40
0.1764705882352941
 40
0.1764705882352941
 40
0.2352941176470588
 40
0.2352941176470588
 40
0.2352941176470588
 40
0.2352941176470588
 40
0.2941176470588235
 40
0.2941176470588235
 40
0.2941176470588235
 40
0.2941176470588235
 40
0.3529411764705883
 40
0.3529411764705883
 40
0.3529411764705883
 40
0.3529411764705883
 40
0.4117647058823529
 40
0.4117647058823529
 40
0.4117647058823529
 40
0.4117647058823529
 40
0.4705882352941176
 40
0.4705882352941176
 40
0.4705882352941176
 40
0.4705882352941176
 40
0.5294117647058824
 40
0.5294117647058824
 40
0.5294117647058824
 40
0.5294117647058824
 40
0.5882352941176471
 40
0.5882352941176471
 40
0.5882352941176471
 40
0.5882352941176471
 40
0.6470588235294118
 40
0.6470588235294118
 40
0.6470588235294118
 40
0.6470588235294118
 40
0.7058823529411765
 40
0.7058823529411765
 40
0.7058823529411765
 40
0.7058823529411765
 40
0.7647058823529411
 40
0.7647058823529411
 40
0.7647058823529411
 40
0.7647058823529411
 40
0.8235294117647058
 40
0.8235294117647058
 40
0.8235294117647058
 40
0.8235294117647058
 40
0.8823529411764706
 40
0.8823529411764706
 40
0.8823529411764706
 40
0.8823529411764706
 40
1.0
 40
1.0
 40
1.0
 40
1.0
 10
4.370503937007874
 20
1.526472440944882
 30
0.0
 10
4.344854330708661
 20
1.486267716535433
 30
0.0
 10
4.303263779527559
 20
1.422496062992126
 30
0.0
 10
4.274842519685039
 20
1.353173228346457
 30
0.0
 10
4.274842519685039
 20
1.353173228346457
 30
0.0
 10
4.24642125984252
 20
1.283854330708661
 30
0.0
 10
4.231169291338583
 20
1.208988188976378
 30
0.0
 10
4.213145669291339
 20
1.184728346456693
 30
0.0
 10
4.213145669291339
 20
1.184728346456693
 30
0.0
 10
4.195125984251969
 20
1.160464566929134
 30
0.0
 10
4.174326771653543
 20
1.186807086614173
 30
0.0
 10
4.167393700787402
 20
1.170169291338583
 30
0.0
 10
4.167393700787402
 20
1.170169291338583
 30
0.0
 10
4.160464566929134
 20
1.153531496062992
 30
0.0
 10
4.167397637795276
 20
1.093917322834646
 30
0.0
 10
4.195818897637795
 20
1.05440157480315
 30
0.0
 10
4.195818897637795
 20
1.05440157480315
 30
0.0
 10
4.224240157480315
 20
1.014889763779528
 30
0.0
 10
4.274149606299213
 20
0.9954803149606299
 30
0.0
 10
4.288011811023622
 20
0.9601259842519685
 30
0.0
 10
4.288011811023622
 20
0.9601259842519685
 30
0.0
 10
4.301877952755905
 20
0.9247755905511811
 30
0.0
 10
4.279696850393701
 20
0.8734763779527559
 30
0.0
 10
4.274842519685039
 20
0.8374330708661417
 30
0.0
 10
4.274842519685039
 20
0.8374330708661417
 30
0.0
 10
4.260192913385827
 20
0.7286338582677165
 30
0.0
 10
4.396795275590551
 20
0.8471377952755905
 30
0.0
 10
4.459232283464567
 20
1.024594488188976
 30
0.0
 10
4.459232283464567
 20
1.024594488188976
 30
0.0
 10
4.498748031496063
 20
1.136893700787402
 30
0.0
 10
4.51538188976378
 20
1.285240157480315
 30
0.0
 10
4.528555118110236
 20
1.387834645669291
 30
0.0
 10
4.528555118110236
 20
1.387834645669291
 30
0.0
 10
4.541724409448819
 20
1.490429133858268
 30
0.0
 10
4.551429133858267
 20
1.547271653543307
 30
0.0
 10
4.578464566929134
 20
1.617283464566929
 30
0.0
 10
4.578464566929134
 20
1.617283464566929
 30
0.0
 10
4.6055
 20
1.687299212598425
 30
0.0
 10
4.649866141732283
 20
1.770484251968504
 30
0.0
 10
4.665807086614174
 20
1.830791338582677
 30
0.0
 10
4.665807086614174
 20
1.830791338582677
 30
0.0
 10
4.681751968503937
 20
1.89109842519685
 30
0.0
 10
4.669275590551181
 20
1.928531496062992
 30
0.0
 10
4.624909448818897
 20
1.925759842519685
 30
0.0
 10
4.624909448818897
 20
1.925759842519685
 30
0.0
 10
4.527846456692913
 20
1.919692913385827
 30
0.0
 10
4.317586614173228
 20
1.741456692913386
 30
0.0
 10
4.355255905511811
 20
1.727503937007874
 30
0.0
 10
4.355255905511811
 20
1.727503937007874
 30
0.0
 10
4.373972440944882
 20
1.720570866141732
 30
0.0
 10
4.457153543307086
 20
1.758003937007874
 30
0.0
 10
4.500133858267716
 20
1.769094488188976
 30
0.0
 10
4.500133858267716
 20
1.769094488188976
 30
0.0
 10
4.543114173228346
 20
1.780185039370079
 30
0.0
 10
4.545885826771654
 20
1.764937007874016
 30
0.0
 10
4.525086614173229
 20
1.732354330708662
 30
0.0
 10
4.525086614173229
 20
1.732354330708662
 30
0.0
 10
4.504291338582677
 20
1.699775590551181
 30
0.0
 10
4.459929133858267
 20
1.649866141732284
 30
0.0
 10
4.432893700787401
 20
1.616590551181102
 30
0.0
 10
4.432893700787401
 20
1.616590551181102
 30
0.0
 10
4.405858267716535
 20
1.583318897637795
 30
0.0
 10
4.396153543307086
 20
1.566681102362205
 30
0.0
 10
4.370503937007874
 20
1.526472440944882
 30
0.0
  0
SPLINE
  5
89
330
1F
100
AcDbEntity
  8
Layer 1
 62
   250
370
    18
100
AcDbSpline
210
0.0
220
0.0
230
1.0
 70
    11
 71
     3
 72
    48
 73
    44
 74
     0
 42
0.000000001
 43
0.0000000001
 40
0.0
 40
0.0
 40
0.0
 40
0.0
 40
0.0833333333333333
 40
0.0833333333333333
 40
0.0833333333333333
 40
0.0833333333333333
 40
0.1666666666666667
 40
0.1666666666666667
 40
0.1666666666666667
 40
0.1666666666666667
 40
0.25
 40
0.25
 40
0.25
 40
0.25
 40
0.3333333333333333
 40
0.3333333333333333
 40
0.3333333333333333
 40
0.3333333333333333
 40
0.4166666666666667
 40
0.4166666666666667
 40
0.4166666666666667
 40
0.4166666666666667
 40
0.5
 40
0.5
 40
0.5
 40
0.5
 40
0.5833333333333334
 40
0.5833333333333334
 40
0.5833333333333334
 40
0.5833333333333334
 40
0.6666666666666666
 40
0.6666666666666666
 40
0.6666666666666666
 40
0.6666666666666666
 40
0.75
 40
0.75
 40
0.75
 40
0.75
 40
0.8333333333333334
 40
0.8333333333333334
 40
0.8333333333333334
 40
0.8333333333333334
 40
1.0
 40
1.0
 40
1.0
 40
1.0
 10
3.244043307086614
 20
3.147874015748032
 30
0.0
 10
3.305047244094488
 20
3.111133858267717
 30
0.0
 10
3.400708661417323
 20
3.050133858267717
 30
0.0
 10
3.470027559055118
 20
2.981503937007874
 30
0.0
 10
3.470027559055118
 20
2.981503937007874
 30
0.0
 10
3.539350393700787
 20
2.912877952755906
 30
0.0
 10
3.582330708661417
 20
2.836625984251969
 30
0.0
 10
3.615602362204724
 20
2.73957874015748
 30
0.0
 10
3.615602362204724
 20
2.73957874015748
 30
0.0
 10
3.648874015748031
 20
2.642531496062992
 30
0.0
 10
3.672444881889764
 20
2.524685039370079
 30
0.0
 10
3.691161417322835
 20
2.403374015748032
 30
0.0
 10
3.691161417322835
 20
2.403374015748032
 30
0.0
 10
3.709877952755905
 20
2.282062992125984
 30
0.0
 10
3.723740157480315
 20
2.157287401574803
 30
0.0
 10
3.726515748031496
 20
2.074102362204724
 30
0.0
 10
3.726515748031496
 20
2.074102362204724
 30
0.0
 10
3.729287401574803
 20
1.990917322834646
 30
0.0
 10
3.720968503937008
 20
1.949326771653543
 30
0.0
 10
3.705023622047244
 20
1.956952755905512
 30
0.0
 10
3.705023622047244
 20
1.956952755905512
 30
0.0
 10
3.689082677165354
 20
1.96457874015748
 30
0.0
 10
3.665511811023622
 20
2.02142125984252
 30
0.0
 10
3.646795275590551
 20
2.118468503937008
 30
0.0
 10
3.646795275590551
 20
2.118468503937008
 30
0.0
 10
3.62807874015748
 20
2.215515748031496
 30
0.0
 10
3.614216535433071
 20
2.352771653543307
 30
0.0
 10
3.601043307086614
 20
2.455366141732283
 30
0.0
 10
3.601043307086614
 20
2.455366141732283
 30
0.0
 10
3.587874015748032
 20
2.55796062992126
 30
0.0
 10
3.575397637795275
 20
2.625893700787401
 30
0.0
 10
3.563610236220472
 20
2.682732283464567
 30
0.0
 10
3.563610236220472
 20
2.682732283464567
 30
0.0
 10
3.551826771653543
 20
2.73957874015748
 30
0.0
 10
3.540736220472441
 20
2.785330708661417
 30
0.0
 10
3.508153543307087
 20
2.829
 30
0.0
 10
3.508153543307087
 20
2.829
 30
0.0
 10
3.441031496062992
 20
2.918972440944882
 30
0.0
 10
3.303732283464567
 20
2.997035433070866
 30
0.0
 10
3.219783464566929
 20
3.086870078740157
 30
0.0
 10
3.219783464566929
 20
3.086870078740157
 30
0.0
 10
3.149153543307087
 20
3.16246062992126
 30
0.0
 10
3.107023622047244
 20
3.230397637795276
 30
0.0
 10
3.244043307086614
 20
3.147874015748032
 30
0.0
  0
SPLINE
  5
8A
330
1F
100
AcDbEntity
  8
Layer 1
 62
   250
370
    18
100
AcDbSpline
210
0.0
220
0.0
230
1.0
 70
    11
 71
     3
 72
   100
 73
    96
 74
     0
 42
0.000000001
 43
0.0000000001
 40
0.0
 40
0.0
 40
0.0
 40
0.0
 40
0.04
 40
0.04
 40
0.04
 40
0.04
 40
0.08
 40
0.08
 40
0.08
 40
0.08
 40
0.12
 40
0.12
 40
0.12
 40
0.12
 40
0.16
 40
0.16
 40
0.16
 40
0.16
 40
0.2
 40
0.2
 40
0.2
 40
0.2
 40
0.24
 40
0.24
 40
0.24
 40
0.24
 40
0.28
 40
0.28
 40
0.28
 40
0.28
 40
0.32
 40
0.32
 40
0.32
 40
0.32
 40
0.36
 40
0.36
 40
0.36
 40
0.36
 40
0.4
 40
0.4
 40
0.4
 40
0.4
 40
0.44
 40
0.44
 40
0.44
 40
0.44
 40
0.48
 40
0.48
 40
0.48
 40
0.48
 40
0.52
 40
0.52
 40
0.52
 40
0.52
 40
0.56
 40
0.56
 40
0.56
 40
0.56
 40
0.6
 40
0.6
 40
0.6
 40
0.6
 40
0.64
 40
0.64
 40
0.64
 40
0.64
 40
0.68
 40
0.68
 40
0.68
 40
0.68
 40
0.72
 40
0.72
 40
0.72
 40
0.72
 40
0.76
 40
0.76
 40
0.76
 40
0.76
 40
0.8
 40
0.8
 40
0.8
 40
0.8
 40
0.84
 40
0.84
 40
0.84
 40
0.84
 40
0.88
 40
0.88
 40
0.88
 40
0.88
 40
0.92
 40
0.92
 40
0.92
 40
0.92
 40
1.0
 40
1.0
 40
1.0
 40
1.0
 10
2.566090551181103
 20
3.140251968503937
 30
0.0
 10
2.53790157480315
 20
3.231870078740157
 30
0.0
 10
2.810988188976378
 20
3.174732283464567
 30
0.0
 10
2.858625984251968
 20
3.15342125984252
 30
0.0
 10
2.858625984251968
 20
3.15342125984252
 30
0.0
 10
2.937649606299213
 20
3.118066929133858
 30
0.0
 10
3.019448818897638
 20
3.059838582677165
 30
0.0
 10
3.06103937007874
 20
3.019633858267717
 30
0.0
 10
3.06103937007874
 20
3.019633858267717
 30
0.0
 10
3.15242125984252
 20
2.931295275590551
 30
0.0
 10
3.047547244094488
 20
2.935066929133858
 30
0.0
 10
3.124814960629921
 20
2.91703937007874
 30
0.0
 10
3.124814960629921
 20
2.91703937007874
 30
0.0
 10
3.166409448818898
 20
2.907334645669291
 30
0.0
 10
3.260681102362205
 20
2.892082677165354
 30
0.0
 10
3.32792125984252
 20
2.851185039370079
 30
0.0
 10
3.32792125984252
 20
2.851185039370079
 30
0.0
 10
3.395161417322835
 20
2.810283464566929
 30
0.0
 10
3.435370078740157
 20
2.743740157480315
 30
0.0
 10
3.454779527559055
 20
2.704224409448819
 30
0.0
 10
3.454779527559055
 20
2.704224409448819
 30
0.0
 10
3.505429133858268
 20
2.601114173228346
 30
0.0
 10
3.40451968503937
 20
2.710909448818898
 30
0.0
 10
3.331385826771653
 20
2.743043307086614
 30
0.0
 10
3.331385826771653
 20
2.743043307086614
 30
0.0
 10
3.285637795275591
 20
2.763145669291339
 30
0.0
 10
3.241271653543307
 20
2.761759842519685
 30
0.0
 10
3.198988188976378
 20
2.752055118110236
 30
0.0
 10
3.198988188976378
 20
2.752055118110236
 30
0.0
 10
3.156700787401575
 20
2.742350393700788
 30
0.0
 10
3.116496062992126
 20
2.724326771653543
 30
0.0
 10
3.092925196850394
 20
2.685507874015748
 30
0.0
 10
3.092925196850394
 20
2.685507874015748
 30
0.0
 10
3.069358267716535
 20
2.646688976377953
 30
0.0
 10
3.062425196850393
 20
2.587074803149606
 30
0.0
 10
3.061732283464567
 20
2.54340157480315
 30
0.0
 10
3.061732283464567
 20
2.54340157480315
 30
0.0
 10
3.06103937007874
 20
2.499732283464567
 30
0.0
 10
3.066586614173228
 20
2.472
 30
0.0
 10
3.047870078740158
 20
2.483090551181102
 30
0.0
 10
3.047870078740158
 20
2.483090551181102
 30
0.0
 10
3.029153543307086
 20
2.494185039370079
 30
0.0
 10
2.986173228346457
 20
2.544094488188976
 30
0.0
 10
2.945968503937008
 20
2.596082677165354
 30
0.0
 10
2.945968503937008
 20
2.596082677165354
 30
0.0
 10
2.905763779527559
 20
2.648074803149606
 30
0.0
 10
2.868330708661417
 20
2.702145669291339
 30
0.0
 10
2.852385826771654
 20
2.736803149606299
 30
0.0
 10
2.852385826771654
 20
2.736803149606299
 30
0.0
 10
2.83644094488189
 20
2.771464566929134
 30
0.0
 10
2.841988188976378
 20
2.786716535433071
 30
0.0
 10
2.864862204724409
 20
2.807511811023622
 30
0.0
 10
2.864862204724409
 20
2.807511811023622
 30
0.0
 10
2.887736220472441
 20
2.828307086614173
 30
0.0
 10
2.927944881889764
 20
2.854649606299212
 30
0.0
 10
2.963299212598425
 20
2.865047244094488
 30
0.0
 10
2.963299212598425
 20
2.865047244094488
 30
0.0
 10
2.998649606299213
 20
2.875444881889764
 30
0.0
 10
3.029153543307086
 20
2.86990157480315
 30
0.0
 10
3.036779527559055
 20
2.880992125984252
 30
0.0
 10
3.036779527559055
 20
2.880992125984252
 30
0.0
 10
3.044405511811024
 20
2.892082677165354
 30
0.0
 10
3.029153543307086
 20
2.919811023622047
 30
0.0
 10
3.012515748031496
 20
2.935062992125984
 30
0.0
 10
3.012515748031496
 20
2.935062992125984
 30
0.0
 10
2.995877952755905
 20
2.950311023622047
 30
0.0
 10
2.977854330708662
 20
2.953086614173228
 30
0.0
 10
2.952204724409449
 20
2.948925196850394
 30
0.0
 10
2.952204724409449
 20
2.948925196850394
 30
0.0
 10
2.92655905511811
 20
2.944767716535433
 30
0.0
 10
2.893283464566929
 20
2.933677165354331
 30
0.0
 10
2.889818897637795
 20
2.944767716535433
 30
0.0
 10
2.889818897637795
 20
2.944767716535433
 30
0.0
 10
2.886354330708661
 20
2.955858267716535
 30
0.0
 10
2.912692913385827
 20
2.989129921259842
 30
0.0
 10
2.90992125984252
 20
3.00853937007874
 30
0.0
 10
2.90992125984252
 20
3.00853937007874
 30
0.0
 10
2.907149606299213
 20
3.027948818897638
 30
0.0
 10
2.875263779527559
 20
3.033496062992126
 30
0.0
 10
2.834362204724409
 20
3.027259842519685
 30
0.0
 10
2.834362204724409
 20
3.027259842519685
 30
0.0
 10
2.793464566929134
 20
3.02101968503937
 30
0.0
 10
2.743555118110236
 20
3.002996062992126
 30
0.0
 10
2.717905511811024
 20
3.012007874015748
 30
0.0
 10
2.717905511811024
 20
3.012007874015748
 30
0.0
 10
2.692255905511811
 20
3.02101968503937
 30
0.0
 10
2.690870078740157
 20
3.057066929133858
 30
0.0
 10
2.685322834645669
 20
3.077169291338583
 30
0.0
 10
2.685322834645669
 20
3.077169291338583
 30
0.0
 10
2.679779527559055
 20
3.097271653543307
 30
0.0
 10
2.670074803149606
 20
3.101429133858268
 30
0.0
 10
2.643035433070866
 20
3.107669291338583
 30
0.0
 10
2.643035433070866
 20
3.107669291338583
 30
0.0
 10
2.616003937007874
 20
3.113909448818898
 30
0.0
 10
2.571637795275591
 20
3.122228346456693
 30
0.0
 10
2.566090551181103
 20
3.140251968503937
 30
0.0
  0
SPLINE
  5
8B
330
1F
100
AcDbEntity
  8
Layer 1
 62
   250
370
    18
100
AcDbSpline
210
0.0
220
0.0
230
1.0
 70
    11
 71
     3
 72
    72
 73
    68
 74
     0
 42
0.000000001
 43
0.0000000001
 40
0.0
 40
0.0
 40
0.0
 40
0.0
 40
0.0555555555555556
 40
0.0555555555555556
 40
0.0555555555555556
 40
0.0555555555555556
 40
0.1111111111111111
 40
0.1111111111111111
 40
0.1111111111111111
 40
0.1111111111111111
 40
0.1666666666666667
 40
0.1666666666666667
 40
0.1666666666666667
 40
0.1666666666666667
 40
0.2222222222222222
 40
0.2222222222222222
 40
0.2222222222222222
 40
0.2222222222222222
 40
0.2777777777777778
 40
0.2777777777777778
 40
0.2777777777777778
 40
0.2777777777777778
 40
0.3333333333333333
 40
0.3333333333333333
 40
0.3333333333333333
 40
0.3333333333333333
 40
0.3888888888888889
 40
0.3888888888888889
 40
0.3888888888888889
 40
0.3888888888888889
 40
0.4444444444444444
 40
0.4444444444444444
 40
0.4444444444444444
 40
0.4444444444444444
 40
0.5
 40
0.5
 40
0.5
 40
0.5
 40
0.5555555555555556
 40
0.5555555555555556
 40
0.5555555555555556
 40
0.5555555555555556
 40
0.6111111111111112
 40
0.6111111111111112
 40
0.6111111111111112
 40
0.6111111111111112
 40
0.6666666666666666
 40
0.6666666666666666
 40
0.6666666666666666
 40
0.6666666666666666
 40
0.7222222222222222
 40
0.7222222222222222
 40
0.7222222222222222
 40
0.7222222222222222
 40
0.7777777777777778
 40
0.7777777777777778
 40
0.7777777777777778
 40
0.7777777777777778
 40
0.8333333333333334
 40
0.8333333333333334
 40
0.8333333333333334
 40
0.8333333333333334
 40
0.8888888888888888
 40
0.8888888888888888
 40
0.8888888888888888
 40
0.8888888888888888
 40
1.0
 40
1.0
 40
1.0
 40
1.0
 10
3.257901574803149
 20
2.279295275590551
 30
0.0
 10
3.271767716535433
 20
2.2585
 30
0.0
 10
3.288405511811024
 20
2.218291338582677
 30
0.0
 10
3.325141732283464
 20
2.176007874015748
 30
0.0
 10
3.325141732283464
 20
2.176007874015748
 30
0.0
 10
3.361885826771653
 20
2.133720472440945
 30
0.0
 10
3.418728346456693
 20
2.089358267716535
 30
0.0
 10
3.463783464566929
 20
2.047763779527559
 30
0.0
 10
3.463783464566929
 20
2.047763779527559
 30
0.0
 10
3.508842519685039
 20
2.006173228346457
 30
0.0
 10
3.54211811023622
 20
1.967354330708661
 30
0.0
 10
3.57053937007874
 20
1.911204724409449
 30
0.0
 10
3.57053937007874
 20
1.911204724409449
 30
0.0
 10
3.59896062992126
 20
1.855055118110236
 30
0.0
 10
3.622527559055118
 20
1.781574803149606
 30
0.0
 10
3.639165354330709
 20
1.730279527559055
 30
0.0
 10
3.639165354330709
 20
1.730279527559055
 30
0.0
 10
3.655803149606299
 20
1.67898031496063
 30
0.0
 10
3.665507874015748
 20
1.649866141732284
 30
0.0
 10
3.673826771653543
 20
1.651944881889764
 30
0.0
 10
3.673826771653543
 20
1.651944881889764
 30
0.0
 10
3.682145669291339
 20
1.654023622047244
 30
0.0
 10
3.689074803149606
 20
1.687299212598425
 30
0.0
 10
3.687688976377953
 20
1.737208661417323
 30
0.0
 10
3.687688976377953
 20
1.737208661417323
 30
0.0
 10
3.683716535433071
 20
1.880173228346457
 30
0.0
 10
3.628925196850393
 20
1.971358267716535
 30
0.0
 10
3.537956692913386
 20
2.076877952755905
 30
0.0
 10
3.537956692913386
 20
2.076877952755905
 30
0.0
 10
3.503299212598425
 20
2.117086614173228
 30
0.0
 10
3.481114173228347
 20
2.139267716535433
 30
0.0
 10
3.467944881889764
 20
2.177393700787401
 30
0.0
 10
3.467944881889764
 20
2.177393700787401
 30
0.0
 10
3.454771653543307
 20
2.21551968503937
 30
0.0
 10
3.450614173228347
 20
2.269590551181103
 30
0.0
 10
3.456854330708661
 20
2.325740157480315
 30
0.0
 10
3.456854330708661
 20
2.325740157480315
 30
0.0
 10
3.463090551181102
 20
2.381885826771653
 30
0.0
 10
3.479728346456693
 20
2.440118110236221
 30
0.0
 10
3.485271653543307
 20
2.473389763779528
 30
0.0
 10
3.485271653543307
 20
2.473389763779528
 30
0.0
 10
3.490818897637795
 20
2.506665354330709
 30
0.0
 10
3.485271653543307
 20
2.514984251968504
 30
0.0
 10
3.470023622047244
 20
2.494877952755906
 30
0.0
 10
3.470023622047244
 20
2.494877952755906
 30
0.0
 10
3.454771653543307
 20
2.474779527559055
 30
0.0
 10
3.429818897637795
 20
2.426251968503937
 30
0.0
 10
3.410405511811024
 20
2.394366141732283
 30
0.0
 10
3.410405511811024
 20
2.394366141732283
 30
0.0
 10
3.391
 20
2.36248031496063
 30
0.0
 10
3.377133858267717
 20
2.347228346456693
 30
0.0
 10
3.341090551181102
 20
2.343066929133858
 30
0.0
 10
3.341090551181102
 20
2.343066929133858
 30
0.0
 10
3.305043307086614
 20
2.338909448818898
 30
0.0
 10
3.246811023622047
 20
2.345842519685039
 30
0.0
 10
3.212153543307087
 20
2.350692913385827
 30
0.0
 10
3.212153543307087
 20
2.350692913385827
 30
0.0
 10
3.177492125984252
 20
2.355547244094488
 30
0.0
 10
3.16640157480315
 20
2.358318897637795
 30
0.0
 10
3.171948818897638
 20
2.35
 30
0.0
 10
3.171948818897638
 20
2.35
 30
0.0
 10
3.177492125984252
 20
2.341681102362205
 30
0.0
 10
3.199673228346457
 20
2.322275590551181
 30
0.0
 10
3.216311023622047
 20
2.311874015748031
 30
0.0
 10
3.216311023622047
 20
2.311874015748031
 30
0.0
 10
3.232948818897638
 20
2.301476377952756
 30
0.0
 10
3.24403937007874
 20
2.300090551181103
 30
0.0
 10
3.257901574803149
 20
2.279295275590551
 30
0.0
  0
SPLINE
  5
8C
330
1F
100
AcDbEntity
  8
Layer 1
 62
   250
370
    18
100
AcDbSpline
210
0.0
220
0.0
230
1.0
 70
    11
 71
     3
 72
    96
 73
    92
 74
     0
 42
0.000000001
 43
0.0000000001
 40
0.0
 40
0.0
 40
0.0
 40
0.0
 40
0.0416666666666667
 40
0.0416666666666667
 40
0.0416666666666667
 40
0.0416666666666667
 40
0.0833333333333333
 40
0.0833333333333333
 40
0.0833333333333333
 40
0.0833333333333333
 40
0.125
 40
0.125
 40
0.125
 40
0.125
 40
0.1666666666666667
 40
0.1666666666666667
 40
0.1666666666666667
 40
0.1666666666666667
 40
0.2083333333333333
 40
0.2083333333333333
 40
0.2083333333333333
 40
0.2083333333333333
 40
0.25
 40
0.25
 40
0.25
 40
0.25
 40
0.2916666666666667
 40
0.2916666666666667
 40
0.2916666666666667
 40
0.2916666666666667
 40
0.3333333333333333
 40
0.3333333333333333
 40
0.3333333333333333
 40
0.3333333333333333
 40
0.375
 40
0.375
 40
0.375
 40
0.375
 40
0.4166666666666667
 40
0.4166666666666667
 40
0.4166666666666667
 40
0.4166666666666667
 40
0.4583333333333333
 40
0.4583333333333333
 40
0.4583333333333333
 40
0.4583333333333333
 40
0.5
 40
0.5
 40
0.5
 40
0.5
 40
0.5416666666666666
 40
0.5416666666666666
 40
0.5416666666666666
 40
0.5416666666666666
 40
0.5833333333333334
 40
0.5833333333333334
 40
0.5833333333333334
 40
0.5833333333333334
 40
0.625
 40
0.625
 40
0.625
 40
0.625
 40
0.6666666666666666
 40
0.6666666666666666
 40
0.6666666666666666
 40
0.6666666666666666
 40
0.7083333333333334
 40
0.7083333333333334
 40
0.7083333333333334
 40
0.7083333333333334
 40
0.75
 40
0.75
 40
0.75
 40
0.75
 40
0.7916666666666666
 40
0.7916666666666666
 40
0.7916666666666666
 40
0.7916666666666666
 40
0.8333333333333334
 40
0.8333333333333334
 40
0.8333333333333334
 40
0.8333333333333334
 40
0.875
 40
0.875
 40
0.875
 40
0.875
 40
0.9166666666666666
 40
0.9166666666666666
 40
0.9166666666666666
 40
0.9166666666666666
 40
1.0
 40
1.0
 40
1.0
 40
1.0
 10
2.20561811023622
 20
2.993291338582677
 30
0.0
 10
2.182047244094488
 20
2.953082677165354
 30
0.0
 10
2.157094488188976
 20
2.908720472440945
 30
0.0
 10
2.146692913385827
 20
2.876137795275591
 30
0.0
 10
2.146692913385827
 20
2.876137795275591
 30
0.0
 10
2.136299212598425
 20
2.84355905511811
 30
0.0
 10
2.140456692913386
 20
2.822763779527559
 30
0.0
 10
2.127976377952756
 20
2.790181102362205
 30
0.0
 10
2.127976377952756
 20
2.790181102362205
 30
0.0
 10
2.087212598425197
 20
2.683740157480315
 30
0.0
 10
2.054688976377953
 20
2.675692913385827
 30
0.0
 10
2.131444881889764
 20
2.567661417322835
 30
0.0
 10
2.131444881889764
 20
2.567661417322835
 30
0.0
 10
2.150161417322835
 20
2.541322834645669
 30
0.0
 10
2.159866141732283
 20
2.526070866141732
 30
0.0
 10
2.151547244094488
 20
2.499728346456693
 30
0.0
 10
2.151547244094488
 20
2.499728346456693
 30
0.0
 10
2.130125984251968
 20
2.431893700787402
 30
0.0
 10
2.013708661417323
 20
2.328283464566929
 30
0.0
 10
1.984484251968504
 20
2.248791338582677
 30
0.0
 10
1.984484251968504
 20
2.248791338582677
 30
0.0
 10
1.967157480314961
 20
2.201653543307087
 30
0.0
 10
1.97686220472441
 20
2.158677165354331
 30
0.0
 10
2.005283464566929
 20
2.109456692913386
 30
0.0
 10
2.005283464566929
 20
2.109456692913386
 30
0.0
 10
2.033704724409449
 20
2.060240157480315
 30
0.0
 10
2.08084251968504
 20
2.004783464566929
 30
0.0
 10
2.102330708661417
 20
1.987452755905512
 30
0.0
 10
2.102330708661417
 20
1.987452755905512
 30
0.0
 10
2.123818897637795
 20
1.970122047244095
 30
0.0
 10
2.119661417322835
 20
1.99092125984252
 30
0.0
 10
2.106492125984252
 20
2.033897637795276
 30
0.0
 10
2.106492125984252
 20
2.033897637795276
 30
0.0
 10
2.093318897637795
 20
2.076877952755905
 30
0.0
 10
2.07113779527559
 20
2.14203937007874
 30
0.0
 10
2.085
 20
2.19888188976378
 30
0.0
 10
2.085
 20
2.19888188976378
 30
0.0
 10
2.111011811023622
 20
2.30551968503937
 30
0.0
 10
2.221759842519685
 20
2.367767716535433
 30
0.0
 10
2.324153543307087
 20
2.306326771653543
 30
0.0
 10
2.324153543307087
 20
2.306326771653543
 30
0.0
 10
2.375515748031496
 20
2.275507874015748
 30
0.0
 10
2.542956692913386
 20
2.117669291338583
 30
0.0
 10
2.575787401574803
 20
2.119854330708661
 30
0.0
 10
2.575787401574803
 20
2.119854330708661
 30
0.0
 10
2.596582677165354
 20
2.121244094488189
 30
0.0
 10
2.595196850393701
 20
2.16005905511811
 30
0.0
 10
2.567468503937008
 20
2.22938188976378
 30
0.0
 10
2.567468503937008
 20
2.22938188976378
 30
0.0
 10
2.528771653543307
 20
2.32611811023622
 30
0.0
 10
2.431657480314961
 20
2.517551181102362
 30
0.0
 10
2.346338582677165
 20
2.579448818897638
 30
0.0
 10
2.346338582677165
 20
2.579448818897638
 30
0.0
 10
2.310984251968504
 20
2.605098425196851
 30
0.0
 10
2.265232283464567
 20
2.628665354330709
 30
0.0
 10
2.24790157480315
 20
2.646688976377953
 30
0.0
 10
2.24790157480315
 20
2.646688976377953
 30
0.0
 10
2.230574803149606
 20
2.664712598425197
 30
0.0
 10
2.241665354330709
 20
2.677188976377953
 30
0.0
 10
2.275629921259843
 20
2.677188976377953
 30
0.0
 10
2.275629921259843
 20
2.677188976377953
 30
0.0
 10
2.30959842519685
 20
2.677188976377953
 30
0.0
 10
2.36644094488189
 20
2.664712598425197
 30
0.0
 10
2.376145669291339
 20
2.677188976377953
 30
0.0
 10
2.376145669291339
 20
2.677188976377953
 30
0.0
 10
2.385850393700788
 20
2.689669291338582
 30
0.0
 10
2.348417322834646
 20
2.727102362204724
 30
0.0
 10
2.331779527559055
 20
2.751362204724409
 30
0.0
 10
2.331779527559055
 20
2.751362204724409
 30
0.0
 10
2.29501968503937
 20
2.804972440944882
 30
0.0
 10
2.359602362204724
 20
2.790232283464567
 30
0.0
 10
2.335248031496063
 20
2.824842519685039
 30
0.0
 10
2.335248031496063
 20
2.824842519685039
 30
0.0
 10
2.322074803149606
 20
2.84355905511811
 30
0.0
 10
2.283255905511811
 20
2.876834645669291
 30
0.0
 10
2.268003937007874
 20
2.906641732283465
 30
0.0
 10
2.268003937007874
 20
2.906641732283465
 30
0.0
 10
2.252755905511811
 20
2.936448818897638
 30
0.0
 10
2.261074803149606
 20
2.962787401574803
 30
0.0
 10
2.281870078740158
 20
2.999527559055118
 30
0.0
 10
2.281870078740158
 20
2.999527559055118
 30
0.0
 10
2.302665354330709
 20
3.036267716535433
 30
0.0
 10
2.33594094488189
 20
3.083409448818898
 30
0.0
 10
2.336629921259842
 20
3.102818897637795
 30
0.0
 10
2.336629921259842
 20
3.102818897637795
 30
0.0
 10
2.337326771653543
 20
3.122228346456693
 30
0.0
 10
2.30544094488189
 20
3.113909448818898
 30
0.0
 10
2.27840157480315
 20
3.091724409448819
 30
0.0
 10
2.27840157480315
 20
3.091724409448819
 30
0.0
 10
2.251370078740158
 20
3.069543307086614
 30
0.0
 10
2.229185039370079
 20
3.033496062992126
 30
0.0
 10
2.20561811023622
 20
2.993291338582677
 30
0.0
  0
SPLINE
  5
8D
330
1F
100
AcDbEntity
  8
Layer 1
 62
   250
370
    18
100
AcDbSpline
210
0.0
220
0.0
230
1.0
 70
    11
 71
     3
 72
    68
 73
    64
 74
     0
 42
0.000000001
 43
0.0000000001
 40
0.0
 40
0.0
 40
0.0
 40
0.0
 40
0.0588235294117647
 40
0.0588235294117647
 40
0.0588235294117647
 40
0.0588235294117647
 40
0.1176470588235294
 40
0.1176470588235294
 40
0.1176470588235294
 40
0.1176470588235294
 40
0.1764705882352941
 40
0.1764705882352941
 40
0.1764705882352941
 40
0.1764705882352941
 40
0.2352941176470588
 40
0.2352941176470588
 40
0.2352941176470588
 40
0.2352941176470588
 40
0.2941176470588235
 40
0.2941176470588235
 40
0.2941176470588235
 40
0.2941176470588235
 40
0.3529411764705883
 40
0.3529411764705883
 40
0.3529411764705883
 40
0.3529411764705883
 40
0.4117647058823529
 40
0.4117647058823529
 40
0.4117647058823529
 40
0.4117647058823529
 40
0.4705882352941176
 40
0.4705882352941176
 40
0.4705882352941176
 40
0.4705882352941176
 40
0.5294117647058824
 40
0.5294117647058824
 40
0.5294117647058824
 40
0.5294117647058824
 40
0.5882352941176471
 40
0.5882352941176471
 40
0.5882352941176471
 40
0.5882352941176471
 40
0.6470588235294118
 40
0.6470588235294118
 40
0.6470588235294118
 40
0.6470588235294118
 40
0.7058823529411765
 40
0.7058823529411765
 40
0.7058823529411765
 40
0.7058823529411765
 40
0.7647058823529411
 40
0.7647058823529411
 40
0.7647058823529411
 40
0.7647058823529411
 40
0.8235294117647058
 40
0.8235294117647058
 40
0.8235294117647058
 40
0.8235294117647058
 40
0.8823529411764706
 40
0.8823529411764706
 40
0.8823529411764706
 40
0.8823529411764706
 40
1.0
 40
1.0
 40
1.0
 40
1.0
 10
2.261763779527559
 20
1.90496062992126
 30
0.0
 10
2.384917322834646
 20
1.866645669291339
 30
0.0
 10
2.367330708661417
 20
1.876614173228347
 30
0.0
 10
2.489133858267717
 20
1.902877952755905
 30
0.0
 10
2.489133858267717
 20
1.902877952755905
 30
0.0
 10
2.524488188976378
 20
1.910503937007874
 30
0.0
 10
2.550826771653543
 20
1.90911811023622
 30
0.0
 10
2.56815748031496
 20
1.925062992125984
 30
0.0
 10
2.56815748031496
 20
1.925062992125984
 30
0.0
 10
2.585488188976378
 20
1.941007874015748
 30
0.0
 10
2.593807086614173
 20
1.974279527559055
 30
0.0
 10
2.605590551181102
 20
1.973586614173228
 30
0.0
 10
2.605590551181102
 20
1.973586614173228
 30
0.0
 10
2.617377952755906
 20
1.972893700787402
 30
0.0
 10
2.632625984251968
 20
1.938232283464567
 30
0.0
 10
2.622228346456693
 20
1.886937007874016
 30
0.0
 10
2.622228346456693
 20
1.886937007874016
 30
0.0
 10
2.611830708661417
 20
1.835641732283465
 30
0.0
 10
2.575783464566929
 20
1.767704724409449
 30
0.0
 10
2.56607874015748
 20
1.706700787401575
 30
0.0
 10
2.56607874015748
 20
1.706700787401575
 30
0.0
 10
2.556374015748032
 20
1.645700787401575
 30
0.0
 10
2.573011811023622
 20
1.591633858267717
 30
0.0
 10
2.588956692913386
 20
1.527858267716535
 30
0.0
 10
2.588956692913386
 20
1.527858267716535
 30
0.0
 10
2.604897637795276
 20
1.464082677165354
 30
0.0
 10
2.620149606299213
 20
1.390602362204724
 30
0.0
 10
2.636783464566929
 20
1.332374015748031
 30
0.0
 10
2.636783464566929
 20
1.332374015748031
 30
0.0
 10
2.65342125984252
 20
1.274145669291339
 30
0.0
 10
2.671444881889764
 20
1.231165354330709
 30
0.0
 10
2.688082677165355
 20
1.168779527559055
 30
0.0
 10
2.688082677165355
 20
1.168779527559055
 30
0.0
 10
2.704720472440945
 20
1.106389763779527
 30
0.0
 10
2.719968503937008
 20
1.024590551181102
 30
0.0
 10
2.715811023622047
 20
1.010035433070866
 30
0.0
 10
2.715811023622047
 20
1.010035433070866
 30
0.0
 10
2.711653543307087
 20
0.9954763779527559
 30
0.0
 10
2.688082677165355
 20
1.048161417322835
 30
0.0
 10
2.650649606299213
 20
1.125106299212598
 30
0.0
 10
2.650649606299213
 20
1.125106299212598
 30
0.0
 10
2.613216535433071
 20
1.202051181102362
 30
0.0
 10
2.56192125984252
 20
1.303259842519685
 30
0.0
 10
2.536271653543307
 20
1.3705
 30
0.0
 10
2.536271653543307
 20
1.3705
 30
0.0
 10
2.510622047244095
 20
1.437740157480315
 30
0.0
 10
2.510622047244095
 20
1.471015748031496
 30
0.0
 10
2.491212598425197
 20
1.513992125984252
 30
0.0
 10
2.491212598425197
 20
1.513992125984252
 30
0.0
 10
2.471803149606299
 20
1.556972440944882
 30
0.0
 10
2.432984251968504
 20
1.609657480314961
 30
0.0
 10
2.413574803149606
 20
1.65401968503937
 30
0.0
 10
2.413574803149606
 20
1.65401968503937
 30
0.0
 10
2.394165354330709
 20
1.698385826771654
 30
0.0
 10
2.394165354330709
 20
1.734433070866142
 30
0.0
 10
2.35811811023622
 20
1.777409448818898
 30
0.0
 10
2.35811811023622
 20
1.777409448818898
 30
0.0
 10
2.322070866141732
 20
1.820389763779528
 30
0.0
 10
2.24998031496063
 20
1.870299212598425
 30
0.0
 10
2.227102362204724
 20
1.893866141732284
 30
0.0
 10
2.227102362204724
 20
1.893866141732284
 30
0.0
 10
2.204228346456693
 20
1.917437007874016
 30
0.0
 10
2.230570866141732
 20
1.914665354330709
 30
0.0
 10
2.261763779527559
 20
1.90496062992126
 30
0.0
  0
SPLINE
  5
8E
330
1F
100
AcDbEntity
  8
Layer 1
 62
   250
370
    18
100
AcDbSpline
210
0.0
220
0.0
230
1.0
 70
    11
 71
     3
 72
    44
 73
    40
 74
     0
 42
0.000000001
 43
0.0000000001
 40
0.0
 40
0.0
 40
0.0
 40
0.0
 40
0.0909090909090909
 40
0.0909090909090909
 40
0.0909090909090909
 40
0.0909090909090909
 40
0.1818181818181818
 40
0.1818181818181818
 40
0.1818181818181818
 40
0.1818181818181818
 40
0.2727272727272727
 40
0.2727272727272727
 40
0.2727272727272727
 40
0.2727272727272727
 40
0.3636363636363636
 40
0.3636363636363636
 40
0.3636363636363636
 40
0.3636363636363636
 40
0.4545454545454545
 40
0.4545454545454545
 40
0.4545454545454545
 40
0.4545454545454545
 40
0.5454545454545454
 40
0.5454545454545454
 40
0.5454545454545454
 40
0.5454545454545454
 40
0.6363636363636364
 40
0.6363636363636364
 40
0.6363636363636364
 40
0.6363636363636364
 40
0.7272727272727273
 40
0.7272727272727273
 40
0.7272727272727273
 40
0.7272727272727273
 40
0.8181818181818182
 40
0.8181818181818182
 40
0.8181818181818182
 40
0.8181818181818182
 40
1.0
 40
1.0
 40
1.0
 40
1.0
 10
2.993775590551181
 20
1.440169291338583
 30
0.0
 10
3.036751968503937
 20
1.466858267716535
 30
0.0
 10
3.117858267716536
 20
1.514685039370079
 30
0.0
 10
3.176433070866142
 20
1.538948818897638
 30
0.0
 10
3.176433070866142
 20
1.538948818897638
 30
0.0
 10
3.235007874015748
 20
1.563212598425197
 30
0.0
 10
3.271055118110236
 20
1.563905511811024
 30
0.0
 10
3.276602362204724
 20
1.550389763779528
 30
0.0
 10
3.276602362204724
 20
1.550389763779528
 30
0.0
 10
3.282145669291339
 20
1.536870078740157
 30
0.0
 10
3.257192913385827
 20
1.509141732283465
 30
0.0
 10
3.261003937007874
 20
1.486614173228346
 30
0.0
 10
3.261003937007874
 20
1.486614173228346
 30
0.0
 10
3.267342519685039
 20
1.449165354330709
 30
0.0
 10
3.357511811023622
 20
1.42553937007874
 30
0.0
 10
3.264122047244094
 20
1.402736220472441
 30
0.0
 10
3.264122047244094
 20
1.402736220472441
 30
0.0
 10
3.234314960629921
 20
1.395456692913386
 30
0.0
 10
3.192724409448819
 20
1.390602362204724
 30
0.0
 10
3.16846062992126
 20
1.381590551181102
 30
0.0
 10
3.16846062992126
 20
1.381590551181102
 30
0.0
 10
3.144200787401575
 20
1.372582677165354
 30
0.0
 10
3.137267716535433
 20
1.359409448818898
 30
0.0
 10
3.12305905511811
 20
1.366342519685039
 30
0.0
 10
3.12305905511811
 20
1.366342519685039
 30
0.0
 10
3.108846456692913
 20
1.373275590551181
 30
0.0
 10
3.087358267716536
 20
1.400307086614173
 30
0.0
 10
3.057547244094488
 20
1.401003937007874
 30
0.0
 10
3.057547244094488
 20
1.401003937007874
 30
0.0
 10
3.027740157480315
 20
1.401696850393701
 30
0.0
 10
2.98961811023622
 20
1.376047244094488
 30
0.0
 10
2.962236220472441
 20
1.361141732283464
 30
0.0
 10
2.962236220472441
 20
1.361141732283464
 30
0.0
 10
2.898866141732284
 20
1.326649606299213
 30
0.0
 10
2.912303149606299
 20
1.357476377952756
 30
0.0
 10
2.936933070866142
 20
1.394417322834646
 30
0.0
 10
2.936933070866142
 20
1.394417322834646
 30
0.0
 10
2.94594094488189
 20
1.407933070866142
 30
0.0
 10
2.950795275590551
 20
1.41348031496063
 30
0.0
 10
2.993775590551181
 20
1.440169291338583
 30
0.0
  0
SPLINE
  5
8F
330
1F
100
AcDbEntity
  8
Layer 1
 62
   250
370
    18
100
AcDbSpline
210
0.0
220
0.0
230
1.0
 70
    11
 71
     3
 72
    40
 73
    36
 74
     0
 42
0.000000001
 43
0.0000000001
 40
0.0
 40
0.0
 40
0.0
 40
0.0
 40
0.1
 40
0.1
 40
0.1
 40
0.1
 40
0.2
 40
0.2
 40
0.2
 40
0.2
 40
0.3
 40
0.3
 40
0.3
 40
0.3
 40
0.4
 40
0.4
 40
0.4
 40
0.4
 40
0.5
 40
0.5
 40
0.5
 40
0.5
 40
0.6
 40
0.6
 40
0.6
 40
0.6
 40
0.7
 40
0.7
 40
0.7
 40
0.7
 40
0.8
 40
0.8
 40
0.8
 40
0.8
 40
1.0
 40
1.0
 40
1.0
 40
1.0
 10
2.987188976377953
 20
1.19511811023622
 30
0.0
 10
3.000708661417323
 20
1.202744094488189
 30
0.0
 10
3.020807086614173
 20
1.21938188976378
 30
0.0
 10
3.046456692913386
 20
1.228740157480315
 30
0.0
 10
3.046456692913386
 20
1.228740157480315
 30
0.0
 10
3.084425196850394
 20
1.242594488188976
 30
0.0
 10
3.156728346456693
 20
1.246736220472441
 30
0.0
 10
3.163610236220472
 20
1.19511811023622
 30
0.0
 10
3.163610236220472
 20
1.19511811023622
 30
0.0
 10
3.166381889763779
 20
1.174322834645669
 30
0.0
 10
3.158759842519685
 20
1.14590157480315
 30
0.0
 10
3.161181102362205
 20
1.132732283464567
 30
0.0
 10
3.161181102362205
 20
1.132732283464567
 30
0.0
 10
3.163610236220472
 20
1.11955905511811
 30
0.0
 10
3.176086614173228
 20
1.121641732283465
 30
0.0
 10
3.183366141732284
 20
1.141047244094488
 30
0.0
 10
3.183366141732284
 20
1.141047244094488
 30
0.0
 10
3.190645669291339
 20
1.16046062992126
 30
0.0
 10
3.192724409448819
 20
1.197200787401575
 30
0.0
 10
3.180937007874016
 20
1.223196850393701
 30
0.0
 10
3.180937007874016
 20
1.223196850393701
 30
0.0
 10
3.151507874015748
 20
1.288110236220472
 30
0.0
 10
3.057787401574803
 20
1.266377952755906
 30
0.0
 10
3.003129921259843
 20
1.25196062992126
 30
0.0
 10
3.003129921259843
 20
1.25196062992126
 30
0.0
 10
2.971590551181102
 20
1.243645669291339
 30
0.0
 10
2.950102362204724
 20
1.236712598425197
 30
0.0
 10
2.94455905511811
 20
1.226661417322835
 30
0.0
 10
2.94455905511811
 20
1.226661417322835
 30
0.0
 10
2.939011811023622
 20
1.216610236220472
 30
0.0
 10
2.949409448818898
 20
1.20344094488189
 30
0.0
 10
2.958074803149606
 20
1.196157480314961
 30
0.0
 10
2.958074803149606
 20
1.196157480314961
 30
0.0
 10
2.966740157480315
 20
1.18888188976378
 30
0.0
 10
2.973669291338583
 20
1.187496062992126
 30
0.0
 10
2.987188976377953
 20
1.19511811023622
 30
0.0
  0
SPLINE
  5
90
330
1F
100
AcDbEntity
  8
Layer 1
 62
   250
370
    18
100
AcDbSpline
210
0.0
220
0.0
230
1.0
 70
    11
 71
     3
 72
    36
 73
    32
 74
     0
 42
0.000000001
 43
0.0000000001
 40
0.0
 40
0.0
 40
0.0
 40
0.0
 40
0.1111111111111111
 40
0.1111111111111111
 40
0.1111111111111111
 40
0.1111111111111111
 40
0.2222222222222222
 40
0.2222222222222222
 40
0.2222222222222222
 40
0.2222222222222222
 40
0.3333333333333333
 40
0.3333333333333333
 40
0.3333333333333333
 40
0.3333333333333333
 40
0.4444444444444444
 40
0.4444444444444444
 40
0.4444444444444444
 40
0.4444444444444444
 40
0.5555555555555556
 40
0.5555555555555556
 40
0.5555555555555556
 40
0.5555555555555556
 40
0.6666666666666666
 40
0.6666666666666666
 40
0.6666666666666666
 40
0.6666666666666666
 40
0.7777777777777778
 40
0.7777777777777778
 40
0.7777777777777778
 40
0.7777777777777778
 40
1.0
 40
1.0
 40
1.0
 40
1.0
 10
3.350429133858268
 20
1.259933070866142
 30
0.0
 10
3.356322834645669
 20
1.285929133858268
 30
0.0
 10
3.366023622047244
 20
1.310885826771653
 30
0.0
 10
3.39305905511811
 20
1.325098425196851
 30
0.0
 10
3.39305905511811
 20
1.325098425196851
 30
0.0
 10
3.420094488188977
 20
1.339307086614173
 30
0.0
 10
3.46446062992126
 20
1.342771653543307
 30
0.0
 10
3.485948818897638
 20
1.340346456692913
 30
0.0
 10
3.485948818897638
 20
1.340346456692913
 30
0.0
 10
3.507437007874016
 20
1.33792125984252
 30
0.0
 10
3.506051181102362
 20
1.329602362204724
 30
0.0
 10
3.49496062992126
 20
1.325094488188976
 30
0.0
 10
3.49496062992126
 20
1.325094488188976
 30
0.0
 10
3.483870078740158
 20
1.320590551181102
 30
0.0
 10
3.463070866141732
 20
1.319897637795276
 30
0.0
 10
3.442275590551181
 20
1.30742125984252
 30
0.0
 10
3.442275590551181
 20
1.30742125984252
 30
0.0
 10
3.421066929133858
 20
1.294692913385827
 30
0.0
 10
3.359610236220473
 20
1.233003937007874
 30
0.0
 10
3.384393700787402
 20
1.215913385826772
 30
0.0
 10
3.384393700787402
 20
1.215913385826772
 30
0.0
 10
3.394448818897638
 20
1.208984251968504
 30
0.0
 10
3.417322834645669
 20
1.20690157480315
 30
0.0
 10
3.424602362204725
 20
1.202397637795276
 30
0.0
 10
3.424602362204725
 20
1.202397637795276
 30
0.0
 10
3.441177165354331
 20
1.19213779527559
 30
0.0
 10
3.373807086614173
 20
1.171755905511811
 30
0.0
 10
3.353893700787402
 20
1.19407874015748
 30
0.0
 10
3.353893700787402
 20
1.19407874015748
 30
0.0
 10
3.342456692913386
 20
1.206905511811024
 30
0.0
 10
3.344535433070866
 20
1.23394094488189
 30
0.0
 10
3.350429133858268
 20
1.259933070866142
 30
0.0
  0
ENDSEC
  0
SECTION
  2
OBJECTS
  0
DICTIONARY
  5
C
330
0
100
AcDbDictionary
281
     1
  3
ACAD_DETAILVIEWSTYLE
350
CC
  3
ACAD_GROUP
350
D
  3
ACAD_LAYOUT
350
1A
  3
ACAD_MATERIAL
350
43
  3
ACAD_MLEADERSTYLE
350
6B
  3
ACAD_MLINESTYLE
350
17
  3
ACAD_PLOTSETTINGS
350
19
  3
ACAD_PLOTSTYLENAME
350
E
  3
ACAD_SCALELIST
350
47
  3
ACAD_SECTIONVIEWSTYLE
350
CD
  3
ACAD_TABLESTYLE
350
69
  3
ACAD_VISUALSTYLE
350
2A
  3
ACDB_RECOMPOSE_DATA
350
C9
  3
AcDbVariableDictionary
350
91
  0
SUN
  5
6D
330
29
100
AcDbSun
 90
        1
290
     0
 63
     7
421
 16777215
 40
1.0
291
     1
 91
  2455826
 92
 54000000
292
     0
 70
     2
 71
   256
280
     1
  0
DICTIONARY
  5
CC
102
{ACAD_REACTORS
330
C
102
}
330
C
100
AcDbDictionary
281
     1
  0
DICTIONARY
  5
D
102
{ACAD_REACTORS
330
C
102
}
330
C
100
AcDbDictionary
281
     1
  0
DICTIONARY
  5
1A
102
{ACAD_REACTORS
330
C
102
}
330
C
100
AcDbDictionary
281
     1
  3
Layout1
350
1E
  3
Layout2
350
26
  3
Model
350
22
  0
DICTIONARY
  5
43
102
{ACAD_REACTORS
330
C
102
}
330
C
100
AcDbDictionary
281
     1
  3
ByBlock
350
45
  3
ByLayer
350
44
  3
Global
350
46
  0
DICTIONARY
  5
6B
102
{ACAD_REACTORS
330
C
102
}
330
C
100
AcDbDictionary
281
     1
  3
Standard
350
6C
  0
DICTIONARY
  5
17
102
{ACAD_REACTORS
330
C
102
}
330
C
100
AcDbDictionary
281
     1
  3
Standard
350
18
  0
DICTIONARY
  5
19
102
{ACAD_REACTORS
330
C
102
}
330
C
100
AcDbDictionary
281
     1
  0
ACDBDICTIONARYWDFLT
  5
E
102
{ACAD_REACTORS
330
C
102
}
330
C
100
AcDbDictionary
281
     1
  3
Normal
350
F
100
AcDbDictionaryWithDefault
340
F
  0
DICTIONARY
  5
47
102
{ACAD_REACTORS
330
C
102
}
330
C
100
AcDbDictionary
281
     1
  3
A0
350
48
  3
A1
350
49
  3
A2
350
4A
  3
A3
350
4B
  3
A4
350
4C
  3
A5
350
4D
  3
A6
350
4E
  3
A7
350
4F
  3
A8
350
50
  3
A9
350
51
  3
B0
350
52
  3
B1
350
53
  3
B2
350
54
  3
B3
350
55
  3
B4
350
56
  3
B5
350
57
  3
B6
350
58
  3
B7
350
59
  3
B8
350
5A
  3
B9
350
5B
  3
C0
350
5C
  3
C1
350
5D
  3
C2
350
5E
  3
C3
350
5F
  3
C4
350
60
  3
C5
350
61
  3
C6
350
62
  3
C7
350
63
  3
C8
350
64
  3
C9
350
65
  3
D0
350
66
  3
D1
350
67
  3
D2
350
68
  0
DICTIONARY
  5
CD
102
{ACAD_REACTORS
330
C
102
}
330
C
100
AcDbDictionary
281
     1
  0
DICTIONARY
  5
69
102
{ACAD_REACTORS
330
C
102
}
330
C
100
AcDbDictionary
281
     1
  3
Standard
350
6A
  0
DICTIONARY
  5
2A
102
{ACAD_REACTORS
330
C
102
}
330
C
100
AcDbDictionary
281
     1
  3
2dWireframe
350
2F
  3
Basic
350
32
  3
Brighten
350
36
  3
ColorChange
350
3A
  3
Conceptual
350
34
  3
Dim
350
35
  3
EdgeColorOff
350
3D
  3
Facepattern
350
39
  3
Flat
350
2B
  3
FlatWithEdges
350
2C
  3
Gouraud
350
2D
  3
GouraudWithEdges
350
2E
  3
Hidden
350
31
  3
JitterOff
350
3B
  3
Linepattern
350
38
  3
OverhangOff
350
3C
  3
Realistic
350
33
  3
Shaded
350
42
  3
Shaded with edges
350
41
  3
Shades of Gray
350
3E
  3
Sketchy
350
3F
  3
Thicken
350
37
  3
Wireframe
350
30
  3
X-Ray
350
40
  0
XRECORD
  5
C9
102
{ACAD_REACTORS
330
C
102
}
330
C
100
AcDbXrecord
280
     1
 90
        1
330
6A
  0
DICTIONARY
  5
91
102
{ACAD_REACTORS
330
C
102
}
330
C
100
AcDbDictionary
281
     1
  3
CANNOSCALE
350
92
  3
CMLEADERSTYLE
350
CB
  3
CTABLESTYLE
350
CA
  3
XCLIPFRAME
350
93
  0
LAYOUT
  5
1E
102
{ACAD_REACTORS
330
1A
102
}
330
1A
100
AcDbPlotSettings
  1

  2
none_device
  4

  6

 40
0.0
 41
0.0
 42
0.0
 43
0.0
 44
0.0
 45
0.0
 46
0.0
 47
0.0
 48
0.0
 49
0.0
140
0.0
141
0.0
142
1.0
143
1.0
 70
   688
 72
     0
 73
     0
 74
     5
  7

 75
    16
 76
     0
 77
     2
 78
   300
147
1.0
148
0.0
149
0.0
100
AcDbLayout
  1
Layout1
 70
     1
 71
     1
 10
0.0
 20
0.0
 11
12.0
 21
9.0
 12
0.0
 22
0.0
 32
0.0
 14
1.000000000000000E+20
 24
1.000000000000000E+20
 34
1.000000000000000E+20
 15
-1.000000000000000E+20
 25
-1.000000000000000E+20
 35
-1.000000000000000E+20
146
0.0
 13
0.0
 23
0.0
 33
0.0
 16
1.0
 26
0.0
 36
0.0
 17
0.0
 27
1.0
 37
0.0
 76
     0
330
1B
  0
LAYOUT
  5
26
102
{ACAD_REACTORS
330
1A
102
}
330
1A
100
AcDbPlotSettings
  1

  2
none_device
  4

  6

 40
0.0
 41
0.0
 42
0.0
 43
0.0
 44
0.0
 45
0.0
 46
0.0
 47
0.0
 48
0.0
 49
0.0
140
0.0
141
0.0
142
1.0
143
1.0
 70
   688
 72
     0
 73
     0
 74
     5
  7

 75
    16
 76
     0
 77
     2
 78
   300
147
1.0
148
0.0
149
0.0
100
AcDbLayout
  1
Layout2
 70
     1
 71
     2
 10
0.0
 20
0.0
 11
0.0
 21
0.0
 12
0.0
 22
0.0
 32
0.0
 14
0.0
 24
0.0
 34
0.0
 15
0.0
 25
0.0
 35
0.0
146
0.0
 13
0.0
 23
0.0
 33
0.0
 16
1.0
 26
0.0
 36
0.0
 17
0.0
 27
1.0
 37
0.0
 76
     0
330
23
  0
LAYOUT
  5
22
102
{ACAD_REACTORS
330
1A
102
}
330
1A
100
AcDbPlotSettings
  1

  2
none_device
  4
Letter_(8.50_x_11.00_Inches)
  6

 40
6.35
 41
6.35
 42
6.35000508
 43
6.35000508
 44
215.9
 45
279.4
 46
0.0
 47
0.0
 48
0.0
 49
0.0
140
0.0
141
0.0
142
1.0
143
1.0
 70
  1712
 72
     0
 73
     0
 74
     0
  7

 75
     0
 76
     0
 77
     2
 78
   300
147
1.0
148
0.0
149
0.0
100
AcDbLayout
  1
Model
 70
     1
 71
     0
 10
0.0
 20
0.0
 11
12.0
 21
9.0
 12
0.0
 22
0.0
 32
0.0
 14
-4.892984251968504
 24
-3.329220472440945
 34
0.0
 15
4.892992125984252
 25
3.329212598425197
 35
0.0
146
0.0
 13
0.0
 23
0.0
 33
0.0
 16
1.0
 26
0.0
 36
0.0
 17
0.0
 27
1.0
 37
0.0
 76
     0
330
1F
331
29
  0
MATERIAL
  5
45
102
{ACAD_REACTORS
330
43
102
}
330
43
100
AcDbMaterial
  1
ByBlock
 72
     1
 94
      127
  0
MATERIAL
  5
44
102
{ACAD_REACTORS
330
43
102
}
330
43
100
AcDbMaterial
  1
ByLayer
 72
     1
 94
      127
  0
MATERIAL
  5
46
102
{ACAD_REACTORS
330
43
102
}
330
43
100
AcDbMaterial
  1
Global
 72
     1
 94
      127
  0
MLEADERSTYLE
  5
6C
102
{ACAD_REACTORS
330
6B
102
}
102
{ACAD_XDICTIONARY
360
C7
102
}
330
6B
100
AcDbMLeaderStyle
170
     2
171
     1
172
     0
 90
        2
 40
0.0
 41
0.0
173
     1
 91
-1056964608
340
14
 92
       -2
290
     1
 42
0.09
291
     1
 43
0.36
  3
Standard
341
0
 44
0.18
300

342
11
174
     1
178
     6
175
     1
176
     0
 93
-1056964608
 45
0.18
292
     0
297
     0
 46
0.18
343
0
 94
-1056964608
 47
1.0
 49
1.0
140
1.0
293
     1
141
0.0
294
     1
177
     0
142
1.0
295
     0
296
     0
143
0.125
1001
ACAD_MLEADERVER
1070
     2
  0
MLINESTYLE
  5
18
102
{ACAD_REACTORS
330
17
102
}
330
17
100
AcDbMlineStyle
  2
Standard
 70
     0
  3

 62
   256
 51
90.0
 52
90.0
 71
     2
 49
0.5
 62
   256
  6
BYLAYER
 49
-0.5
 62
   256
  6
BYLAYER
  0
ACDBPLACEHOLDER
  5
F
102
{ACAD_REACTORS
330
E
102
}
330
E
  0
SCALE
  5
48
102
{ACAD_REACTORS
330
47
102
}
330
47
100
AcDbScale
 70
     0
300
1:1
140
1.0
141
1.0
290
     1
  0
SCALE
  5
49
102
{ACAD_REACTORS
330
47
102
}
330
47
100
AcDbScale
 70
     0
300
1:2
140
1.0
141
2.0
290
     0
  0
SCALE
  5
4A
102
{ACAD_REACTORS
330
47
102
}
330
47
100
AcDbScale
 70
     0
300
1:4
140
1.0
141
4.0
290
     0
  0
SCALE
  5
4B
102
{ACAD_REACTORS
330
47
102
}
330
47
100
AcDbScale
 70
     0
300
1:5
140
1.0
141
5.0
290
     0
  0
SCALE
  5
4C
102
{ACAD_REACTORS
330
47
102
}
330
47
100
AcDbScale
 70
     0
300
1:8
140
1.0
141
8.0
290
     0
  0
SCALE
  5
4D
102
{ACAD_REACTORS
330
47
102
}
330
47
100
AcDbScale
 70
     0
300
1:10
140
1.0
141
10.0
290
     0
  0
SCALE
  5
4E
102
{ACAD_REACTORS
330
47
102
}
330
47
100
AcDbScale
 70
     0
300
1:16
140
1.0
141
16.0
290
     0
  0
SCALE
  5
4F
102
{ACAD_REACTORS
330
47
102
}
330
47
100
AcDbScale
 70
     0
300
1:20
140
1.0
141
20.0
290
     0
  0
SCALE
  5
50
102
{ACAD_REACTORS
330
47
102
}
330
47
100
AcDbScale
 70
     0
300
1:30
140
1.0
141
30.0
290
     0
  0
SCALE
  5
51
102
{ACAD_REACTORS
330
47
102
}
330
47
100
AcDbScale
 70
     0
300
1:40
140
1.0
141
40.0
290
     0
  0
SCALE
  5
52
102
{ACAD_REACTORS
330
47
102
}
330
47
100
AcDbScale
 70
     0
300
1:50
140
1.0
141
50.0
290
     0
  0
SCALE
  5
53
102
{ACAD_REACTORS
330
47
102
}
330
47
100
AcDbScale
 70
     0
300
1:100
140
1.0
141
100.0
290
     0
  0
SCALE
  5
54
102
{ACAD_REACTORS
330
47
102
}
330
47
100
AcDbScale
 70
     0
300
2:1
140
2.0
141
1.0
290
     0
  0
SCALE
  5
55
102
{ACAD_REACTORS
330
47
102
}
330
47
100
AcDbScale
 70
     0
300
4:1
140
4.0
141
1.0
290
     0
  0
SCALE
  5
56
102
{ACAD_REACTORS
330
47
102
}
330
47
100
AcDbScale
 70
     0
300
8:1
140
8.0
141
1.0
290
     0
  0
SCALE
  5
57
102
{ACAD_REACTORS
330
47
102
}
330
47
100
AcDbScale
 70
     0
300
10:1
140
10.0
141
1.0
290
     0
  0
SCALE
  5
58
102
{ACAD_REACTORS
330
47
102
}
330
47
100
AcDbScale
 70
     0
300
100:1
140
100.0
141
1.0
290
     0
  0
SCALE
  5
59
102
{ACAD_REACTORS
330
47
102
}
330
47
100
AcDbScale
 70
     0
300
1/128" = 1'-0"
140
0.0078125
141
12.0
290
     0
  0
SCALE
  5
5A
102
{ACAD_REACTORS
330
47
102
}
330
47
100
AcDbScale
 70
     0
300
1/64" = 1'-0"
140
0.015625
141
12.0
290
     0
  0
SCALE
  5
5B
102
{ACAD_REACTORS
330
47
102
}
330
47
100
AcDbScale
 70
     0
300
1/32" = 1'-0"
140
0.03125
141
12.0
290
     0
  0
SCALE
  5
5C
102
{ACAD_REACTORS
330
47
102
}
330
47
100
AcDbScale
 70
     0
300
1/16" = 1'-0"
140
0.0625
141
12.0
290
     0
  0
SCALE
  5
5D
102
{ACAD_REACTORS
330
47
102
}
330
47
100
AcDbScale
 70
     0
300
3/32" = 1'-0"
140
0.09375
141
12.0
290
     0
  0
SCALE
  5
5E
102
{ACAD_REACTORS
330
47
102
}
330
47
100
AcDbScale
 70
     0
300
1/8" = 1'-0"
140
0.125
141
12.0
290
     0
  0
SCALE
  5
5F
102
{ACAD_REACTORS
330
47
102
}
330
47
100
AcDbScale
 70
     0
300
3/16" = 1'-0"
140
0.1875
141
12.0
290
     0
  0
SCALE
  5
60
102
{ACAD_REACTORS
330
47
102
}
330
47
100
AcDbScale
 70
     0
300
1/4" = 1'-0"
140
0.25
141
12.0
290
     0
  0
SCALE
  5
61
102
{ACAD_REACTORS
330
47
102
}
330
47
100
AcDbScale
 70
     0
300
3/8" = 1'-0"
140
0.375
141
12.0
290
     0
  0
SCALE
  5
62
102
{ACAD_REACTORS
330
47
102
}
330
47
100
AcDbScale
 70
     0
300
1/2" = 1'-0"
140
0.5
141
12.0
290
     0
  0
SCALE
  5
63
102
{ACAD_REACTORS
330
47
102
}
330
47
100
AcDbScale
 70
     0
300
3/4" = 1'-0"
140
0.75
141
12.0
290
     0
  0
SCALE
  5
64
102
{ACAD_REACTORS
330
47
102
}
330
47
100
AcDbScale
 70
     0
300
1" = 1'-0"
140
1.0
141
12.0
290
     0
  0
SCALE
  5
65
102
{ACAD_REACTORS
330
47
102
}
330
47
100
AcDbScale
 70
     0
300
1-1/2" = 1'-0"
140
1.5
141
12.0
290
     0
  0
SCALE
  5
66
102
{ACAD_REACTORS
330
47
102
}
330
47
100
AcDbScale
 70
     0
300
3" = 1'-0"
140
3.0
141
12.0
290
     0
  0
SCALE
  5
67
102
{ACAD_REACTORS
330
47
102
}
330
47
100
AcDbScale
 70
     0
300
6" = 1'-0"
140
6.0
141
12.0
290
     0
  0
SCALE
  5
68
102
{ACAD_REACTORS
330
47
102
}
330
47
100
AcDbScale
 70
     0
300
1'-0" = 1'-0"
140
12.0
141
12.0
290
     0
  0
TABLESTYLE
  5
6A
102
{ACAD_REACTORS
330
69
102
}
102
{ACAD_XDICTIONARY
360
C4
102
}
330
69
100
AcDbTableStyle
  3
Standard
 70
     0
 71
     0
 40
0.06
 41
0.06
280
     0
281
     0
  7
Standard
140
0.18
170
     2
 62
     0
 63
   257
283
     0
 90
        4
 91
        0
  1

274
    -2
284
     1
 64
     0
275
    -2
285
     1
 65
     0
276
    -2
286
     1
 66
     0
277
    -2
287
     1
 67
     0
278
    -2
288
     1
 68
     0
279
    -2
289
     1
 69
     0
  7
Standard
140
0.25
170
     5
 62
     0
 63
   257
283
     0
 90
        4
 91
        0
  1

274
    -2
284
     1
 64
     0
275
    -2
285
     1
 65
     0
276
    -2
286
     1
 66
     0
277
    -2
287
     1
 67
     0
278
    -2
288
     1
 68
     0
279
    -2
289
     1
 69
     0
  7
Standard
140
0.18
170
     5
 62
     0
 63
   257
283
     0
 90
        4
 91
        0
  1

274
    -2
284
     1
 64
     0
275
    -2
285
     1
 65
     0
276
    -2
286
     1
 66
     0
277
    -2
287
     1
 67
     0
278
    -2
288
     1
 68
     0
279
    -2
289
     1
 69
     0
  0
VISUALSTYLE
  5
2F
102
{ACAD_REACTORS
330
2A
102
}
102
{ACAD_XDICTIONARY
360
9C
102
}
330
2A
100
AcDbVisualStyle
  2
2dWireframe
 70
     4
 71
     0
 72
     2
 73
     0
 90
        0
 40
0.6
 41
30.0
 62
     5
 63
     7
421
 16777215
 74
     1
 91
        4
 64
     7
 65
   257
 75
     1
175
     1
 42
1.0
 92
        0
 66
   257
 43
1.0
 76
     1
 77
     6
 78
     2
 67
     7
 79
     5
170
     0
171
     0
290
     0
174
     0
 93
        1
 44
0.0
173
     0
291
     0
 45
0.0
  0
VISUALSTYLE
  5
32
102
{ACAD_REACTORS
330
2A
102
}
102
{ACAD_XDICTIONARY
360
A2
102
}
330
2A
100
AcDbVisualStyle
  2
Basic
 70
     7
 71
     1
 72
     0
 73
     1
 90
        0
 40
0.6
 41
30.0
 62
     5
 63
     7
421
 16777215
 74
     0
 91
        4
 64
     7
 65
   257
 75
     1
175
     1
 42
1.0
 92
        8
 66
     7
 43
1.0
 76
     1
 77
     6
 78
     2
 67
     7
 79
     5
170
     0
171
     0
290
     0
174
     0
 93
        1
 44
0.0
173
     0
291
     1
 45
0.0
  0
VISUALSTYLE
  5
36
102
{ACAD_REACTORS
330
2A
102
}
102
{ACAD_XDICTIONARY
360
AA
102
}
330
2A
100
AcDbVisualStyle
  2
Brighten
 70
    12
 71
     2
 72
     2
 73
     0
 90
        0
 40
0.6
 41
30.0
 62
     5
 63
     7
421
 16777215
 74
     1
 91
        4
 64
     7
 65
   257
 75
     1
175
     1
 42
1.0
 92
        8
 66
     7
 43
1.0
 76
     1
 77
     6
 78
     2
 67
     7
 79
     5
170
     0
171
     0
290
     0
174
     0
 93
        1
 44
50.0
173
     0
291
     1
 45
0.0
  0
VISUALSTYLE
  5
3A
102
{ACAD_REACTORS
330
2A
102
}
102
{ACAD_XDICTIONARY
360
B2
102
}
330
2A
100
AcDbVisualStyle
  2
ColorChange
 70
    16
 71
     2
 72
     2
 73
     3
 90
        0
 40
0.6
 41
30.0
 62
     5
 63
     8
421
  8421504
 74
     1
 91
        4
 64
     7
 65
   257
 75
     1
175
     1
 42
1.0
 92
        8
 66
     8
424
  8421504
 43
1.0
 76
     1
 77
     6
 78
     2
 67
     7
 79
     5
170
     0
171
     0
290
     0
174
     0
 93
        1
 44
0.0
173
     0
291
     1
 45
0.0
  0
VISUALSTYLE
  5
34
102
{ACAD_REACTORS
330
2A
102
}
102
{ACAD_XDICTIONARY
360
A6
102
}
330
2A
100
AcDbVisualStyle
  2
Conceptual
 70
     9
 71
     3
 72
     2
 73
     0
 90
        0
 40
0.6
 41
30.0
 62
     5
 63
     7
421
 16777215
 74
     2
 91
        2
 64
     7
 65
   257
 75
     1
175
     1
 42
179.0
 92
        8
 66
     7
 43
1.0
 76
     1
 77
     6
 78
     2
 67
     7
 79
     3
170
     0
171
     0
290
     0
174
     0
 93
        1
 44
0.0
173
     0
291
     0
 45
0.0
  0
VISUALSTYLE
  5
35
102
{ACAD_REACTORS
330
2A
102
}
102
{ACAD_XDICTIONARY
360
A8
102
}
330
2A
100
AcDbVisualStyle
  2
Dim
 70
    11
 71
     2
 72
     2
 73
     0
 90
        0
 40
0.6
 41
30.0
 62
     5
 63
     7
421
 16777215
 74
     1
 91
        4
 64
     7
 65
   257
 75
     1
175
     1
 42
1.0
 92
        8
 66
     7
 43
1.0
 76
     1
 77
     6
 78
     2
 67
     7
 79
     5
170
     0
171
     0
290
     0
174
     0
 93
        1
 44
-50.0
173
     0
291
     1
 45
0.0
  0
VISUALSTYLE
  5
3D
102
{ACAD_REACTORS
330
2A
102
}
102
{ACAD_XDICTIONARY
360
B8
102
}
330
2A
100
AcDbVisualStyle
  2
EdgeColorOff
 70
    22
 71
     2
 72
     2
 73
     0
 90
        0
 40
0.6
 41
30.0
 62
     5
 63
     7
421
 16777215
 74
     1
 91
        4
 64
     7
 65
   257
 75
     1
175
     1
 42
1.0
 92
        8
 66
     7
 43
1.0
 76
     1
 77
     6
 78
     2
 67
     7
 79
     5
170
     0
171
     0
290
     0
174
     0
 93
        1
 44
0.0
173
     0
291
     1
 45
0.0
  0
VISUALSTYLE
  5
39
102
{ACAD_REACTORS
330
2A
102
}
102
{ACAD_XDICTIONARY
360
B0
102
}
330
2A
100
AcDbVisualStyle
  2
Facepattern
 70
    15
 71
     2
 72
     2
 73
     0
 90
        0
 40
0.6
 41
30.0
 62
     5
 63
     7
421
 16777215
 74
     1
 91
        4
 64
     7
 65
   257
 75
     1
175
     1
 42
1.0
 92
        8
 66
     7
 43
1.0
 76
     1
 77
     6
 78
     2
 67
     7
 79
     5
170
     0
171
     0
290
     0
174
     0
 93
        1
 44
0.0
173
     0
291
     1
 45
0.0
  0
VISUALSTYLE
  5
2B
102
{ACAD_REACTORS
330
2A
102
}
102
{ACAD_XDICTIONARY
360
94
102
}
330
2A
100
AcDbVisualStyle
  2
Flat
 70
     0
 71
     2
 72
     1
 73
     1
 90
        2
 40
0.6
 41
30.0
 62
     5
 63
     7
421
 16777215
 74
     0
 91
        0
 64
     7
 65
   257
 75
     1
175
     1
 42
1.0
 92
        8
 66
     7
 43
1.0
 76
     1
 77
     6
 78
     2
 67
     7
 79
     5
170
     0
171
     0
290
     0
174
     0
 93
       13
 44
0.0
173
     0
291
     1
 45
0.0
  0
VISUALSTYLE
  5
2C
102
{ACAD_REACTORS
330
2A
102
}
102
{ACAD_XDICTIONARY
360
96
102
}
330
2A
100
AcDbVisualStyle
  2
FlatWithEdges
 70
     1
 71
     2
 72
     1
 73
     1
 90
        2
 40
0.6
 41
30.0
 62
     5
 63
     7
421
 16777215
 74
     1
 91
        0
 64
     7
 65
   257
 75
     1
175
     1
 42
1.0
 92
        0
 66
   257
 43
1.0
 76
     1
 77
     6
 78
     2
 67
     7
 79
     5
170
     0
171
     0
290
     0
174
     0
 93
       13
 44
0.0
173
     0
291
     1
 45
0.0
  0
VISUALSTYLE
  5
2D
102
{ACAD_REACTORS
330
2A
102
}
102
{ACAD_XDICTIONARY
360
98
102
}
330
2A
100
AcDbVisualStyle
  2
Gouraud
 70
     2
 71
     2
 72
     2
 73
     1
 90
        2
 40
0.6
 41
30.0
 62
     5
 63
     7
421
 16777215
 74
     0
 91
        0
 64
     7
 65
   257
 75
     1
175
     1
 42
1.0
 92
        0
 66
     7
 43
1.0
 76
     1
 77
     6
 78
     2
 67
     7
 79
     5
170
     0
171
     0
290
     0
174
     0
 93
       13
 44
0.0
173
     0
291
     1
 45
0.0
  0
VISUALSTYLE
  5
2E
102
{ACAD_REACTORS
330
2A
102
}
102
{ACAD_XDICTIONARY
360
9A
102
}
330
2A
100
AcDbVisualStyle
  2
GouraudWithEdges
 70
     3
 71
     2
 72
     2
 73
     1
 90
        2
 40
0.6
 41
30.0
 62
     5
 63
     7
421
 16777215
 74
     1
 91
        0
 64
     7
 65
   257
 75
     1
175
     1
 42
1.0
 92
        0
 66
   257
 43
1.0
 76
     1
 77
     6
 78
     2
 67
     7
 79
     5
170
     0
171
     0
290
     0
174
     0
 93
       13
 44
0.0
173
     0
291
     1
 45
0.0
  0
VISUALSTYLE
  5
31
102
{ACAD_REACTORS
330
2A
102
}
102
{ACAD_XDICTIONARY
360
A0
102
}
330
2A
100
AcDbVisualStyle
  2
Hidden
 70
     6
 71
     1
 72
     2
 73
     2
 90
        0
 40
0.6
 41
30.0
 62
     5
 63
     7
421
 16777215
 74
     2
 91
        2
 64
     7
 65
   257
 75
     2
175
     1
 42
40.0
 92
        0
 66
   257
 43
1.0
 76
     1
 77
     6
 78
     2
 67
     7
 79
     3
170
     0
171
     0
290
     0
174
     0
 93
        1
 44
0.0
173
     0
291
     0
 45
0.0
  0
VISUALSTYLE
  5
3B
102
{ACAD_REACTORS
330
2A
102
}
102
{ACAD_XDICTIONARY
360
B4
102
}
330
2A
100
AcDbVisualStyle
  2
JitterOff
 70
    20
 71
     2
 72
     2
 73
     0
 90
        0
 40
0.6
 41
30.0
 62
     5
 63
     7
421
 16777215
 74
     1
 91
        4
 64
     7
 65
   257
 75
     1
175
     1
 42
1.0
 92
       10
 66
     7
 43
1.0
 76
     1
 77
     6
 78
     2
 67
     7
 79
     5
170
     0
171
     0
290
     0
174
     0
 93
        1
 44
0.0
173
     0
291
     1
 45
0.0
  0
VISUALSTYLE
  5
38
102
{ACAD_REACTORS
330
2A
102
}
102
{ACAD_XDICTIONARY
360
AE
102
}
330
2A
100
AcDbVisualStyle
  2
Linepattern
 70
    14
 71
     2
 72
     2
 73
     0
 90
        0
 40
0.6
 41
30.0
 62
     5
 63
     7
421
 16777215
 74
     1
 91
        4
 64
     7
 65
   257
 75
     7
175
     7
 42
1.0
 92
        8
 66
     7
 43
1.0
 76
     1
 77
     6
 78
     2
 67
     7
 79
     5
170
     0
171
     0
290
     0
174
     0
 93
        1
 44
0.0
173
     0
291
     1
 45
0.0
  0
VISUALSTYLE
  5
3C
102
{ACAD_REACTORS
330
2A
102
}
102
{ACAD_XDICTIONARY
360
B6
102
}
330
2A
100
AcDbVisualStyle
  2
OverhangOff
 70
    21
 71
     2
 72
     2
 73
     0
 90
        0
 40
0.6
 41
30.0
 62
     5
 63
     7
421
 16777215
 74
     1
 91
        4
 64
     7
 65
   257
 75
     1
175
     1
 42
1.0
 92
        9
 66
     7
 43
1.0
 76
     1
 77
     6
 78
     2
 67
     7
 79
     5
170
     0
171
     0
290
     0
174
     0
 93
        1
 44
0.0
173
     0
291
     1
 45
0.0
  0
VISUALSTYLE
  5
33
102
{ACAD_REACTORS
330
2A
102
}
102
{ACAD_XDICTIONARY
360
A4
102
}
330
2A
100
AcDbVisualStyle
  2
Realistic
 70
     8
 71
     2
 72
     3
 73
     0
 90
        2
 40
0.6
 41
30.0
 62
     5
 63
     7
421
 16777215
 74
     0
 91
        0
 64
     7
 65
   257
 75
     1
175
     1
 42
1.0
 92
        8
 66
   257
 43
1.0
 76
     1
 77
     6
 78
     2
 67
     7
 79
     3
170
     0
171
     0
290
     0
174
     0
 93
       13
 44
0.0
173
     0
291
     0
 45
0.0
  0
VISUALSTYLE
  5
42
102
{ACAD_REACTORS
330
2A
102
}
102
{ACAD_XDICTIONARY
360
C2
102
}
330
2A
100
AcDbVisualStyle
  2
Shaded
 70
    27
 71
     2
 72
     2
 73
     1
 90
        2
 40
0.6
 41
30.0
 62
     5
 63
     7
421
 16777215
 74
     0
 91
        4
 64
     7
 65
   257
 75
     1
175
     1
 42
1.0
 92
        8
 66
   257
 43
1.0
 76
     1
 77
     6
 78
     2
 67
     8
425
  7895160
 79
     3
170
     0
171
     0
290
     0
174
     0
 93
        5
 44
0.0
173
     0
291
     0
 45
0.0
  0
VISUALSTYLE
  5
41
102
{ACAD_REACTORS
330
2A
102
}
102
{ACAD_XDICTIONARY
360
C0
102
}
330
2A
100
AcDbVisualStyle
  2
Shaded with edges
 70
    26
 71
     2
 72
     2
 73
     1
 90
        2
 40
0.6
 41
30.0
 62
     5
 63
     7
421
 16777215
 74
     1
 91
       10
 64
     7
 65
   257
 75
     2
175
     1
 42
1.0
 92
        8
 66
   257
 43
1.0
 76
     1
 77
     6
 78
     2
 67
     7
 79
     3
170
     0
171
     0
290
     0
174
     0
 93
        5
 44
0.0
173
     0
291
     0
 45
0.0
  0
VISUALSTYLE
  5
3E
102
{ACAD_REACTORS
330
2A
102
}
102
{ACAD_XDICTIONARY
360
BA
102
}
330
2A
100
AcDbVisualStyle
  2
Shades of Gray
 70
    23
 71
     2
 72
     2
 73
     3
 90
        0
 40
0.6
 41
30.0
 62
     5
 63
     7
421
 16777215
 74
     2
 91
        2
 64
     7
 65
     7
 75
     1
175
     1
 42
40.0
 92
        8
 66
     7
 43
1.0
 76
     1
 77
     6
 78
     2
 67
     7
 79
     3
170
     0
171
     0
290
     0
174
     0
 93
        1
 44
0.0
173
     0
291
     0
 45
0.0
  0
VISUALSTYLE
  5
3F
102
{ACAD_REACTORS
330
2A
102
}
102
{ACAD_XDICTIONARY
360
BC
102
}
330
2A
100
AcDbVisualStyle
  2
Sketchy
 70
    24
 71
     1
 72
     2
 73
     2
 90
        0
 40
0.6
 41
30.0
 62
     5
 63
     7
421
 16777215
 74
     2
 91
        2
 64
     7
 65
     7
 75
     1
175
     1
 42
40.0
 92
       11
 66
     7
 43
1.0
 76
     1
 77
     6
 78
     2
 67
     7
 79
     6
170
     0
171
     0
290
     0
174
     0
 93
        1
 44
0.0
173
     0
291
     0
 45
0.0
  0
VISUALSTYLE
  5
37
102
{ACAD_REACTORS
330
2A
102
}
102
{ACAD_XDICTIONARY
360
AC
102
}
330
2A
100
AcDbVisualStyle
  2
Thicken
 70
    13
 71
     2
 72
     2
 73
     0
 90
        0
 40
0.6
 41
30.0
 62
     5
 63
     7
421
 16777215
 74
     1
 91
        4
 64
     7
 65
   257
 75
     1
175
     1
 42
1.0
 92
       12
 66
     7
 43
1.0
 76
     1
 77
     6
 78
     2
 67
     7
 79
     5
170
     0
171
     0
290
     0
174
     0
 93
        1
 44
0.0
173
     0
291
     1
 45
0.0
  0
VISUALSTYLE
  5
30
102
{ACAD_REACTORS
330
2A
102
}
102
{ACAD_XDICTIONARY
360
9E
102
}
330
2A
100
AcDbVisualStyle
  2
Wireframe
 70
     5
 71
     0
 72
     2
 73
     0
 90
        0
 40
0.6
 41
30.0
 62
     5
 63
     7
421
 16777215
 74
     1
 91
        4
 64
     7
 65
   257
 75
     1
175
     1
 42
1.0
 92
        0
 66
   257
 43
1.0
 76
     1
 77
     6
 78
     2
 67
     7
 79
     3
170
     0
171
     0
290
     0
174
     0
 93
        1
 44
0.0
173
     0
291
     0
 45
0.0
  0
VISUALSTYLE
  5
40
102
{ACAD_REACTORS
330
2A
102
}
102
{ACAD_XDICTIONARY
360
BE
102
}
330
2A
100
AcDbVisualStyle
  2
X-Ray
 70
    25
 71
     2
 72
     2
 73
     1
 90
        1
 40
0.5
 41
30.0
 62
     5
 63
     7
421
 16777215
 74
     1
 91
        0
 64
     7
 65
   257
 75
     1
175
     1
 42
1.0
 92
        8
 66
     7
 43
1.0
 76
     1
 77
     6
 78
     2
 67
     7
 79
     3
170
     0
171
     0
290
     0
174
     0
 93
       13
 44
0.0
173
     0
291
     0
 45
0.0
  0
DICTIONARYVAR
  5
92
102
{ACAD_REACTORS
330
91
102
}
330
91
100
DictionaryVariables
280
     0
  1
1:1
  0
DICTIONARYVAR
  5
CB
102
{ACAD_REACTORS
330
91
102
}
330
91
100
DictionaryVariables
280
     0
  1
Standard
  0
DICTIONARYVAR
  5
CA
102
{ACAD_REACTORS
330
91
102
}
330
91
100
DictionaryVariables
280
     0
  1
Standard
  0
DICTIONARYVAR
  5
93
102
{ACAD_REACTORS
330
91
102
}
330
91
100
DictionaryVariables
280
     0
  1
2
  0
DICTIONARY
  5
C7
330
6C
100
AcDbDictionary
280
     1
281
     1
  3
ACAD_XREC_ROUNDTRIP
360
C8
  0
DICTIONARY
  5
C4
330
6A
100
AcDbDictionary
280
     1
281
     1
  3
ACAD_ROUNDTRIP_2008_TABLESTYLE_CELLSTYLEMAP
360
C5
  0
DICTIONARY
  5
9C
330
2F
100
AcDbDictionary
280
     1
281
     1
  3
ACAD_XREC_ROUNDTRIP
360
9D
  0
DICTIONARY
  5
A2
330
32
100
AcDbDictionary
280
     1
281
     1
  3
ACAD_XREC_ROUNDTRIP
360
A3
  0
DICTIONARY
  5
AA
330
36
100
AcDbDictionary
280
     1
281
     1
  3
ACAD_XREC_ROUNDTRIP
360
AB
  0
DICTIONARY
  5
B2
330
3A
100
AcDbDictionary
280
     1
281
     1
  3
ACAD_XREC_ROUNDTRIP
360
B3
  0
DICTIONARY
  5
A6
330
34
100
AcDbDictionary
280
     1
281
     1
  3
ACAD_XREC_ROUNDTRIP
360
A7
  0
DICTIONARY
  5
A8
330
35
100
AcDbDictionary
280
     1
281
     1
  3
ACAD_XREC_ROUNDTRIP
360
A9
  0
DICTIONARY
  5
B8
330
3D
100
AcDbDictionary
280
     1
281
     1
  3
ACAD_XREC_ROUNDTRIP
360
B9
  0
DICTIONARY
  5
B0
330
39
100
AcDbDictionary
280
     1
281
     1
  3
ACAD_XREC_ROUNDTRIP
360
B1
  0
DICTIONARY
  5
94
330
2B
100
AcDbDictionary
280
     1
281
     1
  3
ACAD_XREC_ROUNDTRIP
360
95
  0
DICTIONARY
  5
96
330
2C
100
AcDbDictionary
280
     1
281
     1
  3
ACAD_XREC_ROUNDTRIP
360
97
  0
DICTIONARY
  5
98
330
2D
100
AcDbDictionary
280
     1
281
     1
  3
ACAD_XREC_ROUNDTRIP
360
99
  0
DICTIONARY
  5
9A
330
2E
100
AcDbDictionary
280
     1
281
     1
  3
ACAD_XREC_ROUNDTRIP
360
9B
  0
DICTIONARY
  5
A0
330
31
100
AcDbDictionary
280
     1
281
     1
  3
ACAD_XREC_ROUNDTRIP
360
A1
  0
DICTIONARY
  5
B4
330
3B
100
AcDbDictionary
280
     1
281
     1
  3
ACAD_XREC_ROUNDTRIP
360
B5
  0
DICTIONARY
  5
AE
330
38
100
AcDbDictionary
280
     1
281
     1
  3
ACAD_XREC_ROUNDTRIP
360
AF
  0
DICTIONARY
  5
B6
330
3C
100
AcDbDictionary
280
     1
281
     1
  3
ACAD_XREC_ROUNDTRIP
360
B7
  0
DICTIONARY
  5
A4
330
33
100
AcDbDictionary
280
     1
281
     1
  3
ACAD_XREC_ROUNDTRIP
360
A5
  0
DICTIONARY
  5
C2
330
42
100
AcDbDictionary
280
     1
281
     1
  3
ACAD_XREC_ROUNDTRIP
360
C3
  0
DICTIONARY
  5
C0
330
41
100
AcDbDictionary
280
     1
281
     1
  3
ACAD_XREC_ROUNDTRIP
360
C1
  0
DICTIONARY
  5
BA
330
3E
100
AcDbDictionary
280
     1
281
     1
  3
ACAD_XREC_ROUNDTRIP
360
BB
  0
DICTIONARY
  5
BC
330
3F
100
AcDbDictionary
280
     1
281
     1
  3
ACAD_XREC_ROUNDTRIP
360
BD
  0
DICTIONARY
  5
AC
330
37
100
AcDbDictionary
280
     1
281
     1
  3
ACAD_XREC_ROUNDTRIP
360
AD
  0
DICTIONARY
  5
9E
330
30
100
AcDbDictionary
280
     1
281
     1
  3
ACAD_XREC_ROUNDTRIP
360
9F
  0
DICTIONARY
  5
BE
330
40
100
AcDbDictionary
280
     1
281
     1
  3
ACAD_XREC_ROUNDTRIP
360
BF
  0
XRECORD
  5
C8
102
{ACAD_REACTORS
330
C7
102
}
330
C7
100
AcDbXrecord
280
     1
102
ACAD_ROUNDTRIP_2010_MLEADER_STYLE
  0
CELLSTYLEMAP
  5
C5
102
{ACAD_REACTORS
330
C4
102
}
330
C4
100
AcDbCellStyleMap
 90
        3
300
CELLSTYLE
  1
TABLEFORMAT_BEGIN
 90
        5
170
     1
 91
        0
 92
    32768
 62
   257
 93
        1
300
CONTENTFORMAT
  1
CONTENTFORMAT_BEGIN
 90
        0
 91
        0
 92
        4
 93
        0
300

 40
0.0
140
1.0
 94
        5
 62
     0
340
11
144
0.25
309
CONTENTFORMAT_END
171
     1
301
MARGIN
  1
CELLMARGIN_BEGIN
 40
0.06
 40
0.06
 40
0.06
 40
0.06
 40
0.06
 40
0.06
309
CELLMARGIN_END
 94
        6
 95
        1
302
GRIDFORMAT
  1
GRIDFORMAT_BEGIN
 90
        0
 91
        1
 62
     0
 92
       -2
340
14
 93
        0
 40
0.045
309
GRIDFORMAT_END
 95
        2
302
GRIDFORMAT
  1
GRIDFORMAT_BEGIN
 90
        0
 91
        1
 62
     0
 92
       -2
340
14
 93
        0
 40
0.045
309
GRIDFORMAT_END
 95
        4
302
GRIDFORMAT
  1
GRIDFORMAT_BEGIN
 90
        0
 91
        1
 62
     0
 92
       -2
340
14
 93
        0
 40
0.045
309
GRIDFORMAT_END
 95
        8
302
GRIDFORMAT
  1
GRIDFORMAT_BEGIN
 90
        0
 91
        1
 62
     0
 92
       -2
340
14
 93
        0
 40
0.045
309
GRIDFORMAT_END
 95
       16
302
GRIDFORMAT
  1
GRIDFORMAT_BEGIN
 90
        0
 91
        1
 62
     0
 92
       -2
340
14
 93
        0
 40
0.045
309
GRIDFORMAT_END
 95
       32
302
GRIDFORMAT
  1
GRIDFORMAT_BEGIN
 90
        0
 91
        1
 62
     0
 92
       -2
340
14
 93
        0
 40
0.045
309
GRIDFORMAT_END
309
TABLEFORMAT_END
  1
CELLSTYLE_BEGIN
 90
        1
 91
        1
300
_TITLE
309
CELLSTYLE_END
300
CELLSTYLE
  1
TABLEFORMAT_BEGIN
 90
        5
170
     1
 91
        0
 92
        0
 62
   257
 93
        1
300
CONTENTFORMAT
  1
CONTENTFORMAT_BEGIN
 90
        0
 91
        0
 92
        4
 93
        0
300

 40
0.0
140
1.0
 94
        5
 62
     0
340
11
144
0.18
309
CONTENTFORMAT_END
171
     1
301
MARGIN
  1
CELLMARGIN_BEGIN
 40
0.06
 40
0.06
 40
0.06
 40
0.06
 40
0.06
 40
0.06
309
CELLMARGIN_END
 94
        6
 95
        1
302
GRIDFORMAT
  1
GRIDFORMAT_BEGIN
 90
        0
 91
        1
 62
     0
 92
       -2
340
14
 93
        0
 40
0.045
309
GRIDFORMAT_END
 95
        2
302
GRIDFORMAT
  1
GRIDFORMAT_BEGIN
 90
        0
 91
        1
 62
     0
 92
       -2
340
14
 93
        0
 40
0.045
309
GRIDFORMAT_END
 95
        4
302
GRIDFORMAT
  1
GRIDFORMAT_BEGIN
 90
        0
 91
        1
 62
     0
 92
       -2
340
14
 93
        0
 40
0.045
309
GRIDFORMAT_END
 95
        8
302
GRIDFORMAT
  1
GRIDFORMAT_BEGIN
 90
        0
 91
        1
 62
     0
 92
       -2
340
14
 93
        0
 40
0.045
309
GRIDFORMAT_END
 95
       16
302
GRIDFORMAT
  1
GRIDFORMAT_BEGIN
 90
        0
 91
        1
 62
     0
 92
       -2
340
14
 93
        0
 40
0.045
309
GRIDFORMAT_END
 95
       32
302
GRIDFORMAT
  1
GRIDFORMAT_BEGIN
 90
        0
 91
        1
 62
     0
 92
       -2
340
14
 93
        0
 40
0.045
309
GRIDFORMAT_END
309
TABLEFORMAT_END
  1
CELLSTYLE_BEGIN
 90
        2
 91
        1
300
_HEADER
309
CELLSTYLE_END
300
CELLSTYLE
  1
TABLEFORMAT_BEGIN
 90
        5
170
     1
 91
        0
 92
        0
 62
   257
 93
        1
300
CONTENTFORMAT
  1
CONTENTFORMAT_BEGIN
 90
        0
 91
        0
 92
        4
 93
        0
300

 40
0.0
140
1.0
 94
        2
 62
     0
340
11
144
0.18
309
CONTENTFORMAT_END
171
     1
301
MARGIN
  1
CELLMARGIN_BEGIN
 40
0.06
 40
0.06
 40
0.06
 40
0.06
 40
0.06
 40
0.06
309
CELLMARGIN_END
 94
        6
 95
        1
302
GRIDFORMAT
  1
GRIDFORMAT_BEGIN
 90
        0
 91
        1
 62
     0
 92
       -2
340
14
 93
        0
 40
0.045
309
GRIDFORMAT_END
 95
        2
302
GRIDFORMAT
  1
GRIDFORMAT_BEGIN
 90
        0
 91
        1
 62
     0
 92
       -2
340
14
 93
        0
 40
0.045
309
GRIDFORMAT_END
 95
        4
302
GRIDFORMAT
  1
GRIDFORMAT_BEGIN
 90
        0
 91
        1
 62
     0
 92
       -2
340
14
 93
        0
 40
0.045
309
GRIDFORMAT_END
 95
        8
302
GRIDFORMAT
  1
GRIDFORMAT_BEGIN
 90
        0
 91
        1
 62
     0
 92
       -2
340
14
 93
        0
 40
0.045
309
GRIDFORMAT_END
 95
       16
302
GRIDFORMAT
  1
GRIDFORMAT_BEGIN
 90
        0
 91
        1
 62
     0
 92
       -2
340
14
 93
        0
 40
0.045
309
GRIDFORMAT_END
 95
       32
302
GRIDFORMAT
  1
GRIDFORMAT_BEGIN
 90
        0
 91
        1
 62
     0
 92
       -2
340
14
 93
        0
 40
0.045
309
GRIDFORMAT_END
309
TABLEFORMAT_END
  1
CELLSTYLE_BEGIN
 90
        3
 91
        2
300
_DATA
309
CELLSTYLE_END
  0
XRECORD
  5
9D
102
{ACAD_REACTORS
330
9C
102
}
330
9C
100
AcDbXrecord
280
     1
102
RTVSPropertyOp0
 70
     1
102
RTVSPropertyOp1
 70
     1
102
RTVSPropertyOp2
 70
     1
102
RTVSPropertyOp3
 70
     1
102
RTVSPropertyOp4
 70
     1
102
RTVSPropertyOp5
 70
     1
102
RTVSPropertyOp6
 70
     1
102
RTVSPropertyOp7
 70
     1
102
RTVSPropertyOp8
 70
     1
102
RTVSPropertyOp9
 70
     1
102
RTVSPropertyOp10
 70
     1
102
RTVSPropertyOp11
 70
     1
102
RTVSPropertyOp12
 70
     1
102
RTVSPropertyOp13
 70
     1
102
RTVSPropertyOp14
 70
     1
102
RTVSPropertyOp15
 70
     1
102
RTVSPropertyOp16
 70
     1
102
RTVSPropertyOp17
 70
     1
102
RTVSPropertyOp18
 70
     1
102
RTVSPropertyOp19
 70
     1
102
RTVSPropertyOp20
 70
     1
102
RTVSPropertyOp21
 70
     1
102
RTVSPropertyOp22
 70
     1
102
RTVSPropertyOp23
 70
     1
102
RTVSPropertyOp24
 70
     1
102
RTVSPropertyOp25
 70
     1
102
RTVSPropertyOp26
 70
     1
102
RTVSPropertyOp27
 70
     1
102
RTVSPropertyOp28
 70
     1
102
RTVSPropertyOp29
 70
     1
102
RTVSPropertyOp30
 70
     1
102
RTVSPropertyOp31
 70
     1
102
RTVSPropertyOp32
 70
     1
102
RTVSPropertyOp33
 70
     1
102
RTVSPropertyOp34
 70
     1
102
RTVSPropertyOp35
 70
     1
102
RTVSPropertyOp36
 70
     1
102
RTVSPropertyOp37
 70
     1
102
RTVSPropertyOp38
 70
     1
102
RTVSPropertyOp39
 70
     1
102
RTVSPropertyOp40
 70
     1
102
RTVSPropertyOp41
 70
     1
102
RTVSPropertyOp42
 70
     1
102
RTVSPropertyOp43
 70
     1
102
RTVSPropertyOp44
 70
     1
102
RTVSPropertyOp45
 70
     1
102
RTVSPropertyOp46
 70
     1
102
RTVSPropertyOp47
 70
     1
102
RTVSPropertyOp48
 70
     1
102
RTVSPropertyOp49
 70
     1
102
RTVSPropertyOp50
 70
     1
102
RTVSPropertyOp51
 70
     0
102
RTVSPropertyOp52
 70
     0
102
RTVSPropertyOp53
 70
     1
102
RTVSPropertyOp54
 70
     1
102
RTVSPropertyOp55
 70
     1
102
RTVSPropertyOp56
 70
     1
102
RTVSPropertyOp57
 70
     1
102
RTVSPost2010Prop28
280
     1
102
RTVSPost2010PropOp28
 70
     1
102
RTVSPost2010Prop29
280
     1
102
RTVSPost2010PropOp29
 70
     1
102
RTVSPost2010Prop30
280
     0
102
RTVSPost2010PropOp30
 70
     1
102
RTVSPost2010Prop31
280
     0
102
RTVSPost2010PropOp31
 70
     1
102
RTVSPost2010Prop32
280
     0
102
RTVSPost2010PropOp32
 70
     1
102
RTVSPost2010Prop33
280
     0
102
RTVSPost2010PropOp33
 70
     1
102
RTVSPost2010Prop34
280
     0
102
RTVSPost2010PropOp34
 70
     1
102
RTVSPost2010Prop35
280
     0
102
RTVSPost2010PropOp35
 70
     1
102
RTVSPost2010Prop36
280
     0
102
RTVSPost2010PropOp36
 70
     1
102
RTVSPost2010Prop37
 90
       50
102
RTVSPost2010PropOp37
 70
     1
102
RTVSPost2010Prop38
140
0.0
102
RTVSPost2010PropOp38
 70
     1
102
RTVSPost2010Prop39
140
1.0
102
RTVSPost2010PropOp39
 70
     1
102
RTVSPost2010Prop40
 90
        0
102
RTVSPost2010PropOp40
 70
     1
102
RTVSPost2010Prop41ColorIndex
 90
       18
102
RTVSPost2010Prop41ColorRGB
 90
        0
102
RTVSPost2010PropOp41
 70
     1
102
RTVSPost2010Prop42
 90
       50
102
RTVSPost2010PropOp42
 70
     1
102
RTVSPost2010Prop43
 90
        3
102
RTVSPost2010PropOp43
 70
     1
102
RTVSPost2010Prop44ColorIndex
 90
        5
102
RTVSPost2010Prop44ColorRGB
 90
      255
102
RTVSPost2010PropOp44
 70
     1
102
RTVSPost2010Prop45
280
     0
102
RTVSPost2010PropOp45
 70
     1
102
RTVSPost2010Prop46
 90
       50
102
RTVSPost2010PropOp46
 70
     1
102
RTVSPost2010Prop47
 90
       50
102
RTVSPost2010PropOp47
 70
     1
102
RTVSPost2010Prop48
 90
       50
102
RTVSPost2010PropOp48
 70
     1
102
RTVSPost2010Prop49
280
     0
102
RTVSPost2010PropOp49
 70
     1
102
RTVSPost2010Prop50
 90
       50
102
RTVSPost2010PropOp50
 70
     1
102
RTVSPost2010Prop51ColorIndex
 90
      256
102
RTVSPost2010Prop51ColorRGB
 90
-16777216
102
RTVSPost2010PropOp51
 70
     0
102
RTVSPost2010Prop52
140
1.0
102
RTVSPost2010PropOp52
 70
     0
102
RTVSPost2010Prop53
 90
        2
102
RTVSPost2010PropOp53
 70
     1
102
RTVSPost2010Prop54
  1
strokes_ogs.tif
102
RTVSPost2010PropOp54
 70
     1
102
RTVSPost2010Prop55
280
     0
102
RTVSPost2010PropOp55
 70
     1
102
RTVSPost2010Prop56
140
1.0
102
RTVSPost2010PropOp56
 70
     1
102
RTVSPost2010Prop57
140
1.0
102
RTVSPost2010PropOp57
 70
     1
  0
XRECORD
  5
A3
102
{ACAD_REACTORS
330
A2
102
}
330
A2
100
AcDbXrecord
280
     1
102
RTVSPropertyOp0
 70
     1
102
RTVSPropertyOp1
 70
     1
102
RTVSPropertyOp2
 70
     1
102
RTVSPropertyOp3
 70
     1
102
RTVSPropertyOp4
 70
     1
102
RTVSPropertyOp5
 70
     1
102
RTVSPropertyOp6
 70
     1
102
RTVSPropertyOp7
 70
     1
102
RTVSPropertyOp8
 70
     1
102
RTVSPropertyOp9
 70
     1
102
RTVSPropertyOp10
 70
     1
102
RTVSPropertyOp11
 70
     1
102
RTVSPropertyOp12
 70
     1
102
RTVSPropertyOp13
 70
     1
102
RTVSPropertyOp14
 70
     1
102
RTVSPropertyOp15
 70
     1
102
RTVSPropertyOp16
 70
     1
102
RTVSPropertyOp17
 70
     1
102
RTVSPropertyOp18
 70
     1
102
RTVSPropertyOp19
 70
     1
102
RTVSPropertyOp20
 70
     1
102
RTVSPropertyOp21
 70
     1
102
RTVSPropertyOp22
 70
     1
102
RTVSPropertyOp23
 70
     1
102
RTVSPropertyOp24
 70
     1
102
RTVSPropertyOp25
 70
     1
102
RTVSPropertyOp26
 70
     1
102
RTVSPropertyOp27
 70
     1
102
RTVSPropertyOp28
 70
     1
102
RTVSPropertyOp29
 70
     1
102
RTVSPropertyOp30
 70
     1
102
RTVSPropertyOp31
 70
     1
102
RTVSPropertyOp32
 70
     1
102
RTVSPropertyOp33
 70
     1
102
RTVSPropertyOp34
 70
     1
102
RTVSPropertyOp35
 70
     1
102
RTVSPropertyOp36
 70
     1
102
RTVSPropertyOp37
 70
     1
102
RTVSPropertyOp38
 70
     1
102
RTVSPropertyOp39
 70
     1
102
RTVSPropertyOp40
 70
     1
102
RTVSPropertyOp41
 70
     1
102
RTVSPropertyOp42
 70
     1
102
RTVSPropertyOp43
 70
     1
102
RTVSPropertyOp44
 70
     1
102
RTVSPropertyOp45
 70
     1
102
RTVSPropertyOp46
 70
     1
102
RTVSPropertyOp47
 70
     1
102
RTVSPropertyOp48
 70
     1
102
RTVSPropertyOp49
 70
     1
102
RTVSPropertyOp50
 70
     1
102
RTVSPropertyOp51
 70
     0
102
RTVSPropertyOp52
 70
     0
102
RTVSPropertyOp53
 70
     1
102
RTVSPropertyOp54
 70
     1
102
RTVSPropertyOp55
 70
     1
102
RTVSPropertyOp56
 70
     1
102
RTVSPropertyOp57
 70
     1
102
RTVSPost2010Prop28
280
     0
102
RTVSPost2010PropOp28
 70
     1
102
RTVSPost2010Prop29
280
     1
102
RTVSPost2010PropOp29
 70
     1
102
RTVSPost2010Prop30
280
     1
102
RTVSPost2010PropOp30
 70
     1
102
RTVSPost2010Prop31
280
     0
102
RTVSPost2010PropOp31
 70
     1
102
RTVSPost2010Prop32
280
     0
102
RTVSPost2010PropOp32
 70
     1
102
RTVSPost2010Prop33
280
     0
102
RTVSPost2010PropOp33
 70
     1
102
RTVSPost2010Prop34
280
     0
102
RTVSPost2010PropOp34
 70
     1
102
RTVSPost2010Prop35
280
     0
102
RTVSPost2010PropOp35
 70
     1
102
RTVSPost2010Prop36
280
     0
102
RTVSPost2010PropOp36
 70
     1
102
RTVSPost2010Prop37
 90
       50
102
RTVSPost2010PropOp37
 70
     1
102
RTVSPost2010Prop38
140
0.0
102
RTVSPost2010PropOp38
 70
     1
102
RTVSPost2010Prop39
140
1.0
102
RTVSPost2010PropOp39
 70
     1
102
RTVSPost2010Prop40
 90
        0
102
RTVSPost2010PropOp40
 70
     1
102
RTVSPost2010Prop41ColorIndex
 90
       18
102
RTVSPost2010Prop41ColorRGB
 90
        0
102
RTVSPost2010PropOp41
 70
     1
102
RTVSPost2010Prop42
 90
       50
102
RTVSPost2010PropOp42
 70
     1
102
RTVSPost2010Prop43
 90
        3
102
RTVSPost2010PropOp43
 70
     1
102
RTVSPost2010Prop44ColorIndex
 90
        5
102
RTVSPost2010Prop44ColorRGB
 90
      255
102
RTVSPost2010PropOp44
 70
     1
102
RTVSPost2010Prop45
280
     0
102
RTVSPost2010PropOp45
 70
     1
102
RTVSPost2010Prop46
 90
       50
102
RTVSPost2010PropOp46
 70
     1
102
RTVSPost2010Prop47
 90
       50
102
RTVSPost2010PropOp47
 70
     1
102
RTVSPost2010Prop48
 90
       50
102
RTVSPost2010PropOp48
 70
     1
102
RTVSPost2010Prop49
280
     0
102
RTVSPost2010PropOp49
 70
     1
102
RTVSPost2010Prop50
 90
       50
102
RTVSPost2010PropOp50
 70
     1
102
RTVSPost2010Prop51ColorIndex
 90
      256
102
RTVSPost2010Prop51ColorRGB
 90
-16777216
102
RTVSPost2010PropOp51
 70
     0
102
RTVSPost2010Prop52
140
1.0
102
RTVSPost2010PropOp52
 70
     0
102
RTVSPost2010Prop53
 90
        2
102
RTVSPost2010PropOp53
 70
     1
102
RTVSPost2010Prop54
  1
strokes_ogs.tif
102
RTVSPost2010PropOp54
 70
     1
102
RTVSPost2010Prop55
280
     0
102
RTVSPost2010PropOp55
 70
     1
102
RTVSPost2010Prop56
140
1.0
102
RTVSPost2010PropOp56
 70
     1
102
RTVSPost2010Prop57
140
1.0
102
RTVSPost2010PropOp57
 70
     1
  0
XRECORD
  5
AB
102
{ACAD_REACTORS
330
AA
102
}
330
AA
100
AcDbXrecord
280
     1
102
RTVSPropertyOp0
 70
     1
102
RTVSPropertyOp1
 70
     1
102
RTVSPropertyOp2
 70
     1
102
RTVSPropertyOp3
 70
     1
102
RTVSPropertyOp4
 70
     1
102
RTVSPropertyOp5
 70
     1
102
RTVSPropertyOp6
 70
     1
102
RTVSPropertyOp7
 70
     1
102
RTVSPropertyOp8
 70
     1
102
RTVSPropertyOp9
 70
     1
102
RTVSPropertyOp10
 70
     1
102
RTVSPropertyOp11
 70
     1
102
RTVSPropertyOp12
 70
     1
102
RTVSPropertyOp13
 70
     1
102
RTVSPropertyOp14
 70
     1
102
RTVSPropertyOp15
 70
     1
102
RTVSPropertyOp16
 70
     1
102
RTVSPropertyOp17
 70
     1
102
RTVSPropertyOp18
 70
     1
102
RTVSPropertyOp19
 70
     1
102
RTVSPropertyOp20
 70
     1
102
RTVSPropertyOp21
 70
     1
102
RTVSPropertyOp22
 70
     1
102
RTVSPropertyOp23
 70
     1
102
RTVSPropertyOp24
 70
     1
102
RTVSPropertyOp25
 70
     1
102
RTVSPropertyOp26
 70
     1
102
RTVSPropertyOp27
 70
     1
102
RTVSPropertyOp28
 70
     1
102
RTVSPropertyOp29
 70
     1
102
RTVSPropertyOp30
 70
     1
102
RTVSPropertyOp31
 70
     1
102
RTVSPropertyOp32
 70
     1
102
RTVSPropertyOp33
 70
     1
102
RTVSPropertyOp34
 70
     1
102
RTVSPropertyOp35
 70
     1
102
RTVSPropertyOp36
 70
     1
102
RTVSPropertyOp37
 70
     1
102
RTVSPropertyOp38
 70
     1
102
RTVSPropertyOp39
 70
     1
102
RTVSPropertyOp40
 70
     1
102
RTVSPropertyOp41
 70
     1
102
RTVSPropertyOp42
 70
     1
102
RTVSPropertyOp43
 70
     1
102
RTVSPropertyOp44
 70
     1
102
RTVSPropertyOp45
 70
     1
102
RTVSPropertyOp46
 70
     1
102
RTVSPropertyOp47
 70
     1
102
RTVSPropertyOp48
 70
     1
102
RTVSPropertyOp49
 70
     1
102
RTVSPropertyOp50
 70
     1
102
RTVSPropertyOp51
 70
     0
102
RTVSPropertyOp52
 70
     0
102
RTVSPropertyOp53
 70
     1
102
RTVSPropertyOp54
 70
     1
102
RTVSPropertyOp55
 70
     1
102
RTVSPropertyOp56
 70
     1
102
RTVSPropertyOp57
 70
     1
102
RTVSPost2010Prop28
280
     0
102
RTVSPost2010PropOp28
 70
     1
102
RTVSPost2010Prop29
280
     1
102
RTVSPost2010PropOp29
 70
     1
102
RTVSPost2010Prop30
280
     1
102
RTVSPost2010PropOp30
 70
     1
102
RTVSPost2010Prop31
280
     0
102
RTVSPost2010PropOp31
 70
     1
102
RTVSPost2010Prop32
280
     0
102
RTVSPost2010PropOp32
 70
     1
102
RTVSPost2010Prop33
280
     0
102
RTVSPost2010PropOp33
 70
     1
102
RTVSPost2010Prop34
280
     0
102
RTVSPost2010PropOp34
 70
     1
102
RTVSPost2010Prop35
280
     0
102
RTVSPost2010PropOp35
 70
     1
102
RTVSPost2010Prop36
280
     0
102
RTVSPost2010PropOp36
 70
     1
102
RTVSPost2010Prop37
 90
       50
102
RTVSPost2010PropOp37
 70
     1
102
RTVSPost2010Prop38
140
0.0
102
RTVSPost2010PropOp38
 70
     1
102
RTVSPost2010Prop39
140
1.0
102
RTVSPost2010PropOp39
 70
     1
102
RTVSPost2010Prop40
 90
        0
102
RTVSPost2010PropOp40
 70
     1
102
RTVSPost2010Prop41ColorIndex
 90
       18
102
RTVSPost2010Prop41ColorRGB
 90
        0
102
RTVSPost2010PropOp41
 70
     1
102
RTVSPost2010Prop42
 90
       50
102
RTVSPost2010PropOp42
 70
     1
102
RTVSPost2010Prop43
 90
        3
102
RTVSPost2010PropOp43
 70
     1
102
RTVSPost2010Prop44ColorIndex
 90
        5
102
RTVSPost2010Prop44ColorRGB
 90
      255
102
RTVSPost2010PropOp44
 70
     1
102
RTVSPost2010Prop45
280
     0
102
RTVSPost2010PropOp45
 70
     1
102
RTVSPost2010Prop46
 90
       50
102
RTVSPost2010PropOp46
 70
     1
102
RTVSPost2010Prop47
 90
       50
102
RTVSPost2010PropOp47
 70
     1
102
RTVSPost2010Prop48
 90
       50
102
RTVSPost2010PropOp48
 70
     1
102
RTVSPost2010Prop49
280
     0
102
RTVSPost2010PropOp49
 70
     1
102
RTVSPost2010Prop50
 90
       50
102
RTVSPost2010PropOp50
 70
     1
102
RTVSPost2010Prop51ColorIndex
 90
      256
102
RTVSPost2010Prop51ColorRGB
 90
-16777216
102
RTVSPost2010PropOp51
 70
     0
102
RTVSPost2010Prop52
140
1.0
102
RTVSPost2010PropOp52
 70
     0
102
RTVSPost2010Prop53
 90
        2
102
RTVSPost2010PropOp53
 70
     1
102
RTVSPost2010Prop54
  1
strokes_ogs.tif
102
RTVSPost2010PropOp54
 70
     1
102
RTVSPost2010Prop55
280
     0
102
RTVSPost2010PropOp55
 70
     1
102
RTVSPost2010Prop56
140
1.0
102
RTVSPost2010PropOp56
 70
     1
102
RTVSPost2010Prop57
140
1.0
102
RTVSPost2010PropOp57
 70
     1
  0
XRECORD
  5
B3
102
{ACAD_REACTORS
330
B2
102
}
330
B2
100
AcDbXrecord
280
     1
102
RTVSPropertyOp0
 70
     1
102
RTVSPropertyOp1
 70
     1
102
RTVSPropertyOp2
 70
     1
102
RTVSPropertyOp3
 70
     1
102
RTVSPropertyOp4
 70
     1
102
RTVSPropertyOp5
 70
     1
102
RTVSPropertyOp6
 70
     1
102
RTVSPropertyOp7
 70
     1
102
RTVSPropertyOp8
 70
     1
102
RTVSPropertyOp9
 70
     1
102
RTVSPropertyOp10
 70
     1
102
RTVSPropertyOp11
 70
     1
102
RTVSPropertyOp12
 70
     1
102
RTVSPropertyOp13
 70
     1
102
RTVSPropertyOp14
 70
     1
102
RTVSPropertyOp15
 70
     1
102
RTVSPropertyOp16
 70
     1
102
RTVSPropertyOp17
 70
     1
102
RTVSPropertyOp18
 70
     1
102
RTVSPropertyOp19
 70
     1
102
RTVSPropertyOp20
 70
     1
102
RTVSPropertyOp21
 70
     1
102
RTVSPropertyOp22
 70
     1
102
RTVSPropertyOp23
 70
     1
102
RTVSPropertyOp24
 70
     1
102
RTVSPropertyOp25
 70
     1
102
RTVSPropertyOp26
 70
     1
102
RTVSPropertyOp27
 70
     1
102
RTVSPropertyOp28
 70
     1
102
RTVSPropertyOp29
 70
     1
102
RTVSPropertyOp30
 70
     1
102
RTVSPropertyOp31
 70
     1
102
RTVSPropertyOp32
 70
     1
102
RTVSPropertyOp33
 70
     1
102
RTVSPropertyOp34
 70
     1
102
RTVSPropertyOp35
 70
     1
102
RTVSPropertyOp36
 70
     1
102
RTVSPropertyOp37
 70
     1
102
RTVSPropertyOp38
 70
     1
102
RTVSPropertyOp39
 70
     1
102
RTVSPropertyOp40
 70
     1
102
RTVSPropertyOp41
 70
     1
102
RTVSPropertyOp42
 70
     1
102
RTVSPropertyOp43
 70
     1
102
RTVSPropertyOp44
 70
     1
102
RTVSPropertyOp45
 70
     1
102
RTVSPropertyOp46
 70
     1
102
RTVSPropertyOp47
 70
     1
102
RTVSPropertyOp48
 70
     1
102
RTVSPropertyOp49
 70
     1
102
RTVSPropertyOp50
 70
     1
102
RTVSPropertyOp51
 70
     0
102
RTVSPropertyOp52
 70
     0
102
RTVSPropertyOp53
 70
     1
102
RTVSPropertyOp54
 70
     1
102
RTVSPropertyOp55
 70
     1
102
RTVSPropertyOp56
 70
     1
102
RTVSPropertyOp57
 70
     1
102
RTVSPost2010Prop28
280
     0
102
RTVSPost2010PropOp28
 70
     1
102
RTVSPost2010Prop29
280
     1
102
RTVSPost2010PropOp29
 70
     1
102
RTVSPost2010Prop30
280
     1
102
RTVSPost2010PropOp30
 70
     1
102
RTVSPost2010Prop31
280
     0
102
RTVSPost2010PropOp31
 70
     1
102
RTVSPost2010Prop32
280
     0
102
RTVSPost2010PropOp32
 70
     1
102
RTVSPost2010Prop33
280
     0
102
RTVSPost2010PropOp33
 70
     1
102
RTVSPost2010Prop34
280
     0
102
RTVSPost2010PropOp34
 70
     1
102
RTVSPost2010Prop35
280
     0
102
RTVSPost2010PropOp35
 70
     1
102
RTVSPost2010Prop36
280
     0
102
RTVSPost2010PropOp36
 70
     1
102
RTVSPost2010Prop37
 90
       50
102
RTVSPost2010PropOp37
 70
     1
102
RTVSPost2010Prop38
140
0.0
102
RTVSPost2010PropOp38
 70
     1
102
RTVSPost2010Prop39
140
1.0
102
RTVSPost2010PropOp39
 70
     1
102
RTVSPost2010Prop40
 90
        0
102
RTVSPost2010PropOp40
 70
     1
102
RTVSPost2010Prop41ColorIndex
 90
       18
102
RTVSPost2010Prop41ColorRGB
 90
        0
102
RTVSPost2010PropOp41
 70
     1
102
RTVSPost2010Prop42
 90
       50
102
RTVSPost2010PropOp42
 70
     1
102
RTVSPost2010Prop43
 90
        3
102
RTVSPost2010PropOp43
 70
     1
102
RTVSPost2010Prop44ColorIndex
 90
        5
102
RTVSPost2010Prop44ColorRGB
 90
      255
102
RTVSPost2010PropOp44
 70
     1
102
RTVSPost2010Prop45
280
     0
102
RTVSPost2010PropOp45
 70
     1
102
RTVSPost2010Prop46
 90
       50
102
RTVSPost2010PropOp46
 70
     1
102
RTVSPost2010Prop47
 90
       50
102
RTVSPost2010PropOp47
 70
     1
102
RTVSPost2010Prop48
 90
       50
102
RTVSPost2010PropOp48
 70
     1
102
RTVSPost2010Prop49
280
     0
102
RTVSPost2010PropOp49
 70
     1
102
RTVSPost2010Prop50
 90
       50
102
RTVSPost2010PropOp50
 70
     1
102
RTVSPost2010Prop51ColorIndex
 90
      256
102
RTVSPost2010Prop51ColorRGB
 90
-16777216
102
RTVSPost2010PropOp51
 70
     0
102
RTVSPost2010Prop52
140
1.0
102
RTVSPost2010PropOp52
 70
     0
102
RTVSPost2010Prop53
 90
        2
102
RTVSPost2010PropOp53
 70
     1
102
RTVSPost2010Prop54
  1
strokes_ogs.tif
102
RTVSPost2010PropOp54
 70
     1
102
RTVSPost2010Prop55
280
     0
102
RTVSPost2010PropOp55
 70
     1
102
RTVSPost2010Prop56
140
1.0
102
RTVSPost2010PropOp56
 70
     1
102
RTVSPost2010Prop57
140
1.0
102
RTVSPost2010PropOp57
 70
     1
  0
XRECORD
  5
A7
102
{ACAD_REACTORS
330
A6
102
}
330
A6
100
AcDbXrecord
280
     1
102
RTVSPropertyOp0
 70
     1
102
RTVSPropertyOp1
 70
     1
102
RTVSPropertyOp2
 70
     1
102
RTVSPropertyOp3
 70
     1
102
RTVSPropertyOp4
 70
     1
102
RTVSPropertyOp5
 70
     1
102
RTVSPropertyOp6
 70
     1
102
RTVSPropertyOp7
 70
     1
102
RTVSPropertyOp8
 70
     1
102
RTVSPropertyOp9
 70
     1
102
RTVSPropertyOp10
 70
     1
102
RTVSPropertyOp11
 70
     1
102
RTVSPropertyOp12
 70
     1
102
RTVSPropertyOp13
 70
     1
102
RTVSPropertyOp14
 70
     1
102
RTVSPropertyOp15
 70
     1
102
RTVSPropertyOp16
 70
     1
102
RTVSPropertyOp17
 70
     1
102
RTVSPropertyOp18
 70
     1
102
RTVSPropertyOp19
 70
     1
102
RTVSPropertyOp20
 70
     1
102
RTVSPropertyOp21
 70
     1
102
RTVSPropertyOp22
 70
     1
102
RTVSPropertyOp23
 70
     1
102
RTVSPropertyOp24
 70
     1
102
RTVSPropertyOp25
 70
     1
102
RTVSPropertyOp26
 70
     1
102
RTVSPropertyOp27
 70
     1
102
RTVSPropertyOp28
 70
     1
102
RTVSPropertyOp29
 70
     1
102
RTVSPropertyOp30
 70
     1
102
RTVSPropertyOp31
 70
     1
102
RTVSPropertyOp32
 70
     1
102
RTVSPropertyOp33
 70
     1
102
RTVSPropertyOp34
 70
     1
102
RTVSPropertyOp35
 70
     1
102
RTVSPropertyOp36
 70
     1
102
RTVSPropertyOp37
 70
     1
102
RTVSPropertyOp38
 70
     1
102
RTVSPropertyOp39
 70
     1
102
RTVSPropertyOp40
 70
     1
102
RTVSPropertyOp41
 70
     1
102
RTVSPropertyOp42
 70
     1
102
RTVSPropertyOp43
 70
     1
102
RTVSPropertyOp44
 70
     1
102
RTVSPropertyOp45
 70
     1
102
RTVSPropertyOp46
 70
     1
102
RTVSPropertyOp47
 70
     1
102
RTVSPropertyOp48
 70
     1
102
RTVSPropertyOp49
 70
     1
102
RTVSPropertyOp50
 70
     1
102
RTVSPropertyOp51
 70
     0
102
RTVSPropertyOp52
 70
     0
102
RTVSPropertyOp53
 70
     1
102
RTVSPropertyOp54
 70
     1
102
RTVSPropertyOp55
 70
     1
102
RTVSPropertyOp56
 70
     1
102
RTVSPropertyOp57
 70
     1
102
RTVSPost2010Prop28
280
     0
102
RTVSPost2010PropOp28
 70
     1
102
RTVSPost2010Prop29
280
     1
102
RTVSPost2010PropOp29
 70
     1
102
RTVSPost2010Prop30
280
     1
102
RTVSPost2010PropOp30
 70
     1
102
RTVSPost2010Prop31
280
     0
102
RTVSPost2010PropOp31
 70
     1
102
RTVSPost2010Prop32
280
     0
102
RTVSPost2010PropOp32
 70
     1
102
RTVSPost2010Prop33
280
     0
102
RTVSPost2010PropOp33
 70
     1
102
RTVSPost2010Prop34
280
     0
102
RTVSPost2010PropOp34
 70
     1
102
RTVSPost2010Prop35
280
     0
102
RTVSPost2010PropOp35
 70
     1
102
RTVSPost2010Prop36
280
     0
102
RTVSPost2010PropOp36
 70
     1
102
RTVSPost2010Prop37
 90
       50
102
RTVSPost2010PropOp37
 70
     1
102
RTVSPost2010Prop38
140
0.0
102
RTVSPost2010PropOp38
 70
     1
102
RTVSPost2010Prop39
140
1.0
102
RTVSPost2010PropOp39
 70
     1
102
RTVSPost2010Prop40
 90
        0
102
RTVSPost2010PropOp40
 70
     1
102
RTVSPost2010Prop41ColorIndex
 90
       18
102
RTVSPost2010Prop41ColorRGB
 90
        0
102
RTVSPost2010PropOp41
 70
     1
102
RTVSPost2010Prop42
 90
       50
102
RTVSPost2010PropOp42
 70
     1
102
RTVSPost2010Prop43
 90
        3
102
RTVSPost2010PropOp43
 70
     1
102
RTVSPost2010Prop44ColorIndex
 90
        5
102
RTVSPost2010Prop44ColorRGB
 90
      255
102
RTVSPost2010PropOp44
 70
     1
102
RTVSPost2010Prop45
280
     0
102
RTVSPost2010PropOp45
 70
     1
102
RTVSPost2010Prop46
 90
       50
102
RTVSPost2010PropOp46
 70
     1
102
RTVSPost2010Prop47
 90
       50
102
RTVSPost2010PropOp47
 70
     1
102
RTVSPost2010Prop48
 90
       50
102
RTVSPost2010PropOp48
 70
     1
102
RTVSPost2010Prop49
280
     0
102
RTVSPost2010PropOp49
 70
     1
102
RTVSPost2010Prop50
 90
       50
102
RTVSPost2010PropOp50
 70
     1
102
RTVSPost2010Prop51ColorIndex
 90
      256
102
RTVSPost2010Prop51ColorRGB
 90
-16777216
102
RTVSPost2010PropOp51
 70
     0
102
RTVSPost2010Prop52
140
1.0
102
RTVSPost2010PropOp52
 70
     0
102
RTVSPost2010Prop53
 90
        2
102
RTVSPost2010PropOp53
 70
     1
102
RTVSPost2010Prop54
  1
strokes_ogs.tif
102
RTVSPost2010PropOp54
 70
     1
102
RTVSPost2010Prop55
280
     0
102
RTVSPost2010PropOp55
 70
     1
102
RTVSPost2010Prop56
140
1.0
102
RTVSPost2010PropOp56
 70
     1
102
RTVSPost2010Prop57
140
1.0
102
RTVSPost2010PropOp57
 70
     1
  0
XRECORD
  5
A9
102
{ACAD_REACTORS
330
A8
102
}
330
A8
100
AcDbXrecord
280
     1
102
RTVSPropertyOp0
 70
     1
102
RTVSPropertyOp1
 70
     1
102
RTVSPropertyOp2
 70
     1
102
RTVSPropertyOp3
 70
     1
102
RTVSPropertyOp4
 70
     1
102
RTVSPropertyOp5
 70
     1
102
RTVSPropertyOp6
 70
     1
102
RTVSPropertyOp7
 70
     1
102
RTVSPropertyOp8
 70
     1
102
RTVSPropertyOp9
 70
     1
102
RTVSPropertyOp10
 70
     1
102
RTVSPropertyOp11
 70
     1
102
RTVSPropertyOp12
 70
     1
102
RTVSPropertyOp13
 70
     1
102
RTVSPropertyOp14
 70
     1
102
RTVSPropertyOp15
 70
     1
102
RTVSPropertyOp16
 70
     1
102
RTVSPropertyOp17
 70
     1
102
RTVSPropertyOp18
 70
     1
102
RTVSPropertyOp19
 70
     1
102
RTVSPropertyOp20
 70
     1
102
RTVSPropertyOp21
 70
     1
102
RTVSPropertyOp22
 70
     1
102
RTVSPropertyOp23
 70
     1
102
RTVSPropertyOp24
 70
     1
102
RTVSPropertyOp25
 70
     1
102
RTVSPropertyOp26
 70
     1
102
RTVSPropertyOp27
 70
     1
102
RTVSPropertyOp28
 70
     1
102
RTVSPropertyOp29
 70
     1
102
RTVSPropertyOp30
 70
     1
102
RTVSPropertyOp31
 70
     1
102
RTVSPropertyOp32
 70
     1
102
RTVSPropertyOp33
 70
     1
102
RTVSPropertyOp34
 70
     1
102
RTVSPropertyOp35
 70
     1
102
RTVSPropertyOp36
 70
     1
102
RTVSPropertyOp37
 70
     1
102
RTVSPropertyOp38
 70
     1
102
RTVSPropertyOp39
 70
     1
102
RTVSPropertyOp40
 70
     1
102
RTVSPropertyOp41
 70
     1
102
RTVSPropertyOp42
 70
     1
102
RTVSPropertyOp43
 70
     1
102
RTVSPropertyOp44
 70
     1
102
RTVSPropertyOp45
 70
     1
102
RTVSPropertyOp46
 70
     1
102
RTVSPropertyOp47
 70
     1
102
RTVSPropertyOp48
 70
     1
102
RTVSPropertyOp49
 70
     1
102
RTVSPropertyOp50
 70
     1
102
RTVSPropertyOp51
 70
     0
102
RTVSPropertyOp52
 70
     0
102
RTVSPropertyOp53
 70
     1
102
RTVSPropertyOp54
 70
     1
102
RTVSPropertyOp55
 70
     1
102
RTVSPropertyOp56
 70
     1
102
RTVSPropertyOp57
 70
     1
102
RTVSPost2010Prop28
280
     0
102
RTVSPost2010PropOp28
 70
     1
102
RTVSPost2010Prop29
280
     1
102
RTVSPost2010PropOp29
 70
     1
102
RTVSPost2010Prop30
280
     1
102
RTVSPost2010PropOp30
 70
     1
102
RTVSPost2010Prop31
280
     0
102
RTVSPost2010PropOp31
 70
     1
102
RTVSPost2010Prop32
280
     0
102
RTVSPost2010PropOp32
 70
     1
102
RTVSPost2010Prop33
280
     0
102
RTVSPost2010PropOp33
 70
     1
102
RTVSPost2010Prop34
280
     0
102
RTVSPost2010PropOp34
 70
     1
102
RTVSPost2010Prop35
280
     0
102
RTVSPost2010PropOp35
 70
     1
102
RTVSPost2010Prop36
280
     0
102
RTVSPost2010PropOp36
 70
     1
102
RTVSPost2010Prop37
 90
       50
102
RTVSPost2010PropOp37
 70
     1
102
RTVSPost2010Prop38
140
0.0
102
RTVSPost2010PropOp38
 70
     1
102
RTVSPost2010Prop39
140
1.0
102
RTVSPost2010PropOp39
 70
     1
102
RTVSPost2010Prop40
 90
        0
102
RTVSPost2010PropOp40
 70
     1
102
RTVSPost2010Prop41ColorIndex
 90
       18
102
RTVSPost2010Prop41ColorRGB
 90
        0
102
RTVSPost2010PropOp41
 70
     1
102
RTVSPost2010Prop42
 90
       50
102
RTVSPost2010PropOp42
 70
     1
102
RTVSPost2010Prop43
 90
        3
102
RTVSPost2010PropOp43
 70
     1
102
RTVSPost2010Prop44ColorIndex
 90
        5
102
RTVSPost2010Prop44ColorRGB
 90
      255
102
RTVSPost2010PropOp44
 70
     1
102
RTVSPost2010Prop45
280
     0
102
RTVSPost2010PropOp45
 70
     1
102
RTVSPost2010Prop46
 90
       50
102
RTVSPost2010PropOp46
 70
     1
102
RTVSPost2010Prop47
 90
       50
102
RTVSPost2010PropOp47
 70
     1
102
RTVSPost2010Prop48
 90
       50
102
RTVSPost2010PropOp48
 70
     1
102
RTVSPost2010Prop49
280
     0
102
RTVSPost2010PropOp49
 70
     1
102
RTVSPost2010Prop50
 90
       50
102
RTVSPost2010PropOp50
 70
     1
102
RTVSPost2010Prop51ColorIndex
 90
      256
102
RTVSPost2010Prop51ColorRGB
 90
-16777216
102
RTVSPost2010PropOp51
 70
     0
102
RTVSPost2010Prop52
140
1.0
102
RTVSPost2010PropOp52
 70
     0
102
RTVSPost2010Prop53
 90
        2
102
RTVSPost2010PropOp53
 70
     1
102
RTVSPost2010Prop54
  1
strokes_ogs.tif
102
RTVSPost2010PropOp54
 70
     1
102
RTVSPost2010Prop55
280
     0
102
RTVSPost2010PropOp55
 70
     1
102
RTVSPost2010Prop56
140
1.0
102
RTVSPost2010PropOp56
 70
     1
102
RTVSPost2010Prop57
140
1.0
102
RTVSPost2010PropOp57
 70
     1
  0
XRECORD
  5
B9
102
{ACAD_REACTORS
330
B8
102
}
330
B8
100
AcDbXrecord
280
     1
102
RTVSPropertyOp0
 70
     0
102
RTVSPropertyOp1
 70
     0
102
RTVSPropertyOp2
 70
     0
102
RTVSPropertyOp3
 70
     0
102
RTVSPropertyOp4
 70
     0
102
RTVSPropertyOp5
 70
     0
102
RTVSPropertyOp6
 70
     0
102
RTVSPropertyOp7
 70
     0
102
RTVSPropertyOp8
 70
     0
102
RTVSPropertyOp9
 70
     0
102
RTVSPropertyOp10
 70
     0
102
RTVSPropertyOp11
 70
     0
102
RTVSPropertyOp12
 70
     0
102
RTVSPropertyOp13
 70
     0
102
RTVSPropertyOp14
 70
     2
102
RTVSPropertyOp15
 70
     0
102
RTVSPropertyOp16
 70
     0
102
RTVSPropertyOp17
 70
     0
102
RTVSPropertyOp18
 70
     0
102
RTVSPropertyOp19
 70
     0
102
RTVSPropertyOp20
 70
     0
102
RTVSPropertyOp21
 70
     0
102
RTVSPropertyOp22
 70
     0
102
RTVSPropertyOp23
 70
     0
102
RTVSPropertyOp24
 70
     0
102
RTVSPropertyOp25
 70
     0
102
RTVSPropertyOp26
 70
     0
102
RTVSPropertyOp27
 70
     0
102
RTVSPropertyOp28
 70
     0
102
RTVSPropertyOp29
 70
     0
102
RTVSPropertyOp30
 70
     0
102
RTVSPropertyOp31
 70
     0
102
RTVSPropertyOp32
 70
     0
102
RTVSPropertyOp33
 70
     0
102
RTVSPropertyOp34
 70
     0
102
RTVSPropertyOp35
 70
     0
102
RTVSPropertyOp36
 70
     0
102
RTVSPropertyOp37
 70
     0
102
RTVSPropertyOp38
 70
     0
102
RTVSPropertyOp39
 70
     0
102
RTVSPropertyOp40
 70
     0
102
RTVSPropertyOp41
 70
     0
102
RTVSPropertyOp42
 70
     0
102
RTVSPropertyOp43
 70
     0
102
RTVSPropertyOp44
 70
     0
102
RTVSPropertyOp45
 70
     0
102
RTVSPropertyOp46
 70
     0
102
RTVSPropertyOp47
 70
     0
102
RTVSPropertyOp48
 70
     0
102
RTVSPropertyOp49
 70
     0
102
RTVSPropertyOp50
 70
     0
102
RTVSPropertyOp51
 70
     0
102
RTVSPropertyOp52
 70
     0
102
RTVSPropertyOp53
 70
     0
102
RTVSPropertyOp54
 70
     0
102
RTVSPropertyOp55
 70
     0
102
RTVSPropertyOp56
 70
     0
102
RTVSPropertyOp57
 70
     0
102
RTVSPost2010Prop28
280
     0
102
RTVSPost2010PropOp28
 70
     0
102
RTVSPost2010Prop29
280
     1
102
RTVSPost2010PropOp29
 70
     0
102
RTVSPost2010Prop30
280
     1
102
RTVSPost2010PropOp30
 70
     0
102
RTVSPost2010Prop31
280
     0
102
RTVSPost2010PropOp31
 70
     0
102
RTVSPost2010Prop32
280
     0
102
RTVSPost2010PropOp32
 70
     0
102
RTVSPost2010Prop33
280
     0
102
RTVSPost2010PropOp33
 70
     0
102
RTVSPost2010Prop34
280
     0
102
RTVSPost2010PropOp34
 70
     0
102
RTVSPost2010Prop35
280
     0
102
RTVSPost2010PropOp35
 70
     0
102
RTVSPost2010Prop36
280
     0
102
RTVSPost2010PropOp36
 70
     0
102
RTVSPost2010Prop37
 90
       50
102
RTVSPost2010PropOp37
 70
     0
102
RTVSPost2010Prop38
140
0.0
102
RTVSPost2010PropOp38
 70
     0
102
RTVSPost2010Prop39
140
1.0
102
RTVSPost2010PropOp39
 70
     0
102
RTVSPost2010Prop40
 90
        0
102
RTVSPost2010PropOp40
 70
     0
102
RTVSPost2010Prop41ColorIndex
 90
       18
102
RTVSPost2010Prop41ColorRGB
 90
        0
102
RTVSPost2010PropOp41
 70
     0
102
RTVSPost2010Prop42
 90
       50
102
RTVSPost2010PropOp42
 70
     0
102
RTVSPost2010Prop43
 90
        3
102
RTVSPost2010PropOp43
 70
     0
102
RTVSPost2010Prop44ColorIndex
 90
        5
102
RTVSPost2010Prop44ColorRGB
 90
      255
102
RTVSPost2010PropOp44
 70
     0
102
RTVSPost2010Prop45
280
     0
102
RTVSPost2010PropOp45
 70
     0
102
RTVSPost2010Prop46
 90
       50
102
RTVSPost2010PropOp46
 70
     0
102
RTVSPost2010Prop47
 90
       50
102
RTVSPost2010PropOp47
 70
     0
102
RTVSPost2010Prop48
 90
       50
102
RTVSPost2010PropOp48
 70
     0
102
RTVSPost2010Prop49
280
     0
102
RTVSPost2010PropOp49
 70
     0
102
RTVSPost2010Prop50
 90
       50
102
RTVSPost2010PropOp50
 70
     0
102
RTVSPost2010Prop51ColorIndex
 90
      256
102
RTVSPost2010Prop51ColorRGB
 90
-16777216
102
RTVSPost2010PropOp51
 70
     0
102
RTVSPost2010Prop52
140
1.0
102
RTVSPost2010PropOp52
 70
     0
102
RTVSPost2010Prop53
 90
        2
102
RTVSPost2010PropOp53
 70
     0
102
RTVSPost2010Prop54
  1
strokes_ogs.tif
102
RTVSPost2010PropOp54
 70
     0
102
RTVSPost2010Prop55
280
     0
102
RTVSPost2010PropOp55
 70
     0
102
RTVSPost2010Prop56
140
1.0
102
RTVSPost2010PropOp56
 70
     0
102
RTVSPost2010Prop57
140
1.0
102
RTVSPost2010PropOp57
 70
     0
  0
XRECORD
  5
B1
102
{ACAD_REACTORS
330
B0
102
}
330
B0
100
AcDbXrecord
280
     1
102
RTVSPropertyOp0
 70
     1
102
RTVSPropertyOp1
 70
     1
102
RTVSPropertyOp2
 70
     1
102
RTVSPropertyOp3
 70
     1
102
RTVSPropertyOp4
 70
     1
102
RTVSPropertyOp5
 70
     1
102
RTVSPropertyOp6
 70
     1
102
RTVSPropertyOp7
 70
     1
102
RTVSPropertyOp8
 70
     1
102
RTVSPropertyOp9
 70
     1
102
RTVSPropertyOp10
 70
     1
102
RTVSPropertyOp11
 70
     1
102
RTVSPropertyOp12
 70
     1
102
RTVSPropertyOp13
 70
     1
102
RTVSPropertyOp14
 70
     1
102
RTVSPropertyOp15
 70
     1
102
RTVSPropertyOp16
 70
     1
102
RTVSPropertyOp17
 70
     1
102
RTVSPropertyOp18
 70
     1
102
RTVSPropertyOp19
 70
     1
102
RTVSPropertyOp20
 70
     1
102
RTVSPropertyOp21
 70
     1
102
RTVSPropertyOp22
 70
     1
102
RTVSPropertyOp23
 70
     1
102
RTVSPropertyOp24
 70
     1
102
RTVSPropertyOp25
 70
     1
102
RTVSPropertyOp26
 70
     1
102
RTVSPropertyOp27
 70
     1
102
RTVSPropertyOp28
 70
     1
102
RTVSPropertyOp29
 70
     1
102
RTVSPropertyOp30
 70
     1
102
RTVSPropertyOp31
 70
     1
102
RTVSPropertyOp32
 70
     1
102
RTVSPropertyOp33
 70
     1
102
RTVSPropertyOp34
 70
     1
102
RTVSPropertyOp35
 70
     1
102
RTVSPropertyOp36
 70
     1
102
RTVSPropertyOp37
 70
     1
102
RTVSPropertyOp38
 70
     1
102
RTVSPropertyOp39
 70
     1
102
RTVSPropertyOp40
 70
     1
102
RTVSPropertyOp41
 70
     1
102
RTVSPropertyOp42
 70
     1
102
RTVSPropertyOp43
 70
     1
102
RTVSPropertyOp44
 70
     1
102
RTVSPropertyOp45
 70
     1
102
RTVSPropertyOp46
 70
     1
102
RTVSPropertyOp47
 70
     1
102
RTVSPropertyOp48
 70
     1
102
RTVSPropertyOp49
 70
     1
102
RTVSPropertyOp50
 70
     1
102
RTVSPropertyOp51
 70
     0
102
RTVSPropertyOp52
 70
     0
102
RTVSPropertyOp53
 70
     1
102
RTVSPropertyOp54
 70
     1
102
RTVSPropertyOp55
 70
     1
102
RTVSPropertyOp56
 70
     1
102
RTVSPropertyOp57
 70
     1
102
RTVSPost2010Prop28
280
     0
102
RTVSPost2010PropOp28
 70
     1
102
RTVSPost2010Prop29
280
     1
102
RTVSPost2010PropOp29
 70
     1
102
RTVSPost2010Prop30
280
     1
102
RTVSPost2010PropOp30
 70
     1
102
RTVSPost2010Prop31
280
     0
102
RTVSPost2010PropOp31
 70
     1
102
RTVSPost2010Prop32
280
     0
102
RTVSPost2010PropOp32
 70
     1
102
RTVSPost2010Prop33
280
     0
102
RTVSPost2010PropOp33
 70
     1
102
RTVSPost2010Prop34
280
     0
102
RTVSPost2010PropOp34
 70
     1
102
RTVSPost2010Prop35
280
     0
102
RTVSPost2010PropOp35
 70
     1
102
RTVSPost2010Prop36
280
     0
102
RTVSPost2010PropOp36
 70
     1
102
RTVSPost2010Prop37
 90
       50
102
RTVSPost2010PropOp37
 70
     1
102
RTVSPost2010Prop38
140
0.0
102
RTVSPost2010PropOp38
 70
     1
102
RTVSPost2010Prop39
140
1.0
102
RTVSPost2010PropOp39
 70
     1
102
RTVSPost2010Prop40
 90
        0
102
RTVSPost2010PropOp40
 70
     1
102
RTVSPost2010Prop41ColorIndex
 90
       18
102
RTVSPost2010Prop41ColorRGB
 90
        0
102
RTVSPost2010PropOp41
 70
     1
102
RTVSPost2010Prop42
 90
       50
102
RTVSPost2010PropOp42
 70
     1
102
RTVSPost2010Prop43
 90
        3
102
RTVSPost2010PropOp43
 70
     1
102
RTVSPost2010Prop44ColorIndex
 90
        5
102
RTVSPost2010Prop44ColorRGB
 90
      255
102
RTVSPost2010PropOp44
 70
     1
102
RTVSPost2010Prop45
280
     0
102
RTVSPost2010PropOp45
 70
     1
102
RTVSPost2010Prop46
 90
       50
102
RTVSPost2010PropOp46
 70
     1
102
RTVSPost2010Prop47
 90
       50
102
RTVSPost2010PropOp47
 70
     1
102
RTVSPost2010Prop48
 90
       50
102
RTVSPost2010PropOp48
 70
     1
102
RTVSPost2010Prop49
280
     0
102
RTVSPost2010PropOp49
 70
     1
102
RTVSPost2010Prop50
 90
       50
102
RTVSPost2010PropOp50
 70
     1
102
RTVSPost2010Prop51ColorIndex
 90
      256
102
RTVSPost2010Prop51ColorRGB
 90
-16777216
102
RTVSPost2010PropOp51
 70
     0
102
RTVSPost2010Prop52
140
1.0
102
RTVSPost2010PropOp52
 70
     0
102
RTVSPost2010Prop53
 90
        2
102
RTVSPost2010PropOp53
 70
     1
102
RTVSPost2010Prop54
  1
strokes_ogs.tif
102
RTVSPost2010PropOp54
 70
     1
102
RTVSPost2010Prop55
280
     0
102
RTVSPost2010PropOp55
 70
     1
102
RTVSPost2010Prop56
140
1.0
102
RTVSPost2010PropOp56
 70
     1
102
RTVSPost2010Prop57
140
1.0
102
RTVSPost2010PropOp57
 70
     1
  0
XRECORD
  5
95
102
{ACAD_REACTORS
330
94
102
}
330
94
100
AcDbXrecord
280
     1
102
RTVSPropertyOp0
 70
     1
102
RTVSPropertyOp1
 70
     1
102
RTVSPropertyOp2
 70
     1
102
RTVSPropertyOp3
 70
     1
102
RTVSPropertyOp4
 70
     1
102
RTVSPropertyOp5
 70
     1
102
RTVSPropertyOp6
 70
     1
102
RTVSPropertyOp7
 70
     1
102
RTVSPropertyOp8
 70
     1
102
RTVSPropertyOp9
 70
     1
102
RTVSPropertyOp10
 70
     1
102
RTVSPropertyOp11
 70
     1
102
RTVSPropertyOp12
 70
     1
102
RTVSPropertyOp13
 70
     1
102
RTVSPropertyOp14
 70
     1
102
RTVSPropertyOp15
 70
     1
102
RTVSPropertyOp16
 70
     1
102
RTVSPropertyOp17
 70
     1
102
RTVSPropertyOp18
 70
     1
102
RTVSPropertyOp19
 70
     1
102
RTVSPropertyOp20
 70
     1
102
RTVSPropertyOp21
 70
     1
102
RTVSPropertyOp22
 70
     1
102
RTVSPropertyOp23
 70
     1
102
RTVSPropertyOp24
 70
     1
102
RTVSPropertyOp25
 70
     1
102
RTVSPropertyOp26
 70
     1
102
RTVSPropertyOp27
 70
     1
102
RTVSPropertyOp28
 70
     1
102
RTVSPropertyOp29
 70
     1
102
RTVSPropertyOp30
 70
     1
102
RTVSPropertyOp31
 70
     1
102
RTVSPropertyOp32
 70
     1
102
RTVSPropertyOp33
 70
     1
102
RTVSPropertyOp34
 70
     1
102
RTVSPropertyOp35
 70
     1
102
RTVSPropertyOp36
 70
     1
102
RTVSPropertyOp37
 70
     1
102
RTVSPropertyOp38
 70
     1
102
RTVSPropertyOp39
 70
     1
102
RTVSPropertyOp40
 70
     1
102
RTVSPropertyOp41
 70
     1
102
RTVSPropertyOp42
 70
     1
102
RTVSPropertyOp43
 70
     1
102
RTVSPropertyOp44
 70
     1
102
RTVSPropertyOp45
 70
     1
102
RTVSPropertyOp46
 70
     1
102
RTVSPropertyOp47
 70
     1
102
RTVSPropertyOp48
 70
     1
102
RTVSPropertyOp49
 70
     1
102
RTVSPropertyOp50
 70
     1
102
RTVSPropertyOp51
 70
     0
102
RTVSPropertyOp52
 70
     0
102
RTVSPropertyOp53
 70
     1
102
RTVSPropertyOp54
 70
     1
102
RTVSPropertyOp55
 70
     1
102
RTVSPropertyOp56
 70
     1
102
RTVSPropertyOp57
 70
     1
102
RTVSPost2010Prop28
280
     0
102
RTVSPost2010PropOp28
 70
     1
102
RTVSPost2010Prop29
280
     1
102
RTVSPost2010PropOp29
 70
     1
102
RTVSPost2010Prop30
280
     1
102
RTVSPost2010PropOp30
 70
     1
102
RTVSPost2010Prop31
280
     0
102
RTVSPost2010PropOp31
 70
     1
102
RTVSPost2010Prop32
280
     0
102
RTVSPost2010PropOp32
 70
     1
102
RTVSPost2010Prop33
280
     0
102
RTVSPost2010PropOp33
 70
     1
102
RTVSPost2010Prop34
280
     0
102
RTVSPost2010PropOp34
 70
     1
102
RTVSPost2010Prop35
280
     0
102
RTVSPost2010PropOp35
 70
     1
102
RTVSPost2010Prop36
280
     0
102
RTVSPost2010PropOp36
 70
     1
102
RTVSPost2010Prop37
 90
       50
102
RTVSPost2010PropOp37
 70
     1
102
RTVSPost2010Prop38
140
0.0
102
RTVSPost2010PropOp38
 70
     1
102
RTVSPost2010Prop39
140
1.0
102
RTVSPost2010PropOp39
 70
     1
102
RTVSPost2010Prop40
 90
        0
102
RTVSPost2010PropOp40
 70
     1
102
RTVSPost2010Prop41ColorIndex
 90
       18
102
RTVSPost2010Prop41ColorRGB
 90
        0
102
RTVSPost2010PropOp41
 70
     1
102
RTVSPost2010Prop42
 90
       50
102
RTVSPost2010PropOp42
 70
     1
102
RTVSPost2010Prop43
 90
        3
102
RTVSPost2010PropOp43
 70
     1
102
RTVSPost2010Prop44ColorIndex
 90
        5
102
RTVSPost2010Prop44ColorRGB
 90
      255
102
RTVSPost2010PropOp44
 70
     1
102
RTVSPost2010Prop45
280
     0
102
RTVSPost2010PropOp45
 70
     1
102
RTVSPost2010Prop46
 90
       50
102
RTVSPost2010PropOp46
 70
     1
102
RTVSPost2010Prop47
 90
       50
102
RTVSPost2010PropOp47
 70
     1
102
RTVSPost2010Prop48
 90
       50
102
RTVSPost2010PropOp48
 70
     1
102
RTVSPost2010Prop49
280
     0
102
RTVSPost2010PropOp49
 70
     1
102
RTVSPost2010Prop50
 90
       50
102
RTVSPost2010PropOp50
 70
     1
102
RTVSPost2010Prop51ColorIndex
 90
      256
102
RTVSPost2010Prop51ColorRGB
 90
-16777216
102
RTVSPost2010PropOp51
 70
     0
102
RTVSPost2010Prop52
140
1.0
102
RTVSPost2010PropOp52
 70
     0
102
RTVSPost2010Prop53
 90
        2
102
RTVSPost2010PropOp53
 70
     1
102
RTVSPost2010Prop54
  1
strokes_ogs.tif
102
RTVSPost2010PropOp54
 70
     1
102
RTVSPost2010Prop55
280
     0
102
RTVSPost2010PropOp55
 70
     1
102
RTVSPost2010Prop56
140
1.0
102
RTVSPost2010PropOp56
 70
     1
102
RTVSPost2010Prop57
140
1.0
102
RTVSPost2010PropOp57
 70
     1
  0
XRECORD
  5
97
102
{ACAD_REACTORS
330
96
102
}
330
96
100
AcDbXrecord
280
     1
102
RTVSPropertyOp0
 70
     1
102
RTVSPropertyOp1
 70
     1
102
RTVSPropertyOp2
 70
     1
102
RTVSPropertyOp3
 70
     1
102
RTVSPropertyOp4
 70
     1
102
RTVSPropertyOp5
 70
     1
102
RTVSPropertyOp6
 70
     1
102
RTVSPropertyOp7
 70
     1
102
RTVSPropertyOp8
 70
     1
102
RTVSPropertyOp9
 70
     1
102
RTVSPropertyOp10
 70
     1
102
RTVSPropertyOp11
 70
     1
102
RTVSPropertyOp12
 70
     1
102
RTVSPropertyOp13
 70
     1
102
RTVSPropertyOp14
 70
     1
102
RTVSPropertyOp15
 70
     1
102
RTVSPropertyOp16
 70
     1
102
RTVSPropertyOp17
 70
     1
102
RTVSPropertyOp18
 70
     1
102
RTVSPropertyOp19
 70
     1
102
RTVSPropertyOp20
 70
     1
102
RTVSPropertyOp21
 70
     1
102
RTVSPropertyOp22
 70
     1
102
RTVSPropertyOp23
 70
     1
102
RTVSPropertyOp24
 70
     1
102
RTVSPropertyOp25
 70
     1
102
RTVSPropertyOp26
 70
     1
102
RTVSPropertyOp27
 70
     1
102
RTVSPropertyOp28
 70
     1
102
RTVSPropertyOp29
 70
     1
102
RTVSPropertyOp30
 70
     1
102
RTVSPropertyOp31
 70
     1
102
RTVSPropertyOp32
 70
     1
102
RTVSPropertyOp33
 70
     1
102
RTVSPropertyOp34
 70
     1
102
RTVSPropertyOp35
 70
     1
102
RTVSPropertyOp36
 70
     1
102
RTVSPropertyOp37
 70
     1
102
RTVSPropertyOp38
 70
     1
102
RTVSPropertyOp39
 70
     1
102
RTVSPropertyOp40
 70
     1
102
RTVSPropertyOp41
 70
     1
102
RTVSPropertyOp42
 70
     1
102
RTVSPropertyOp43
 70
     1
102
RTVSPropertyOp44
 70
     1
102
RTVSPropertyOp45
 70
     1
102
RTVSPropertyOp46
 70
     1
102
RTVSPropertyOp47
 70
     1
102
RTVSPropertyOp48
 70
     1
102
RTVSPropertyOp49
 70
     1
102
RTVSPropertyOp50
 70
     1
102
RTVSPropertyOp51
 70
     0
102
RTVSPropertyOp52
 70
     0
102
RTVSPropertyOp53
 70
     1
102
RTVSPropertyOp54
 70
     1
102
RTVSPropertyOp55
 70
     1
102
RTVSPropertyOp56
 70
     1
102
RTVSPropertyOp57
 70
     1
102
RTVSPost2010Prop28
280
     0
102
RTVSPost2010PropOp28
 70
     1
102
RTVSPost2010Prop29
280
     1
102
RTVSPost2010PropOp29
 70
     1
102
RTVSPost2010Prop30
280
     1
102
RTVSPost2010PropOp30
 70
     1
102
RTVSPost2010Prop31
280
     0
102
RTVSPost2010PropOp31
 70
     1
102
RTVSPost2010Prop32
280
     0
102
RTVSPost2010PropOp32
 70
     1
102
RTVSPost2010Prop33
280
     0
102
RTVSPost2010PropOp33
 70
     1
102
RTVSPost2010Prop34
280
     0
102
RTVSPost2010PropOp34
 70
     1
102
RTVSPost2010Prop35
280
     0
102
RTVSPost2010PropOp35
 70
     1
102
RTVSPost2010Prop36
280
     0
102
RTVSPost2010PropOp36
 70
     1
102
RTVSPost2010Prop37
 90
       50
102
RTVSPost2010PropOp37
 70
     1
102
RTVSPost2010Prop38
140
0.0
102
RTVSPost2010PropOp38
 70
     1
102
RTVSPost2010Prop39
140
1.0
102
RTVSPost2010PropOp39
 70
     1
102
RTVSPost2010Prop40
 90
        0
102
RTVSPost2010PropOp40
 70
     1
102
RTVSPost2010Prop41ColorIndex
 90
       18
102
RTVSPost2010Prop41ColorRGB
 90
        0
102
RTVSPost2010PropOp41
 70
     1
102
RTVSPost2010Prop42
 90
       50
102
RTVSPost2010PropOp42
 70
     1
102
RTVSPost2010Prop43
 90
        3
102
RTVSPost2010PropOp43
 70
     1
102
RTVSPost2010Prop44ColorIndex
 90
        5
102
RTVSPost2010Prop44ColorRGB
 90
      255
102
RTVSPost2010PropOp44
 70
     1
102
RTVSPost2010Prop45
280
     0
102
RTVSPost2010PropOp45
 70
     1
102
RTVSPost2010Prop46
 90
       50
102
RTVSPost2010PropOp46
 70
     1
102
RTVSPost2010Prop47
 90
       50
102
RTVSPost2010PropOp47
 70
     1
102
RTVSPost2010Prop48
 90
       50
102
RTVSPost2010PropOp48
 70
     1
102
RTVSPost2010Prop49
280
     0
102
RTVSPost2010PropOp49
 70
     1
102
RTVSPost2010Prop50
 90
       50
102
RTVSPost2010PropOp50
 70
     1
102
RTVSPost2010Prop51ColorIndex
 90
      256
102
RTVSPost2010Prop51ColorRGB
 90
-16777216
102
RTVSPost2010PropOp51
 70
     0
102
RTVSPost2010Prop52
140
1.0
102
RTVSPost2010PropOp52
 70
     0
102
RTVSPost2010Prop53
 90
        2
102
RTVSPost2010PropOp53
 70
     1
102
RTVSPost2010Prop54
  1
strokes_ogs.tif
102
RTVSPost2010PropOp54
 70
     1
102
RTVSPost2010Prop55
280
     0
102
RTVSPost2010PropOp55
 70
     1
102
RTVSPost2010Prop56
140
1.0
102
RTVSPost2010PropOp56
 70
     1
102
RTVSPost2010Prop57
140
1.0
102
RTVSPost2010PropOp57
 70
     1
  0
XRECORD
  5
99
102
{ACAD_REACTORS
330
98
102
}
330
98
100
AcDbXrecord
280
     1
102
RTVSPropertyOp0
 70
     1
102
RTVSPropertyOp1
 70
     1
102
RTVSPropertyOp2
 70
     1
102
RTVSPropertyOp3
 70
     1
102
RTVSPropertyOp4
 70
     1
102
RTVSPropertyOp5
 70
     1
102
RTVSPropertyOp6
 70
     1
102
RTVSPropertyOp7
 70
     1
102
RTVSPropertyOp8
 70
     1
102
RTVSPropertyOp9
 70
     1
102
RTVSPropertyOp10
 70
     1
102
RTVSPropertyOp11
 70
     1
102
RTVSPropertyOp12
 70
     1
102
RTVSPropertyOp13
 70
     1
102
RTVSPropertyOp14
 70
     1
102
RTVSPropertyOp15
 70
     1
102
RTVSPropertyOp16
 70
     1
102
RTVSPropertyOp17
 70
     1
102
RTVSPropertyOp18
 70
     1
102
RTVSPropertyOp19
 70
     1
102
RTVSPropertyOp20
 70
     1
102
RTVSPropertyOp21
 70
     1
102
RTVSPropertyOp22
 70
     1
102
RTVSPropertyOp23
 70
     1
102
RTVSPropertyOp24
 70
     1
102
RTVSPropertyOp25
 70
     1
102
RTVSPropertyOp26
 70
     1
102
RTVSPropertyOp27
 70
     1
102
RTVSPropertyOp28
 70
     1
102
RTVSPropertyOp29
 70
     1
102
RTVSPropertyOp30
 70
     1
102
RTVSPropertyOp31
 70
     1
102
RTVSPropertyOp32
 70
     1
102
RTVSPropertyOp33
 70
     1
102
RTVSPropertyOp34
 70
     1
102
RTVSPropertyOp35
 70
     1
102
RTVSPropertyOp36
 70
     1
102
RTVSPropertyOp37
 70
     1
102
RTVSPropertyOp38
 70
     1
102
RTVSPropertyOp39
 70
     1
102
RTVSPropertyOp40
 70
     1
102
RTVSPropertyOp41
 70
     1
102
RTVSPropertyOp42
 70
     1
102
RTVSPropertyOp43
 70
     1
102
RTVSPropertyOp44
 70
     1
102
RTVSPropertyOp45
 70
     1
102
RTVSPropertyOp46
 70
     1
102
RTVSPropertyOp47
 70
     1
102
RTVSPropertyOp48
 70
     1
102
RTVSPropertyOp49
 70
     1
102
RTVSPropertyOp50
 70
     1
102
RTVSPropertyOp51
 70
     0
102
RTVSPropertyOp52
 70
     0
102
RTVSPropertyOp53
 70
     1
102
RTVSPropertyOp54
 70
     1
102
RTVSPropertyOp55
 70
     1
102
RTVSPropertyOp56
 70
     1
102
RTVSPropertyOp57
 70
     1
102
RTVSPost2010Prop28
280
     0
102
RTVSPost2010PropOp28
 70
     1
102
RTVSPost2010Prop29
280
     1
102
RTVSPost2010PropOp29
 70
     1
102
RTVSPost2010Prop30
280
     1
102
RTVSPost2010PropOp30
 70
     1
102
RTVSPost2010Prop31
280
     0
102
RTVSPost2010PropOp31
 70
     1
102
RTVSPost2010Prop32
280
     0
102
RTVSPost2010PropOp32
 70
     1
102
RTVSPost2010Prop33
280
     0
102
RTVSPost2010PropOp33
 70
     1
102
RTVSPost2010Prop34
280
     0
102
RTVSPost2010PropOp34
 70
     1
102
RTVSPost2010Prop35
280
     0
102
RTVSPost2010PropOp35
 70
     1
102
RTVSPost2010Prop36
280
     0
102
RTVSPost2010PropOp36
 70
     1
102
RTVSPost2010Prop37
 90
       50
102
RTVSPost2010PropOp37
 70
     1
102
RTVSPost2010Prop38
140
0.0
102
RTVSPost2010PropOp38
 70
     1
102
RTVSPost2010Prop39
140
1.0
102
RTVSPost2010PropOp39
 70
     1
102
RTVSPost2010Prop40
 90
        0
102
RTVSPost2010PropOp40
 70
     1
102
RTVSPost2010Prop41ColorIndex
 90
       18
102
RTVSPost2010Prop41ColorRGB
 90
        0
102
RTVSPost2010PropOp41
 70
     1
102
RTVSPost2010Prop42
 90
       50
102
RTVSPost2010PropOp42
 70
     1
102
RTVSPost2010Prop43
 90
        3
102
RTVSPost2010PropOp43
 70
     1
102
RTVSPost2010Prop44ColorIndex
 90
        5
102
RTVSPost2010Prop44ColorRGB
 90
      255
102
RTVSPost2010PropOp44
 70
     1
102
RTVSPost2010Prop45
280
     0
102
RTVSPost2010PropOp45
 70
     1
102
RTVSPost2010Prop46
 90
       50
102
RTVSPost2010PropOp46
 70
     1
102
RTVSPost2010Prop47
 90
       50
102
RTVSPost2010PropOp47
 70
     1
102
RTVSPost2010Prop48
 90
       50
102
RTVSPost2010PropOp48
 70
     1
102
RTVSPost2010Prop49
280
     0
102
RTVSPost2010PropOp49
 70
     1
102
RTVSPost2010Prop50
 90
       50
102
RTVSPost2010PropOp50
 70
     1
102
RTVSPost2010Prop51ColorIndex
 90
      256
102
RTVSPost2010Prop51ColorRGB
 90
-16777216
102
RTVSPost2010PropOp51
 70
     0
102
RTVSPost2010Prop52
140
1.0
102
RTVSPost2010PropOp52
 70
     0
102
RTVSPost2010Prop53
 90
        2
102
RTVSPost2010PropOp53
 70
     1
102
RTVSPost2010Prop54
  1
strokes_ogs.tif
102
RTVSPost2010PropOp54
 70
     1
102
RTVSPost2010Prop55
280
     0
102
RTVSPost2010PropOp55
 70
     1
102
RTVSPost2010Prop56
140
1.0
102
RTVSPost2010PropOp56
 70
     1
102
RTVSPost2010Prop57
140
1.0
102
RTVSPost2010PropOp57
 70
     1
  0
XRECORD
  5
9B
102
{ACAD_REACTORS
330
9A
102
}
330
9A
100
AcDbXrecord
280
     1
102
RTVSPropertyOp0
 70
     1
102
RTVSPropertyOp1
 70
     1
102
RTVSPropertyOp2
 70
     1
102
RTVSPropertyOp3
 70
     1
102
RTVSPropertyOp4
 70
     1
102
RTVSPropertyOp5
 70
     1
102
RTVSPropertyOp6
 70
     1
102
RTVSPropertyOp7
 70
     1
102
RTVSPropertyOp8
 70
     1
102
RTVSPropertyOp9
 70
     1
102
RTVSPropertyOp10
 70
     1
102
RTVSPropertyOp11
 70
     1
102
RTVSPropertyOp12
 70
     1
102
RTVSPropertyOp13
 70
     1
102
RTVSPropertyOp14
 70
     1
102
RTVSPropertyOp15
 70
     1
102
RTVSPropertyOp16
 70
     1
102
RTVSPropertyOp17
 70
     1
102
RTVSPropertyOp18
 70
     1
102
RTVSPropertyOp19
 70
     1
102
RTVSPropertyOp20
 70
     1
102
RTVSPropertyOp21
 70
     1
102
RTVSPropertyOp22
 70
     1
102
RTVSPropertyOp23
 70
     1
102
RTVSPropertyOp24
 70
     1
102
RTVSPropertyOp25
 70
     1
102
RTVSPropertyOp26
 70
     1
102
RTVSPropertyOp27
 70
     1
102
RTVSPropertyOp28
 70
     1
102
RTVSPropertyOp29
 70
     1
102
RTVSPropertyOp30
 70
     1
102
RTVSPropertyOp31
 70
     1
102
RTVSPropertyOp32
 70
     1
102
RTVSPropertyOp33
 70
     1
102
RTVSPropertyOp34
 70
     1
102
RTVSPropertyOp35
 70
     1
102
RTVSPropertyOp36
 70
     1
102
RTVSPropertyOp37
 70
     1
102
RTVSPropertyOp38
 70
     1
102
RTVSPropertyOp39
 70
     1
102
RTVSPropertyOp40
 70
     1
102
RTVSPropertyOp41
 70
     1
102
RTVSPropertyOp42
 70
     1
102
RTVSPropertyOp43
 70
     1
102
RTVSPropertyOp44
 70
     1
102
RTVSPropertyOp45
 70
     1
102
RTVSPropertyOp46
 70
     1
102
RTVSPropertyOp47
 70
     1
102
RTVSPropertyOp48
 70
     1
102
RTVSPropertyOp49
 70
     1
102
RTVSPropertyOp50
 70
     1
102
RTVSPropertyOp51
 70
     0
102
RTVSPropertyOp52
 70
     0
102
RTVSPropertyOp53
 70
     1
102
RTVSPropertyOp54
 70
     1
102
RTVSPropertyOp55
 70
     1
102
RTVSPropertyOp56
 70
     1
102
RTVSPropertyOp57
 70
     1
102
RTVSPost2010Prop28
280
     0
102
RTVSPost2010PropOp28
 70
     1
102
RTVSPost2010Prop29
280
     1
102
RTVSPost2010PropOp29
 70
     1
102
RTVSPost2010Prop30
280
     1
102
RTVSPost2010PropOp30
 70
     1
102
RTVSPost2010Prop31
280
     0
102
RTVSPost2010PropOp31
 70
     1
102
RTVSPost2010Prop32
280
     0
102
RTVSPost2010PropOp32
 70
     1
102
RTVSPost2010Prop33
280
     0
102
RTVSPost2010PropOp33
 70
     1
102
RTVSPost2010Prop34
280
     0
102
RTVSPost2010PropOp34
 70
     1
102
RTVSPost2010Prop35
280
     0
102
RTVSPost2010PropOp35
 70
     1
102
RTVSPost2010Prop36
280
     0
102
RTVSPost2010PropOp36
 70
     1
102
RTVSPost2010Prop37
 90
       50
102
RTVSPost2010PropOp37
 70
     1
102
RTVSPost2010Prop38
140
0.0
102
RTVSPost2010PropOp38
 70
     1
102
RTVSPost2010Prop39
140
1.0
102
RTVSPost2010PropOp39
 70
     1
102
RTVSPost2010Prop40
 90
        0
102
RTVSPost2010PropOp40
 70
     1
102
RTVSPost2010Prop41ColorIndex
 90
       18
102
RTVSPost2010Prop41ColorRGB
 90
        0
102
RTVSPost2010PropOp41
 70
     1
102
RTVSPost2010Prop42
 90
       50
102
RTVSPost2010PropOp42
 70
     1
102
RTVSPost2010Prop43
 90
        3
102
RTVSPost2010PropOp43
 70
     1
102
RTVSPost2010Prop44ColorIndex
 90
        5
102
RTVSPost2010Prop44ColorRGB
 90
      255
102
RTVSPost2010PropOp44
 70
     1
102
RTVSPost2010Prop45
280
     0
102
RTVSPost2010PropOp45
 70
     1
102
RTVSPost2010Prop46
 90
       50
102
RTVSPost2010PropOp46
 70
     1
102
RTVSPost2010Prop47
 90
       50
102
RTVSPost2010PropOp47
 70
     1
102
RTVSPost2010Prop48
 90
       50
102
RTVSPost2010PropOp48
 70
     1
102
RTVSPost2010Prop49
280
     0
102
RTVSPost2010PropOp49
 70
     1
102
RTVSPost2010Prop50
 90
       50
102
RTVSPost2010PropOp50
 70
     1
102
RTVSPost2010Prop51ColorIndex
 90
      256
102
RTVSPost2010Prop51ColorRGB
 90
-16777216
102
RTVSPost2010PropOp51
 70
     0
102
RTVSPost2010Prop52
140
1.0
102
RTVSPost2010PropOp52
 70
     0
102
RTVSPost2010Prop53
 90
        2
102
RTVSPost2010PropOp53
 70
     1
102
RTVSPost2010Prop54
  1
strokes_ogs.tif
102
RTVSPost2010PropOp54
 70
     1
102
RTVSPost2010Prop55
280
     0
102
RTVSPost2010PropOp55
 70
     1
102
RTVSPost2010Prop56
140
1.0
102
RTVSPost2010PropOp56
 70
     1
102
RTVSPost2010Prop57
140
1.0
102
RTVSPost2010PropOp57
 70
     1
  0
XRECORD
  5
A1
102
{ACAD_REACTORS
330
A0
102
}
330
A0
100
AcDbXrecord
280
     1
102
RTVSPropertyOp0
 70
     1
102
RTVSPropertyOp1
 70
     1
102
RTVSPropertyOp2
 70
     1
102
RTVSPropertyOp3
 70
     1
102
RTVSPropertyOp4
 70
     1
102
RTVSPropertyOp5
 70
     1
102
RTVSPropertyOp6
 70
     1
102
RTVSPropertyOp7
 70
     1
102
RTVSPropertyOp8
 70
     1
102
RTVSPropertyOp9
 70
     1
102
RTVSPropertyOp10
 70
     1
102
RTVSPropertyOp11
 70
     1
102
RTVSPropertyOp12
 70
     1
102
RTVSPropertyOp13
 70
     1
102
RTVSPropertyOp14
 70
     1
102
RTVSPropertyOp15
 70
     1
102
RTVSPropertyOp16
 70
     1
102
RTVSPropertyOp17
 70
     1
102
RTVSPropertyOp18
 70
     1
102
RTVSPropertyOp19
 70
     1
102
RTVSPropertyOp20
 70
     1
102
RTVSPropertyOp21
 70
     1
102
RTVSPropertyOp22
 70
     1
102
RTVSPropertyOp23
 70
     1
102
RTVSPropertyOp24
 70
     1
102
RTVSPropertyOp25
 70
     1
102
RTVSPropertyOp26
 70
     1
102
RTVSPropertyOp27
 70
     1
102
RTVSPropertyOp28
 70
     1
102
RTVSPropertyOp29
 70
     1
102
RTVSPropertyOp30
 70
     1
102
RTVSPropertyOp31
 70
     1
102
RTVSPropertyOp32
 70
     1
102
RTVSPropertyOp33
 70
     1
102
RTVSPropertyOp34
 70
     1
102
RTVSPropertyOp35
 70
     1
102
RTVSPropertyOp36
 70
     1
102
RTVSPropertyOp37
 70
     1
102
RTVSPropertyOp38
 70
     1
102
RTVSPropertyOp39
 70
     1
102
RTVSPropertyOp40
 70
     1
102
RTVSPropertyOp41
 70
     1
102
RTVSPropertyOp42
 70
     1
102
RTVSPropertyOp43
 70
     1
102
RTVSPropertyOp44
 70
     1
102
RTVSPropertyOp45
 70
     1
102
RTVSPropertyOp46
 70
     1
102
RTVSPropertyOp47
 70
     1
102
RTVSPropertyOp48
 70
     1
102
RTVSPropertyOp49
 70
     1
102
RTVSPropertyOp50
 70
     1
102
RTVSPropertyOp51
 70
     0
102
RTVSPropertyOp52
 70
     0
102
RTVSPropertyOp53
 70
     1
102
RTVSPropertyOp54
 70
     1
102
RTVSPropertyOp55
 70
     1
102
RTVSPropertyOp56
 70
     1
102
RTVSPropertyOp57
 70
     1
102
RTVSPost2010Prop28
280
     0
102
RTVSPost2010PropOp28
 70
     1
102
RTVSPost2010Prop29
280
     1
102
RTVSPost2010PropOp29
 70
     1
102
RTVSPost2010Prop30
280
     1
102
RTVSPost2010PropOp30
 70
     1
102
RTVSPost2010Prop31
280
     0
102
RTVSPost2010PropOp31
 70
     1
102
RTVSPost2010Prop32
280
     0
102
RTVSPost2010PropOp32
 70
     1
102
RTVSPost2010Prop33
280
     0
102
RTVSPost2010PropOp33
 70
     1
102
RTVSPost2010Prop34
280
     0
102
RTVSPost2010PropOp34
 70
     1
102
RTVSPost2010Prop35
280
     0
102
RTVSPost2010PropOp35
 70
     1
102
RTVSPost2010Prop36
280
     0
102
RTVSPost2010PropOp36
 70
     1
102
RTVSPost2010Prop37
 90
       50
102
RTVSPost2010PropOp37
 70
     1
102
RTVSPost2010Prop38
140
0.0
102
RTVSPost2010PropOp38
 70
     1
102
RTVSPost2010Prop39
140
1.0
102
RTVSPost2010PropOp39
 70
     1
102
RTVSPost2010Prop40
 90
        0
102
RTVSPost2010PropOp40
 70
     1
102
RTVSPost2010Prop41ColorIndex
 90
       18
102
RTVSPost2010Prop41ColorRGB
 90
        0
102
RTVSPost2010PropOp41
 70
     1
102
RTVSPost2010Prop42
 90
       50
102
RTVSPost2010PropOp42
 70
     1
102
RTVSPost2010Prop43
 90
        3
102
RTVSPost2010PropOp43
 70
     1
102
RTVSPost2010Prop44ColorIndex
 90
        5
102
RTVSPost2010Prop44ColorRGB
 90
      255
102
RTVSPost2010PropOp44
 70
     1
102
RTVSPost2010Prop45
280
     0
102
RTVSPost2010PropOp45
 70
     1
102
RTVSPost2010Prop46
 90
       50
102
RTVSPost2010PropOp46
 70
     1
102
RTVSPost2010Prop47
 90
       50
102
RTVSPost2010PropOp47
 70
     1
102
RTVSPost2010Prop48
 90
       50
102
RTVSPost2010PropOp48
 70
     1
102
RTVSPost2010Prop49
280
     0
102
RTVSPost2010PropOp49
 70
     1
102
RTVSPost2010Prop50
 90
       50
102
RTVSPost2010PropOp50
 70
     1
102
RTVSPost2010Prop51ColorIndex
 90
      256
102
RTVSPost2010Prop51ColorRGB
 90
-16777216
102
RTVSPost2010PropOp51
 70
     0
102
RTVSPost2010Prop52
140
1.0
102
RTVSPost2010PropOp52
 70
     0
102
RTVSPost2010Prop53
 90
        2
102
RTVSPost2010PropOp53
 70
     1
102
RTVSPost2010Prop54
  1
strokes_ogs.tif
102
RTVSPost2010PropOp54
 70
     1
102
RTVSPost2010Prop55
280
     0
102
RTVSPost2010PropOp55
 70
     1
102
RTVSPost2010Prop56
140
1.0
102
RTVSPost2010PropOp56
 70
     1
102
RTVSPost2010Prop57
140
1.0
102
RTVSPost2010PropOp57
 70
     1
  0
XRECORD
  5
B5
102
{ACAD_REACTORS
330
B4
102
}
330
B4
100
AcDbXrecord
280
     1
102
RTVSPropertyOp0
 70
     0
102
RTVSPropertyOp1
 70
     0
102
RTVSPropertyOp2
 70
     0
102
RTVSPropertyOp3
 70
     0
102
RTVSPropertyOp4
 70
     0
102
RTVSPropertyOp5
 70
     0
102
RTVSPropertyOp6
 70
     0
102
RTVSPropertyOp7
 70
     0
102
RTVSPropertyOp8
 70
     0
102
RTVSPropertyOp9
 70
     0
102
RTVSPropertyOp10
 70
     0
102
RTVSPropertyOp11
 70
     0
102
RTVSPropertyOp12
 70
     0
102
RTVSPropertyOp13
 70
     0
102
RTVSPropertyOp14
 70
     2
102
RTVSPropertyOp15
 70
     0
102
RTVSPropertyOp16
 70
     0
102
RTVSPropertyOp17
 70
     0
102
RTVSPropertyOp18
 70
     0
102
RTVSPropertyOp19
 70
     0
102
RTVSPropertyOp20
 70
     0
102
RTVSPropertyOp21
 70
     0
102
RTVSPropertyOp22
 70
     0
102
RTVSPropertyOp23
 70
     0
102
RTVSPropertyOp24
 70
     0
102
RTVSPropertyOp25
 70
     0
102
RTVSPropertyOp26
 70
     0
102
RTVSPropertyOp27
 70
     0
102
RTVSPropertyOp28
 70
     0
102
RTVSPropertyOp29
 70
     0
102
RTVSPropertyOp30
 70
     0
102
RTVSPropertyOp31
 70
     0
102
RTVSPropertyOp32
 70
     0
102
RTVSPropertyOp33
 70
     0
102
RTVSPropertyOp34
 70
     0
102
RTVSPropertyOp35
 70
     0
102
RTVSPropertyOp36
 70
     0
102
RTVSPropertyOp37
 70
     0
102
RTVSPropertyOp38
 70
     0
102
RTVSPropertyOp39
 70
     0
102
RTVSPropertyOp40
 70
     0
102
RTVSPropertyOp41
 70
     0
102
RTVSPropertyOp42
 70
     0
102
RTVSPropertyOp43
 70
     0
102
RTVSPropertyOp44
 70
     0
102
RTVSPropertyOp45
 70
     0
102
RTVSPropertyOp46
 70
     0
102
RTVSPropertyOp47
 70
     0
102
RTVSPropertyOp48
 70
     0
102
RTVSPropertyOp49
 70
     0
102
RTVSPropertyOp50
 70
     0
102
RTVSPropertyOp51
 70
     0
102
RTVSPropertyOp52
 70
     0
102
RTVSPropertyOp53
 70
     0
102
RTVSPropertyOp54
 70
     0
102
RTVSPropertyOp55
 70
     0
102
RTVSPropertyOp56
 70
     0
102
RTVSPropertyOp57
 70
     0
102
RTVSPost2010Prop28
280
     0
102
RTVSPost2010PropOp28
 70
     0
102
RTVSPost2010Prop29
280
     1
102
RTVSPost2010PropOp29
 70
     0
102
RTVSPost2010Prop30
280
     1
102
RTVSPost2010PropOp30
 70
     0
102
RTVSPost2010Prop31
280
     0
102
RTVSPost2010PropOp31
 70
     0
102
RTVSPost2010Prop32
280
     0
102
RTVSPost2010PropOp32
 70
     0
102
RTVSPost2010Prop33
280
     0
102
RTVSPost2010PropOp33
 70
     0
102
RTVSPost2010Prop34
280
     0
102
RTVSPost2010PropOp34
 70
     0
102
RTVSPost2010Prop35
280
     0
102
RTVSPost2010PropOp35
 70
     0
102
RTVSPost2010Prop36
280
     0
102
RTVSPost2010PropOp36
 70
     0
102
RTVSPost2010Prop37
 90
       50
102
RTVSPost2010PropOp37
 70
     0
102
RTVSPost2010Prop38
140
0.0
102
RTVSPost2010PropOp38
 70
     0
102
RTVSPost2010Prop39
140
1.0
102
RTVSPost2010PropOp39
 70
     0
102
RTVSPost2010Prop40
 90
        0
102
RTVSPost2010PropOp40
 70
     0
102
RTVSPost2010Prop41ColorIndex
 90
       18
102
RTVSPost2010Prop41ColorRGB
 90
        0
102
RTVSPost2010PropOp41
 70
     0
102
RTVSPost2010Prop42
 90
       50
102
RTVSPost2010PropOp42
 70
     0
102
RTVSPost2010Prop43
 90
        3
102
RTVSPost2010PropOp43
 70
     0
102
RTVSPost2010Prop44ColorIndex
 90
        5
102
RTVSPost2010Prop44ColorRGB
 90
      255
102
RTVSPost2010PropOp44
 70
     0
102
RTVSPost2010Prop45
280
     0
102
RTVSPost2010PropOp45
 70
     0
102
RTVSPost2010Prop46
 90
       50
102
RTVSPost2010PropOp46
 70
     0
102
RTVSPost2010Prop47
 90
       50
102
RTVSPost2010PropOp47
 70
     0
102
RTVSPost2010Prop48
 90
       50
102
RTVSPost2010PropOp48
 70
     0
102
RTVSPost2010Prop49
280
     0
102
RTVSPost2010PropOp49
 70
     0
102
RTVSPost2010Prop50
 90
       50
102
RTVSPost2010PropOp50
 70
     0
102
RTVSPost2010Prop51ColorIndex
 90
      256
102
RTVSPost2010Prop51ColorRGB
 90
-16777216
102
RTVSPost2010PropOp51
 70
     0
102
RTVSPost2010Prop52
140
1.0
102
RTVSPost2010PropOp52
 70
     0
102
RTVSPost2010Prop53
 90
        2
102
RTVSPost2010PropOp53
 70
     0
102
RTVSPost2010Prop54
  1
strokes_ogs.tif
102
RTVSPost2010PropOp54
 70
     0
102
RTVSPost2010Prop55
280
     0
102
RTVSPost2010PropOp55
 70
     0
102
RTVSPost2010Prop56
140
1.0
102
RTVSPost2010PropOp56
 70
     0
102
RTVSPost2010Prop57
140
1.0
102
RTVSPost2010PropOp57
 70
     0
  0
XRECORD
  5
AF
102
{ACAD_REACTORS
330
AE
102
}
330
AE
100
AcDbXrecord
280
     1
102
RTVSPropertyOp0
 70
     1
102
RTVSPropertyOp1
 70
     1
102
RTVSPropertyOp2
 70
     1
102
RTVSPropertyOp3
 70
     1
102
RTVSPropertyOp4
 70
     1
102
RTVSPropertyOp5
 70
     1
102
RTVSPropertyOp6
 70
     1
102
RTVSPropertyOp7
 70
     1
102
RTVSPropertyOp8
 70
     1
102
RTVSPropertyOp9
 70
     1
102
RTVSPropertyOp10
 70
     1
102
RTVSPropertyOp11
 70
     1
102
RTVSPropertyOp12
 70
     1
102
RTVSPropertyOp13
 70
     1
102
RTVSPropertyOp14
 70
     1
102
RTVSPropertyOp15
 70
     1
102
RTVSPropertyOp16
 70
     1
102
RTVSPropertyOp17
 70
     1
102
RTVSPropertyOp18
 70
     1
102
RTVSPropertyOp19
 70
     1
102
RTVSPropertyOp20
 70
     1
102
RTVSPropertyOp21
 70
     1
102
RTVSPropertyOp22
 70
     1
102
RTVSPropertyOp23
 70
     1
102
RTVSPropertyOp24
 70
     1
102
RTVSPropertyOp25
 70
     1
102
RTVSPropertyOp26
 70
     1
102
RTVSPropertyOp27
 70
     1
102
RTVSPropertyOp28
 70
     1
102
RTVSPropertyOp29
 70
     1
102
RTVSPropertyOp30
 70
     1
102
RTVSPropertyOp31
 70
     1
102
RTVSPropertyOp32
 70
     1
102
RTVSPropertyOp33
 70
     1
102
RTVSPropertyOp34
 70
     1
102
RTVSPropertyOp35
 70
     1
102
RTVSPropertyOp36
 70
     1
102
RTVSPropertyOp37
 70
     1
102
RTVSPropertyOp38
 70
     1
102
RTVSPropertyOp39
 70
     1
102
RTVSPropertyOp40
 70
     1
102
RTVSPropertyOp41
 70
     1
102
RTVSPropertyOp42
 70
     1
102
RTVSPropertyOp43
 70
     1
102
RTVSPropertyOp44
 70
     1
102
RTVSPropertyOp45
 70
     1
102
RTVSPropertyOp46
 70
     1
102
RTVSPropertyOp47
 70
     1
102
RTVSPropertyOp48
 70
     1
102
RTVSPropertyOp49
 70
     1
102
RTVSPropertyOp50
 70
     1
102
RTVSPropertyOp51
 70
     0
102
RTVSPropertyOp52
 70
     0
102
RTVSPropertyOp53
 70
     1
102
RTVSPropertyOp54
 70
     1
102
RTVSPropertyOp55
 70
     1
102
RTVSPropertyOp56
 70
     1
102
RTVSPropertyOp57
 70
     1
102
RTVSPost2010Prop28
280
     0
102
RTVSPost2010PropOp28
 70
     1
102
RTVSPost2010Prop29
280
     1
102
RTVSPost2010PropOp29
 70
     1
102
RTVSPost2010Prop30
280
     1
102
RTVSPost2010PropOp30
 70
     1
102
RTVSPost2010Prop31
280
     0
102
RTVSPost2010PropOp31
 70
     1
102
RTVSPost2010Prop32
280
     0
102
RTVSPost2010PropOp32
 70
     1
102
RTVSPost2010Prop33
280
     0
102
RTVSPost2010PropOp33
 70
     1
102
RTVSPost2010Prop34
280
     0
102
RTVSPost2010PropOp34
 70
     1
102
RTVSPost2010Prop35
280
     0
102
RTVSPost2010PropOp35
 70
     1
102
RTVSPost2010Prop36
280
     0
102
RTVSPost2010PropOp36
 70
     1
102
RTVSPost2010Prop37
 90
       50
102
RTVSPost2010PropOp37
 70
     1
102
RTVSPost2010Prop38
140
0.0
102
RTVSPost2010PropOp38
 70
     1
102
RTVSPost2010Prop39
140
1.0
102
RTVSPost2010PropOp39
 70
     1
102
RTVSPost2010Prop40
 90
        0
102
RTVSPost2010PropOp40
 70
     1
102
RTVSPost2010Prop41ColorIndex
 90
       18
102
RTVSPost2010Prop41ColorRGB
 90
        0
102
RTVSPost2010PropOp41
 70
     1
102
RTVSPost2010Prop42
 90
       50
102
RTVSPost2010PropOp42
 70
     1
102
RTVSPost2010Prop43
 90
        3
102
RTVSPost2010PropOp43
 70
     1
102
RTVSPost2010Prop44ColorIndex
 90
        5
102
RTVSPost2010Prop44ColorRGB
 90
      255
102
RTVSPost2010PropOp44
 70
     1
102
RTVSPost2010Prop45
280
     0
102
RTVSPost2010PropOp45
 70
     1
102
RTVSPost2010Prop46
 90
       50
102
RTVSPost2010PropOp46
 70
     1
102
RTVSPost2010Prop47
 90
       50
102
RTVSPost2010PropOp47
 70
     1
102
RTVSPost2010Prop48
 90
       50
102
RTVSPost2010PropOp48
 70
     1
102
RTVSPost2010Prop49
280
     0
102
RTVSPost2010PropOp49
 70
     1
102
RTVSPost2010Prop50
 90
       50
102
RTVSPost2010PropOp50
 70
     1
102
RTVSPost2010Prop51ColorIndex
 90
      256
102
RTVSPost2010Prop51ColorRGB
 90
-16777216
102
RTVSPost2010PropOp51
 70
     0
102
RTVSPost2010Prop52
140
1.0
102
RTVSPost2010PropOp52
 70
     0
102
RTVSPost2010Prop53
 90
        2
102
RTVSPost2010PropOp53
 70
     1
102
RTVSPost2010Prop54
  1
strokes_ogs.tif
102
RTVSPost2010PropOp54
 70
     1
102
RTVSPost2010Prop55
280
     0
102
RTVSPost2010PropOp55
 70
     1
102
RTVSPost2010Prop56
140
1.0
102
RTVSPost2010PropOp56
 70
     1
102
RTVSPost2010Prop57
140
1.0
102
RTVSPost2010PropOp57
 70
     1
  0
XRECORD
  5
B7
102
{ACAD_REACTORS
330
B6
102
}
330
B6
100
AcDbXrecord
280
     1
102
RTVSPropertyOp0
 70
     0
102
RTVSPropertyOp1
 70
     0
102
RTVSPropertyOp2
 70
     0
102
RTVSPropertyOp3
 70
     0
102
RTVSPropertyOp4
 70
     0
102
RTVSPropertyOp5
 70
     0
102
RTVSPropertyOp6
 70
     0
102
RTVSPropertyOp7
 70
     0
102
RTVSPropertyOp8
 70
     0
102
RTVSPropertyOp9
 70
     0
102
RTVSPropertyOp10
 70
     0
102
RTVSPropertyOp11
 70
     0
102
RTVSPropertyOp12
 70
     0
102
RTVSPropertyOp13
 70
     0
102
RTVSPropertyOp14
 70
     2
102
RTVSPropertyOp15
 70
     0
102
RTVSPropertyOp16
 70
     0
102
RTVSPropertyOp17
 70
     0
102
RTVSPropertyOp18
 70
     0
102
RTVSPropertyOp19
 70
     0
102
RTVSPropertyOp20
 70
     0
102
RTVSPropertyOp21
 70
     0
102
RTVSPropertyOp22
 70
     0
102
RTVSPropertyOp23
 70
     0
102
RTVSPropertyOp24
 70
     0
102
RTVSPropertyOp25
 70
     0
102
RTVSPropertyOp26
 70
     0
102
RTVSPropertyOp27
 70
     0
102
RTVSPropertyOp28
 70
     0
102
RTVSPropertyOp29
 70
     0
102
RTVSPropertyOp30
 70
     0
102
RTVSPropertyOp31
 70
     0
102
RTVSPropertyOp32
 70
     0
102
RTVSPropertyOp33
 70
     0
102
RTVSPropertyOp34
 70
     0
102
RTVSPropertyOp35
 70
     0
102
RTVSPropertyOp36
 70
     0
102
RTVSPropertyOp37
 70
     0
102
RTVSPropertyOp38
 70
     0
102
RTVSPropertyOp39
 70
     0
102
RTVSPropertyOp40
 70
     0
102
RTVSPropertyOp41
 70
     0
102
RTVSPropertyOp42
 70
     0
102
RTVSPropertyOp43
 70
     0
102
RTVSPropertyOp44
 70
     0
102
RTVSPropertyOp45
 70
     0
102
RTVSPropertyOp46
 70
     0
102
RTVSPropertyOp47
 70
     0
102
RTVSPropertyOp48
 70
     0
102
RTVSPropertyOp49
 70
     0
102
RTVSPropertyOp50
 70
     0
102
RTVSPropertyOp51
 70
     0
102
RTVSPropertyOp52
 70
     0
102
RTVSPropertyOp53
 70
     0
102
RTVSPropertyOp54
 70
     0
102
RTVSPropertyOp55
 70
     0
102
RTVSPropertyOp56
 70
     0
102
RTVSPropertyOp57
 70
     0
102
RTVSPost2010Prop28
280
     0
102
RTVSPost2010PropOp28
 70
     0
102
RTVSPost2010Prop29
280
     1
102
RTVSPost2010PropOp29
 70
     0
102
RTVSPost2010Prop30
280
     1
102
RTVSPost2010PropOp30
 70
     0
102
RTVSPost2010Prop31
280
     0
102
RTVSPost2010PropOp31
 70
     0
102
RTVSPost2010Prop32
280
     0
102
RTVSPost2010PropOp32
 70
     0
102
RTVSPost2010Prop33
280
     0
102
RTVSPost2010PropOp33
 70
     0
102
RTVSPost2010Prop34
280
     0
102
RTVSPost2010PropOp34
 70
     0
102
RTVSPost2010Prop35
280
     0
102
RTVSPost2010PropOp35
 70
     0
102
RTVSPost2010Prop36
280
     0
102
RTVSPost2010PropOp36
 70
     0
102
RTVSPost2010Prop37
 90
       50
102
RTVSPost2010PropOp37
 70
     0
102
RTVSPost2010Prop38
140
0.0
102
RTVSPost2010PropOp38
 70
     0
102
RTVSPost2010Prop39
140
1.0
102
RTVSPost2010PropOp39
 70
     0
102
RTVSPost2010Prop40
 90
        0
102
RTVSPost2010PropOp40
 70
     0
102
RTVSPost2010Prop41ColorIndex
 90
       18
102
RTVSPost2010Prop41ColorRGB
 90
        0
102
RTVSPost2010PropOp41
 70
     0
102
RTVSPost2010Prop42
 90
       50
102
RTVSPost2010PropOp42
 70
     0
102
RTVSPost2010Prop43
 90
        3
102
RTVSPost2010PropOp43
 70
     0
102
RTVSPost2010Prop44ColorIndex
 90
        5
102
RTVSPost2010Prop44ColorRGB
 90
      255
102
RTVSPost2010PropOp44
 70
     0
102
RTVSPost2010Prop45
280
     0
102
RTVSPost2010PropOp45
 70
     0
102
RTVSPost2010Prop46
 90
       50
102
RTVSPost2010PropOp46
 70
     0
102
RTVSPost2010Prop47
 90
       50
102
RTVSPost2010PropOp47
 70
     0
102
RTVSPost2010Prop48
 90
       50
102
RTVSPost2010PropOp48
 70
     0
102
RTVSPost2010Prop49
280
     0
102
RTVSPost2010PropOp49
 70
     0
102
RTVSPost2010Prop50
 90
       50
102
RTVSPost2010PropOp50
 70
     0
102
RTVSPost2010Prop51ColorIndex
 90
      256
102
RTVSPost2010Prop51ColorRGB
 90
-16777216
102
RTVSPost2010PropOp51
 70
     0
102
RTVSPost2010Prop52
140
1.0
102
RTVSPost2010PropOp52
 70
     0
102
RTVSPost2010Prop53
 90
        2
102
RTVSPost2010PropOp53
 70
     0
102
RTVSPost2010Prop54
  1
strokes_ogs.tif
102
RTVSPost2010PropOp54
 70
     0
102
RTVSPost2010Prop55
280
     0
102
RTVSPost2010PropOp55
 70
     0
102
RTVSPost2010Prop56
140
1.0
102
RTVSPost2010PropOp56
 70
     0
102
RTVSPost2010Prop57
140
1.0
102
RTVSPost2010PropOp57
 70
     0
  0
XRECORD
  5
A5
102
{ACAD_REACTORS
330
A4
102
}
330
A4
100
AcDbXrecord
280
     1
102
RTVSPropertyOp0
 70
     1
102
RTVSPropertyOp1
 70
     1
102
RTVSPropertyOp2
 70
     1
102
RTVSPropertyOp3
 70
     1
102
RTVSPropertyOp4
 70
     1
102
RTVSPropertyOp5
 70
     1
102
RTVSPropertyOp6
 70
     1
102
RTVSPropertyOp7
 70
     1
102
RTVSPropertyOp8
 70
     1
102
RTVSPropertyOp9
 70
     1
102
RTVSPropertyOp10
 70
     1
102
RTVSPropertyOp11
 70
     1
102
RTVSPropertyOp12
 70
     1
102
RTVSPropertyOp13
 70
     1
102
RTVSPropertyOp14
 70
     1
102
RTVSPropertyOp15
 70
     1
102
RTVSPropertyOp16
 70
     1
102
RTVSPropertyOp17
 70
     1
102
RTVSPropertyOp18
 70
     1
102
RTVSPropertyOp19
 70
     1
102
RTVSPropertyOp20
 70
     1
102
RTVSPropertyOp21
 70
     1
102
RTVSPropertyOp22
 70
     1
102
RTVSPropertyOp23
 70
     1
102
RTVSPropertyOp24
 70
     1
102
RTVSPropertyOp25
 70
     1
102
RTVSPropertyOp26
 70
     1
102
RTVSPropertyOp27
 70
     1
102
RTVSPropertyOp28
 70
     1
102
RTVSPropertyOp29
 70
     1
102
RTVSPropertyOp30
 70
     1
102
RTVSPropertyOp31
 70
     1
102
RTVSPropertyOp32
 70
     1
102
RTVSPropertyOp33
 70
     1
102
RTVSPropertyOp34
 70
     1
102
RTVSPropertyOp35
 70
     1
102
RTVSPropertyOp36
 70
     1
102
RTVSPropertyOp37
 70
     1
102
RTVSPropertyOp38
 70
     1
102
RTVSPropertyOp39
 70
     1
102
RTVSPropertyOp40
 70
     1
102
RTVSPropertyOp41
 70
     1
102
RTVSPropertyOp42
 70
     1
102
RTVSPropertyOp43
 70
     1
102
RTVSPropertyOp44
 70
     1
102
RTVSPropertyOp45
 70
     1
102
RTVSPropertyOp46
 70
     1
102
RTVSPropertyOp47
 70
     1
102
RTVSPropertyOp48
 70
     1
102
RTVSPropertyOp49
 70
     1
102
RTVSPropertyOp50
 70
     1
102
RTVSPropertyOp51
 70
     0
102
RTVSPropertyOp52
 70
     0
102
RTVSPropertyOp53
 70
     1
102
RTVSPropertyOp54
 70
     1
102
RTVSPropertyOp55
 70
     1
102
RTVSPropertyOp56
 70
     1
102
RTVSPropertyOp57
 70
     1
102
RTVSPost2010Prop28
280
     0
102
RTVSPost2010PropOp28
 70
     1
102
RTVSPost2010Prop29
280
     1
102
RTVSPost2010PropOp29
 70
     1
102
RTVSPost2010Prop30
280
     1
102
RTVSPost2010PropOp30
 70
     1
102
RTVSPost2010Prop31
280
     0
102
RTVSPost2010PropOp31
 70
     1
102
RTVSPost2010Prop32
280
     0
102
RTVSPost2010PropOp32
 70
     1
102
RTVSPost2010Prop33
280
     0
102
RTVSPost2010PropOp33
 70
     1
102
RTVSPost2010Prop34
280
     0
102
RTVSPost2010PropOp34
 70
     1
102
RTVSPost2010Prop35
280
     0
102
RTVSPost2010PropOp35
 70
     1
102
RTVSPost2010Prop36
280
     0
102
RTVSPost2010PropOp36
 70
     1
102
RTVSPost2010Prop37
 90
       50
102
RTVSPost2010PropOp37
 70
     1
102
RTVSPost2010Prop38
140
0.0
102
RTVSPost2010PropOp38
 70
     1
102
RTVSPost2010Prop39
140
1.0
102
RTVSPost2010PropOp39
 70
     1
102
RTVSPost2010Prop40
 90
        0
102
RTVSPost2010PropOp40
 70
     1
102
RTVSPost2010Prop41ColorIndex
 90
       18
102
RTVSPost2010Prop41ColorRGB
 90
        0
102
RTVSPost2010PropOp41
 70
     1
102
RTVSPost2010Prop42
 90
       50
102
RTVSPost2010PropOp42
 70
     1
102
RTVSPost2010Prop43
 90
        3
102
RTVSPost2010PropOp43
 70
     1
102
RTVSPost2010Prop44ColorIndex
 90
        5
102
RTVSPost2010Prop44ColorRGB
 90
      255
102
RTVSPost2010PropOp44
 70
     1
102
RTVSPost2010Prop45
280
     0
102
RTVSPost2010PropOp45
 70
     1
102
RTVSPost2010Prop46
 90
       50
102
RTVSPost2010PropOp46
 70
     1
102
RTVSPost2010Prop47
 90
       50
102
RTVSPost2010PropOp47
 70
     1
102
RTVSPost2010Prop48
 90
       50
102
RTVSPost2010PropOp48
 70
     1
102
RTVSPost2010Prop49
280
     0
102
RTVSPost2010PropOp49
 70
     1
102
RTVSPost2010Prop50
 90
       50
102
RTVSPost2010PropOp50
 70
     1
102
RTVSPost2010Prop51ColorIndex
 90
      256
102
RTVSPost2010Prop51ColorRGB
 90
-16777216
102
RTVSPost2010PropOp51
 70
     0
102
RTVSPost2010Prop52
140
1.0
102
RTVSPost2010PropOp52
 70
     0
102
RTVSPost2010Prop53
 90
        2
102
RTVSPost2010PropOp53
 70
     1
102
RTVSPost2010Prop54
  1
strokes_ogs.tif
102
RTVSPost2010PropOp54
 70
     1
102
RTVSPost2010Prop55
280
     0
102
RTVSPost2010PropOp55
 70
     1
102
RTVSPost2010Prop56
140
1.0
102
RTVSPost2010PropOp56
 70
     1
102
RTVSPost2010Prop57
140
1.0
102
RTVSPost2010PropOp57
 70
     1
  0
XRECORD
  5
C3
102
{ACAD_REACTORS
330
C2
102
}
330
C2
100
AcDbXrecord
280
     1
102
RTVSPropertyOp0
 70
     1
102
RTVSPropertyOp1
 70
     1
102
RTVSPropertyOp2
 70
     1
102
RTVSPropertyOp3
 70
     1
102
RTVSPropertyOp4
 70
     1
102
RTVSPropertyOp5
 70
     1
102
RTVSPropertyOp6
 70
     1
102
RTVSPropertyOp7
 70
     1
102
RTVSPropertyOp8
 70
     1
102
RTVSPropertyOp9
 70
     1
102
RTVSPropertyOp10
 70
     1
102
RTVSPropertyOp11
 70
     1
102
RTVSPropertyOp12
 70
     1
102
RTVSPropertyOp13
 70
     1
102
RTVSPropertyOp14
 70
     1
102
RTVSPropertyOp15
 70
     1
102
RTVSPropertyOp16
 70
     1
102
RTVSPropertyOp17
 70
     1
102
RTVSPropertyOp18
 70
     1
102
RTVSPropertyOp19
 70
     1
102
RTVSPropertyOp20
 70
     1
102
RTVSPropertyOp21
 70
     1
102
RTVSPropertyOp22
 70
     1
102
RTVSPropertyOp23
 70
     1
102
RTVSPropertyOp24
 70
     1
102
RTVSPropertyOp25
 70
     1
102
RTVSPropertyOp26
 70
     1
102
RTVSPropertyOp27
 70
     1
102
RTVSPropertyOp28
 70
     1
102
RTVSPropertyOp29
 70
     1
102
RTVSPropertyOp30
 70
     1
102
RTVSPropertyOp31
 70
     1
102
RTVSPropertyOp32
 70
     1
102
RTVSPropertyOp33
 70
     1
102
RTVSPropertyOp34
 70
     1
102
RTVSPropertyOp35
 70
     1
102
RTVSPropertyOp36
 70
     1
102
RTVSPropertyOp37
 70
     1
102
RTVSPropertyOp38
 70
     1
102
RTVSPropertyOp39
 70
     1
102
RTVSPropertyOp40
 70
     1
102
RTVSPropertyOp41
 70
     1
102
RTVSPropertyOp42
 70
     1
102
RTVSPropertyOp43
 70
     1
102
RTVSPropertyOp44
 70
     1
102
RTVSPropertyOp45
 70
     1
102
RTVSPropertyOp46
 70
     1
102
RTVSPropertyOp47
 70
     1
102
RTVSPropertyOp48
 70
     1
102
RTVSPropertyOp49
 70
     1
102
RTVSPropertyOp50
 70
     1
102
RTVSPropertyOp51
 70
     0
102
RTVSPropertyOp52
 70
     0
102
RTVSPropertyOp53
 70
     1
102
RTVSPropertyOp54
 70
     1
102
RTVSPropertyOp55
 70
     1
102
RTVSPropertyOp56
 70
     1
102
RTVSPropertyOp57
 70
     1
102
RTVSPost2010Prop28
280
     0
102
RTVSPost2010PropOp28
 70
     1
102
RTVSPost2010Prop29
280
     1
102
RTVSPost2010PropOp29
 70
     1
102
RTVSPost2010Prop30
280
     1
102
RTVSPost2010PropOp30
 70
     1
102
RTVSPost2010Prop31
280
     0
102
RTVSPost2010PropOp31
 70
     1
102
RTVSPost2010Prop32
280
     0
102
RTVSPost2010PropOp32
 70
     1
102
RTVSPost2010Prop33
280
     0
102
RTVSPost2010PropOp33
 70
     1
102
RTVSPost2010Prop34
280
     0
102
RTVSPost2010PropOp34
 70
     1
102
RTVSPost2010Prop35
280
     0
102
RTVSPost2010PropOp35
 70
     1
102
RTVSPost2010Prop36
280
     0
102
RTVSPost2010PropOp36
 70
     1
102
RTVSPost2010Prop37
 90
       50
102
RTVSPost2010PropOp37
 70
     1
102
RTVSPost2010Prop38
140
0.0
102
RTVSPost2010PropOp38
 70
     1
102
RTVSPost2010Prop39
140
1.0
102
RTVSPost2010PropOp39
 70
     1
102
RTVSPost2010Prop40
 90
        0
102
RTVSPost2010PropOp40
 70
     1
102
RTVSPost2010Prop41ColorIndex
 90
       18
102
RTVSPost2010Prop41ColorRGB
 90
        0
102
RTVSPost2010PropOp41
 70
     1
102
RTVSPost2010Prop42
 90
       50
102
RTVSPost2010PropOp42
 70
     1
102
RTVSPost2010Prop43
 90
        3
102
RTVSPost2010PropOp43
 70
     1
102
RTVSPost2010Prop44ColorIndex
 90
        5
102
RTVSPost2010Prop44ColorRGB
 90
      255
102
RTVSPost2010PropOp44
 70
     1
102
RTVSPost2010Prop45
280
     0
102
RTVSPost2010PropOp45
 70
     1
102
RTVSPost2010Prop46
 90
       50
102
RTVSPost2010PropOp46
 70
     1
102
RTVSPost2010Prop47
 90
       50
102
RTVSPost2010PropOp47
 70
     1
102
RTVSPost2010Prop48
 90
       50
102
RTVSPost2010PropOp48
 70
     1
102
RTVSPost2010Prop49
280
     0
102
RTVSPost2010PropOp49
 70
     1
102
RTVSPost2010Prop50
 90
       50
102
RTVSPost2010PropOp50
 70
     1
102
RTVSPost2010Prop51ColorIndex
 90
      256
102
RTVSPost2010Prop51ColorRGB
 90
-16777216
102
RTVSPost2010PropOp51
 70
     0
102
RTVSPost2010Prop52
140
1.0
102
RTVSPost2010PropOp52
 70
     0
102
RTVSPost2010Prop53
 90
        2
102
RTVSPost2010PropOp53
 70
     1
102
RTVSPost2010Prop54
  1
strokes_ogs.tif
102
RTVSPost2010PropOp54
 70
     1
102
RTVSPost2010Prop55
280
     0
102
RTVSPost2010PropOp55
 70
     1
102
RTVSPost2010Prop56
140
1.0
102
RTVSPost2010PropOp56
 70
     1
102
RTVSPost2010Prop57
140
1.0
102
RTVSPost2010PropOp57
 70
     1
  0
XRECORD
  5
C1
102
{ACAD_REACTORS
330
C0
102
}
330
C0
100
AcDbXrecord
280
     1
102
RTVSPropertyOp0
 70
     1
102
RTVSPropertyOp1
 70
     1
102
RTVSPropertyOp2
 70
     1
102
RTVSPropertyOp3
 70
     1
102
RTVSPropertyOp4
 70
     1
102
RTVSPropertyOp5
 70
     1
102
RTVSPropertyOp6
 70
     1
102
RTVSPropertyOp7
 70
     1
102
RTVSPropertyOp8
 70
     1
102
RTVSPropertyOp9
 70
     1
102
RTVSPropertyOp10
 70
     1
102
RTVSPropertyOp11
 70
     1
102
RTVSPropertyOp12
 70
     1
102
RTVSPropertyOp13
 70
     1
102
RTVSPropertyOp14
 70
     1
102
RTVSPropertyOp15
 70
     1
102
RTVSPropertyOp16
 70
     1
102
RTVSPropertyOp17
 70
     1
102
RTVSPropertyOp18
 70
     1
102
RTVSPropertyOp19
 70
     1
102
RTVSPropertyOp20
 70
     1
102
RTVSPropertyOp21
 70
     1
102
RTVSPropertyOp22
 70
     1
102
RTVSPropertyOp23
 70
     1
102
RTVSPropertyOp24
 70
     1
102
RTVSPropertyOp25
 70
     1
102
RTVSPropertyOp26
 70
     1
102
RTVSPropertyOp27
 70
     1
102
RTVSPropertyOp28
 70
     1
102
RTVSPropertyOp29
 70
     1
102
RTVSPropertyOp30
 70
     1
102
RTVSPropertyOp31
 70
     1
102
RTVSPropertyOp32
 70
     1
102
RTVSPropertyOp33
 70
     1
102
RTVSPropertyOp34
 70
     1
102
RTVSPropertyOp35
 70
     1
102
RTVSPropertyOp36
 70
     1
102
RTVSPropertyOp37
 70
     1
102
RTVSPropertyOp38
 70
     1
102
RTVSPropertyOp39
 70
     1
102
RTVSPropertyOp40
 70
     1
102
RTVSPropertyOp41
 70
     1
102
RTVSPropertyOp42
 70
     1
102
RTVSPropertyOp43
 70
     1
102
RTVSPropertyOp44
 70
     1
102
RTVSPropertyOp45
 70
     1
102
RTVSPropertyOp46
 70
     1
102
RTVSPropertyOp47
 70
     1
102
RTVSPropertyOp48
 70
     1
102
RTVSPropertyOp49
 70
     1
102
RTVSPropertyOp50
 70
     1
102
RTVSPropertyOp51
 70
     0
102
RTVSPropertyOp52
 70
     0
102
RTVSPropertyOp53
 70
     1
102
RTVSPropertyOp54
 70
     1
102
RTVSPropertyOp55
 70
     1
102
RTVSPropertyOp56
 70
     1
102
RTVSPropertyOp57
 70
     1
102
RTVSPost2010Prop28
280
     0
102
RTVSPost2010PropOp28
 70
     1
102
RTVSPost2010Prop29
280
     1
102
RTVSPost2010PropOp29
 70
     1
102
RTVSPost2010Prop30
280
     1
102
RTVSPost2010PropOp30
 70
     1
102
RTVSPost2010Prop31
280
     0
102
RTVSPost2010PropOp31
 70
     1
102
RTVSPost2010Prop32
280
     0
102
RTVSPost2010PropOp32
 70
     1
102
RTVSPost2010Prop33
280
     0
102
RTVSPost2010PropOp33
 70
     1
102
RTVSPost2010Prop34
280
     0
102
RTVSPost2010PropOp34
 70
     1
102
RTVSPost2010Prop35
280
     0
102
RTVSPost2010PropOp35
 70
     1
102
RTVSPost2010Prop36
280
     0
102
RTVSPost2010PropOp36
 70
     1
102
RTVSPost2010Prop37
 90
       50
102
RTVSPost2010PropOp37
 70
     1
102
RTVSPost2010Prop38
140
0.0
102
RTVSPost2010PropOp38
 70
     1
102
RTVSPost2010Prop39
140
1.0
102
RTVSPost2010PropOp39
 70
     1
102
RTVSPost2010Prop40
 90
        0
102
RTVSPost2010PropOp40
 70
     1
102
RTVSPost2010Prop41ColorIndex
 90
       18
102
RTVSPost2010Prop41ColorRGB
 90
        0
102
RTVSPost2010PropOp41
 70
     1
102
RTVSPost2010Prop42
 90
       50
102
RTVSPost2010PropOp42
 70
     1
102
RTVSPost2010Prop43
 90
        3
102
RTVSPost2010PropOp43
 70
     1
102
RTVSPost2010Prop44ColorIndex
 90
        5
102
RTVSPost2010Prop44ColorRGB
 90
      255
102
RTVSPost2010PropOp44
 70
     1
102
RTVSPost2010Prop45
280
     0
102
RTVSPost2010PropOp45
 70
     1
102
RTVSPost2010Prop46
 90
       50
102
RTVSPost2010PropOp46
 70
     1
102
RTVSPost2010Prop47
 90
       50
102
RTVSPost2010PropOp47
 70
     1
102
RTVSPost2010Prop48
 90
       50
102
RTVSPost2010PropOp48
 70
     1
102
RTVSPost2010Prop49
280
     0
102
RTVSPost2010PropOp49
 70
     1
102
RTVSPost2010Prop50
 90
       50
102
RTVSPost2010PropOp50
 70
     1
102
RTVSPost2010Prop51ColorIndex
 90
      256
102
RTVSPost2010Prop51ColorRGB
 90
-16777216
102
RTVSPost2010PropOp51
 70
     0
102
RTVSPost2010Prop52
140
1.0
102
RTVSPost2010PropOp52
 70
     0
102
RTVSPost2010Prop53
 90
        2
102
RTVSPost2010PropOp53
 70
     1
102
RTVSPost2010Prop54
  1
strokes_ogs.tif
102
RTVSPost2010PropOp54
 70
     1
102
RTVSPost2010Prop55
280
     0
102
RTVSPost2010PropOp55
 70
     1
102
RTVSPost2010Prop56
140
1.0
102
RTVSPost2010PropOp56
 70
     1
102
RTVSPost2010Prop57
140
1.0
102
RTVSPost2010PropOp57
 70
     1
  0
XRECORD
  5
BB
102
{ACAD_REACTORS
330
BA
102
}
330
BA
100
AcDbXrecord
280
     1
102
RTVSPropertyOp0
 70
     1
102
RTVSPropertyOp1
 70
     1
102
RTVSPropertyOp2
 70
     1
102
RTVSPropertyOp3
 70
     1
102
RTVSPropertyOp4
 70
     1
102
RTVSPropertyOp5
 70
     1
102
RTVSPropertyOp6
 70
     1
102
RTVSPropertyOp7
 70
     1
102
RTVSPropertyOp8
 70
     1
102
RTVSPropertyOp9
 70
     1
102
RTVSPropertyOp10
 70
     1
102
RTVSPropertyOp11
 70
     1
102
RTVSPropertyOp12
 70
     1
102
RTVSPropertyOp13
 70
     1
102
RTVSPropertyOp14
 70
     1
102
RTVSPropertyOp15
 70
     1
102
RTVSPropertyOp16
 70
     1
102
RTVSPropertyOp17
 70
     1
102
RTVSPropertyOp18
 70
     1
102
RTVSPropertyOp19
 70
     1
102
RTVSPropertyOp20
 70
     1
102
RTVSPropertyOp21
 70
     1
102
RTVSPropertyOp22
 70
     1
102
RTVSPropertyOp23
 70
     1
102
RTVSPropertyOp24
 70
     1
102
RTVSPropertyOp25
 70
     1
102
RTVSPropertyOp26
 70
     1
102
RTVSPropertyOp27
 70
     1
102
RTVSPropertyOp28
 70
     1
102
RTVSPropertyOp29
 70
     1
102
RTVSPropertyOp30
 70
     1
102
RTVSPropertyOp31
 70
     1
102
RTVSPropertyOp32
 70
     1
102
RTVSPropertyOp33
 70
     1
102
RTVSPropertyOp34
 70
     1
102
RTVSPropertyOp35
 70
     1
102
RTVSPropertyOp36
 70
     1
102
RTVSPropertyOp37
 70
     1
102
RTVSPropertyOp38
 70
     1
102
RTVSPropertyOp39
 70
     1
102
RTVSPropertyOp40
 70
     1
102
RTVSPropertyOp41
 70
     1
102
RTVSPropertyOp42
 70
     1
102
RTVSPropertyOp43
 70
     1
102
RTVSPropertyOp44
 70
     1
102
RTVSPropertyOp45
 70
     1
102
RTVSPropertyOp46
 70
     1
102
RTVSPropertyOp47
 70
     1
102
RTVSPropertyOp48
 70
     1
102
RTVSPropertyOp49
 70
     1
102
RTVSPropertyOp50
 70
     1
102
RTVSPropertyOp51
 70
     0
102
RTVSPropertyOp52
 70
     0
102
RTVSPropertyOp53
 70
     1
102
RTVSPropertyOp54
 70
     1
102
RTVSPropertyOp55
 70
     1
102
RTVSPropertyOp56
 70
     1
102
RTVSPropertyOp57
 70
     1
102
RTVSPost2010Prop28
280
     0
102
RTVSPost2010PropOp28
 70
     1
102
RTVSPost2010Prop29
280
     1
102
RTVSPost2010PropOp29
 70
     1
102
RTVSPost2010Prop30
280
     1
102
RTVSPost2010PropOp30
 70
     1
102
RTVSPost2010Prop31
280
     0
102
RTVSPost2010PropOp31
 70
     1
102
RTVSPost2010Prop32
280
     0
102
RTVSPost2010PropOp32
 70
     1
102
RTVSPost2010Prop33
280
     0
102
RTVSPost2010PropOp33
 70
     1
102
RTVSPost2010Prop34
280
     0
102
RTVSPost2010PropOp34
 70
     1
102
RTVSPost2010Prop35
280
     0
102
RTVSPost2010PropOp35
 70
     1
102
RTVSPost2010Prop36
280
     0
102
RTVSPost2010PropOp36
 70
     1
102
RTVSPost2010Prop37
 90
       50
102
RTVSPost2010PropOp37
 70
     1
102
RTVSPost2010Prop38
140
0.0
102
RTVSPost2010PropOp38
 70
     1
102
RTVSPost2010Prop39
140
1.0
102
RTVSPost2010PropOp39
 70
     1
102
RTVSPost2010Prop40
 90
        0
102
RTVSPost2010PropOp40
 70
     1
102
RTVSPost2010Prop41ColorIndex
 90
       18
102
RTVSPost2010Prop41ColorRGB
 90
        0
102
RTVSPost2010PropOp41
 70
     1
102
RTVSPost2010Prop42
 90
       50
102
RTVSPost2010PropOp42
 70
     1
102
RTVSPost2010Prop43
 90
        3
102
RTVSPost2010PropOp43
 70
     1
102
RTVSPost2010Prop44ColorIndex
 90
        5
102
RTVSPost2010Prop44ColorRGB
 90
      255
102
RTVSPost2010PropOp44
 70
     1
102
RTVSPost2010Prop45
280
     0
102
RTVSPost2010PropOp45
 70
     1
102
RTVSPost2010Prop46
 90
       50
102
RTVSPost2010PropOp46
 70
     1
102
RTVSPost2010Prop47
 90
       50
102
RTVSPost2010PropOp47
 70
     1
102
RTVSPost2010Prop48
 90
       50
102
RTVSPost2010PropOp48
 70
     1
102
RTVSPost2010Prop49
280
     0
102
RTVSPost2010PropOp49
 70
     1
102
RTVSPost2010Prop50
 90
       50
102
RTVSPost2010PropOp50
 70
     1
102
RTVSPost2010Prop51ColorIndex
 90
      256
102
RTVSPost2010Prop51ColorRGB
 90
-16777216
102
RTVSPost2010PropOp51
 70
     0
102
RTVSPost2010Prop52
140
1.0
102
RTVSPost2010PropOp52
 70
     0
102
RTVSPost2010Prop53
 90
        2
102
RTVSPost2010PropOp53
 70
     1
102
RTVSPost2010Prop54
  1
strokes_ogs.tif
102
RTVSPost2010PropOp54
 70
     1
102
RTVSPost2010Prop55
280
     0
102
RTVSPost2010PropOp55
 70
     1
102
RTVSPost2010Prop56
140
1.0
102
RTVSPost2010PropOp56
 70
     1
102
RTVSPost2010Prop57
140
1.0
102
RTVSPost2010PropOp57
 70
     1
  0
XRECORD
  5
BD
102
{ACAD_REACTORS
330
BC
102
}
330
BC
100
AcDbXrecord
280
     1
102
RTVSPropertyOp0
 70
     1
102
RTVSPropertyOp1
 70
     1
102
RTVSPropertyOp2
 70
     1
102
RTVSPropertyOp3
 70
     1
102
RTVSPropertyOp4
 70
     1
102
RTVSPropertyOp5
 70
     1
102
RTVSPropertyOp6
 70
     1
102
RTVSPropertyOp7
 70
     1
102
RTVSPropertyOp8
 70
     1
102
RTVSPropertyOp9
 70
     1
102
RTVSPropertyOp10
 70
     1
102
RTVSPropertyOp11
 70
     1
102
RTVSPropertyOp12
 70
     1
102
RTVSPropertyOp13
 70
     1
102
RTVSPropertyOp14
 70
     1
102
RTVSPropertyOp15
 70
     1
102
RTVSPropertyOp16
 70
     1
102
RTVSPropertyOp17
 70
     1
102
RTVSPropertyOp18
 70
     1
102
RTVSPropertyOp19
 70
     1
102
RTVSPropertyOp20
 70
     1
102
RTVSPropertyOp21
 70
     1
102
RTVSPropertyOp22
 70
     1
102
RTVSPropertyOp23
 70
     1
102
RTVSPropertyOp24
 70
     1
102
RTVSPropertyOp25
 70
     1
102
RTVSPropertyOp26
 70
     1
102
RTVSPropertyOp27
 70
     1
102
RTVSPropertyOp28
 70
     1
102
RTVSPropertyOp29
 70
     1
102
RTVSPropertyOp30
 70
     1
102
RTVSPropertyOp31
 70
     1
102
RTVSPropertyOp32
 70
     1
102
RTVSPropertyOp33
 70
     1
102
RTVSPropertyOp34
 70
     1
102
RTVSPropertyOp35
 70
     1
102
RTVSPropertyOp36
 70
     1
102
RTVSPropertyOp37
 70
     1
102
RTVSPropertyOp38
 70
     1
102
RTVSPropertyOp39
 70
     1
102
RTVSPropertyOp40
 70
     1
102
RTVSPropertyOp41
 70
     1
102
RTVSPropertyOp42
 70
     1
102
RTVSPropertyOp43
 70
     1
102
RTVSPropertyOp44
 70
     1
102
RTVSPropertyOp45
 70
     1
102
RTVSPropertyOp46
 70
     1
102
RTVSPropertyOp47
 70
     1
102
RTVSPropertyOp48
 70
     1
102
RTVSPropertyOp49
 70
     1
102
RTVSPropertyOp50
 70
     1
102
RTVSPropertyOp51
 70
     0
102
RTVSPropertyOp52
 70
     0
102
RTVSPropertyOp53
 70
     1
102
RTVSPropertyOp54
 70
     1
102
RTVSPropertyOp55
 70
     1
102
RTVSPropertyOp56
 70
     1
102
RTVSPropertyOp57
 70
     1
102
RTVSPost2010Prop28
280
     0
102
RTVSPost2010PropOp28
 70
     1
102
RTVSPost2010Prop29
280
     1
102
RTVSPost2010PropOp29
 70
     1
102
RTVSPost2010Prop30
280
     1
102
RTVSPost2010PropOp30
 70
     1
102
RTVSPost2010Prop31
280
     0
102
RTVSPost2010PropOp31
 70
     1
102
RTVSPost2010Prop32
280
     0
102
RTVSPost2010PropOp32
 70
     1
102
RTVSPost2010Prop33
280
     0
102
RTVSPost2010PropOp33
 70
     1
102
RTVSPost2010Prop34
280
     0
102
RTVSPost2010PropOp34
 70
     1
102
RTVSPost2010Prop35
280
     0
102
RTVSPost2010PropOp35
 70
     1
102
RTVSPost2010Prop36
280
     0
102
RTVSPost2010PropOp36
 70
     1
102
RTVSPost2010Prop37
 90
       50
102
RTVSPost2010PropOp37
 70
     1
102
RTVSPost2010Prop38
140
0.0
102
RTVSPost2010PropOp38
 70
     1
102
RTVSPost2010Prop39
140
1.0
102
RTVSPost2010PropOp39
 70
     1
102
RTVSPost2010Prop40
 90
        0
102
RTVSPost2010PropOp40
 70
     1
102
RTVSPost2010Prop41ColorIndex
 90
       18
102
RTVSPost2010Prop41ColorRGB
 90
        0
102
RTVSPost2010PropOp41
 70
     1
102
RTVSPost2010Prop42
 90
       50
102
RTVSPost2010PropOp42
 70
     1
102
RTVSPost2010Prop43
 90
        3
102
RTVSPost2010PropOp43
 70
     1
102
RTVSPost2010Prop44ColorIndex
 90
        5
102
RTVSPost2010Prop44ColorRGB
 90
      255
102
RTVSPost2010PropOp44
 70
     1
102
RTVSPost2010Prop45
280
     0
102
RTVSPost2010PropOp45
 70
     1
102
RTVSPost2010Prop46
 90
       50
102
RTVSPost2010PropOp46
 70
     1
102
RTVSPost2010Prop47
 90
       50
102
RTVSPost2010PropOp47
 70
     1
102
RTVSPost2010Prop48
 90
       50
102
RTVSPost2010PropOp48
 70
     1
102
RTVSPost2010Prop49
280
     0
102
RTVSPost2010PropOp49
 70
     1
102
RTVSPost2010Prop50
 90
       50
102
RTVSPost2010PropOp50
 70
     1
102
RTVSPost2010Prop51ColorIndex
 90
      256
102
RTVSPost2010Prop51ColorRGB
 90
-16777216
102
RTVSPost2010PropOp51
 70
     0
102
RTVSPost2010Prop52
140
1.0
102
RTVSPost2010PropOp52
 70
     0
102
RTVSPost2010Prop53
 90
        2
102
RTVSPost2010PropOp53
 70
     1
102
RTVSPost2010Prop54
  1
strokes_ogs.tif
102
RTVSPost2010PropOp54
 70
     1
102
RTVSPost2010Prop55
280
     0
102
RTVSPost2010PropOp55
 70
     1
102
RTVSPost2010Prop56
140
1.0
102
RTVSPost2010PropOp56
 70
     1
102
RTVSPost2010Prop57
140
1.0
102
RTVSPost2010PropOp57
 70
     1
  0
XRECORD
  5
AD
102
{ACAD_REACTORS
330
AC
102
}
330
AC
100
AcDbXrecord
280
     1
102
RTVSPropertyOp0
 70
     1
102
RTVSPropertyOp1
 70
     1
102
RTVSPropertyOp2
 70
     1
102
RTVSPropertyOp3
 70
     1
102
RTVSPropertyOp4
 70
     1
102
RTVSPropertyOp5
 70
     1
102
RTVSPropertyOp6
 70
     1
102
RTVSPropertyOp7
 70
     1
102
RTVSPropertyOp8
 70
     1
102
RTVSPropertyOp9
 70
     1
102
RTVSPropertyOp10
 70
     1
102
RTVSPropertyOp11
 70
     1
102
RTVSPropertyOp12
 70
     1
102
RTVSPropertyOp13
 70
     1
102
RTVSPropertyOp14
 70
     1
102
RTVSPropertyOp15
 70
     1
102
RTVSPropertyOp16
 70
     1
102
RTVSPropertyOp17
 70
     1
102
RTVSPropertyOp18
 70
     1
102
RTVSPropertyOp19
 70
     1
102
RTVSPropertyOp20
 70
     1
102
RTVSPropertyOp21
 70
     1
102
RTVSPropertyOp22
 70
     1
102
RTVSPropertyOp23
 70
     1
102
RTVSPropertyOp24
 70
     1
102
RTVSPropertyOp25
 70
     1
102
RTVSPropertyOp26
 70
     1
102
RTVSPropertyOp27
 70
     1
102
RTVSPropertyOp28
 70
     1
102
RTVSPropertyOp29
 70
     1
102
RTVSPropertyOp30
 70
     1
102
RTVSPropertyOp31
 70
     1
102
RTVSPropertyOp32
 70
     1
102
RTVSPropertyOp33
 70
     1
102
RTVSPropertyOp34
 70
     1
102
RTVSPropertyOp35
 70
     1
102
RTVSPropertyOp36
 70
     1
102
RTVSPropertyOp37
 70
     1
102
RTVSPropertyOp38
 70
     1
102
RTVSPropertyOp39
 70
     1
102
RTVSPropertyOp40
 70
     1
102
RTVSPropertyOp41
 70
     1
102
RTVSPropertyOp42
 70
     1
102
RTVSPropertyOp43
 70
     1
102
RTVSPropertyOp44
 70
     1
102
RTVSPropertyOp45
 70
     1
102
RTVSPropertyOp46
 70
     1
102
RTVSPropertyOp47
 70
     1
102
RTVSPropertyOp48
 70
     1
102
RTVSPropertyOp49
 70
     1
102
RTVSPropertyOp50
 70
     1
102
RTVSPropertyOp51
 70
     0
102
RTVSPropertyOp52
 70
     0
102
RTVSPropertyOp53
 70
     1
102
RTVSPropertyOp54
 70
     1
102
RTVSPropertyOp55
 70
     1
102
RTVSPropertyOp56
 70
     1
102
RTVSPropertyOp57
 70
     1
102
RTVSPost2010Prop28
280
     0
102
RTVSPost2010PropOp28
 70
     1
102
RTVSPost2010Prop29
280
     1
102
RTVSPost2010PropOp29
 70
     1
102
RTVSPost2010Prop30
280
     1
102
RTVSPost2010PropOp30
 70
     1
102
RTVSPost2010Prop31
280
     0
102
RTVSPost2010PropOp31
 70
     1
102
RTVSPost2010Prop32
280
     0
102
RTVSPost2010PropOp32
 70
     1
102
RTVSPost2010Prop33
280
     0
102
RTVSPost2010PropOp33
 70
     1
102
RTVSPost2010Prop34
280
     0
102
RTVSPost2010PropOp34
 70
     1
102
RTVSPost2010Prop35
280
     0
102
RTVSPost2010PropOp35
 70
     1
102
RTVSPost2010Prop36
280
     0
102
RTVSPost2010PropOp36
 70
     1
102
RTVSPost2010Prop37
 90
       50
102
RTVSPost2010PropOp37
 70
     1
102
RTVSPost2010Prop38
140
0.0
102
RTVSPost2010PropOp38
 70
     1
102
RTVSPost2010Prop39
140
1.0
102
RTVSPost2010PropOp39
 70
     1
102
RTVSPost2010Prop40
 90
        0
102
RTVSPost2010PropOp40
 70
     1
102
RTVSPost2010Prop41ColorIndex
 90
       18
102
RTVSPost2010Prop41ColorRGB
 90
        0
102
RTVSPost2010PropOp41
 70
     1
102
RTVSPost2010Prop42
 90
       50
102
RTVSPost2010PropOp42
 70
     1
102
RTVSPost2010Prop43
 90
        3
102
RTVSPost2010PropOp43
 70
     1
102
RTVSPost2010Prop44ColorIndex
 90
        5
102
RTVSPost2010Prop44ColorRGB
 90
      255
102
RTVSPost2010PropOp44
 70
     1
102
RTVSPost2010Prop45
280
     0
102
RTVSPost2010PropOp45
 70
     1
102
RTVSPost2010Prop46
 90
       50
102
RTVSPost2010PropOp46
 70
     1
102
RTVSPost2010Prop47
 90
       50
102
RTVSPost2010PropOp47
 70
     1
102
RTVSPost2010Prop48
 90
       50
102
RTVSPost2010PropOp48
 70
     1
102
RTVSPost2010Prop49
280
     0
102
RTVSPost2010PropOp49
 70
     1
102
RTVSPost2010Prop50
 90
       50
102
RTVSPost2010PropOp50
 70
     1
102
RTVSPost2010Prop51ColorIndex
 90
      256
102
RTVSPost2010Prop51ColorRGB
 90
-16777216
102
RTVSPost2010PropOp51
 70
     0
102
RTVSPost2010Prop52
140
1.0
102
RTVSPost2010PropOp52
 70
     0
102
RTVSPost2010Prop53
 90
        2
102
RTVSPost2010PropOp53
 70
     1
102
RTVSPost2010Prop54
  1
strokes_ogs.tif
102
RTVSPost2010PropOp54
 70
     1
102
RTVSPost2010Prop55
280
     0
102
RTVSPost2010PropOp55
 70
     1
102
RTVSPost2010Prop56
140
1.0
102
RTVSPost2010PropOp56
 70
     1
102
RTVSPost2010Prop57
140
1.0
102
RTVSPost2010PropOp57
 70
     1
  0
XRECORD
  5
9F
102
{ACAD_REACTORS
330
9E
102
}
330
9E
100
AcDbXrecord
280
     1
102
RTVSPropertyOp0
 70
     1
102
RTVSPropertyOp1
 70
     1
102
RTVSPropertyOp2
 70
     1
102
RTVSPropertyOp3
 70
     1
102
RTVSPropertyOp4
 70
     1
102
RTVSPropertyOp5
 70
     1
102
RTVSPropertyOp6
 70
     1
102
RTVSPropertyOp7
 70
     1
102
RTVSPropertyOp8
 70
     1
102
RTVSPropertyOp9
 70
     1
102
RTVSPropertyOp10
 70
     1
102
RTVSPropertyOp11
 70
     1
102
RTVSPropertyOp12
 70
     1
102
RTVSPropertyOp13
 70
     1
102
RTVSPropertyOp14
 70
     1
102
RTVSPropertyOp15
 70
     1
102
RTVSPropertyOp16
 70
     1
102
RTVSPropertyOp17
 70
     1
102
RTVSPropertyOp18
 70
     1
102
RTVSPropertyOp19
 70
     1
102
RTVSPropertyOp20
 70
     1
102
RTVSPropertyOp21
 70
     1
102
RTVSPropertyOp22
 70
     1
102
RTVSPropertyOp23
 70
     1
102
RTVSPropertyOp24
 70
     1
102
RTVSPropertyOp25
 70
     1
102
RTVSPropertyOp26
 70
     1
102
RTVSPropertyOp27
 70
     1
102
RTVSPropertyOp28
 70
     1
102
RTVSPropertyOp29
 70
     1
102
RTVSPropertyOp30
 70
     1
102
RTVSPropertyOp31
 70
     1
102
RTVSPropertyOp32
 70
     1
102
RTVSPropertyOp33
 70
     1
102
RTVSPropertyOp34
 70
     1
102
RTVSPropertyOp35
 70
     1
102
RTVSPropertyOp36
 70
     1
102
RTVSPropertyOp37
 70
     1
102
RTVSPropertyOp38
 70
     1
102
RTVSPropertyOp39
 70
     1
102
RTVSPropertyOp40
 70
     1
102
RTVSPropertyOp41
 70
     1
102
RTVSPropertyOp42
 70
     1
102
RTVSPropertyOp43
 70
     1
102
RTVSPropertyOp44
 70
     1
102
RTVSPropertyOp45
 70
     1
102
RTVSPropertyOp46
 70
     1
102
RTVSPropertyOp47
 70
     1
102
RTVSPropertyOp48
 70
     1
102
RTVSPropertyOp49
 70
     1
102
RTVSPropertyOp50
 70
     1
102
RTVSPropertyOp51
 70
     0
102
RTVSPropertyOp52
 70
     0
102
RTVSPropertyOp53
 70
     1
102
RTVSPropertyOp54
 70
     1
102
RTVSPropertyOp55
 70
     1
102
RTVSPropertyOp56
 70
     1
102
RTVSPropertyOp57
 70
     1
102
RTVSPost2010Prop28
280
     0
102
RTVSPost2010PropOp28
 70
     1
102
RTVSPost2010Prop29
280
     1
102
RTVSPost2010PropOp29
 70
     1
102
RTVSPost2010Prop30
280
     1
102
RTVSPost2010PropOp30
 70
     1
102
RTVSPost2010Prop31
280
     0
102
RTVSPost2010PropOp31
 70
     1
102
RTVSPost2010Prop32
280
     0
102
RTVSPost2010PropOp32
 70
     1
102
RTVSPost2010Prop33
280
     0
102
RTVSPost2010PropOp33
 70
     1
102
RTVSPost2010Prop34
280
     0
102
RTVSPost2010PropOp34
 70
     1
102
RTVSPost2010Prop35
280
     0
102
RTVSPost2010PropOp35
 70
     1
102
RTVSPost2010Prop36
280
     0
102
RTVSPost2010PropOp36
 70
     1
102
RTVSPost2010Prop37
 90
       50
102
RTVSPost2010PropOp37
 70
     1
102
RTVSPost2010Prop38
140
0.0
102
RTVSPost2010PropOp38
 70
     1
102
RTVSPost2010Prop39
140
1.0
102
RTVSPost2010PropOp39
 70
     1
102
RTVSPost2010Prop40
 90
        0
102
RTVSPost2010PropOp40
 70
     1
102
RTVSPost2010Prop41ColorIndex
 90
       18
102
RTVSPost2010Prop41ColorRGB
 90
        0
102
RTVSPost2010PropOp41
 70
     1
102
RTVSPost2010Prop42
 90
       50
102
RTVSPost2010PropOp42
 70
     1
102
RTVSPost2010Prop43
 90
        3
102
RTVSPost2010PropOp43
 70
     1
102
RTVSPost2010Prop44ColorIndex
 90
        5
102
RTVSPost2010Prop44ColorRGB
 90
      255
102
RTVSPost2010PropOp44
 70
     1
102
RTVSPost2010Prop45
280
     0
102
RTVSPost2010PropOp45
 70
     1
102
RTVSPost2010Prop46
 90
       50
102
RTVSPost2010PropOp46
 70
     1
102
RTVSPost2010Prop47
 90
       50
102
RTVSPost2010PropOp47
 70
     1
102
RTVSPost2010Prop48
 90
       50
102
RTVSPost2010PropOp48
 70
     1
102
RTVSPost2010Prop49
280
     0
102
RTVSPost2010PropOp49
 70
     1
102
RTVSPost2010Prop50
 90
       50
102
RTVSPost2010PropOp50
 70
     1
102
RTVSPost2010Prop51ColorIndex
 90
      256
102
RTVSPost2010Prop51ColorRGB
 90
-16777216
102
RTVSPost2010PropOp51
 70
     0
102
RTVSPost2010Prop52
140
1.0
102
RTVSPost2010PropOp52
 70
     0
102
RTVSPost2010Prop53
 90
        2
102
RTVSPost2010PropOp53
 70
     1
102
RTVSPost2010Prop54
  1
strokes_ogs.tif
102
RTVSPost2010PropOp54
 70
     1
102
RTVSPost2010Prop55
280
     0
102
RTVSPost2010PropOp55
 70
     1
102
RTVSPost2010Prop56
140
1.0
102
RTVSPost2010PropOp56
 70
     1
102
RTVSPost2010Prop57
140
1.0
102
RTVSPost2010PropOp57
 70
     1
  0
XRECORD
  5
BF
102
{ACAD_REACTORS
330
BE
102
}
330
BE
100
AcDbXrecord
280
     1
102
RTVSPropertyOp0
 70
     1
102
RTVSPropertyOp1
 70
     1
102
RTVSPropertyOp2
 70
     1
102
RTVSPropertyOp3
 70
     1
102
RTVSPropertyOp4
 70
     1
102
RTVSPropertyOp5
 70
     1
102
RTVSPropertyOp6
 70
     1
102
RTVSPropertyOp7
 70
     1
102
RTVSPropertyOp8
 70
     1
102
RTVSPropertyOp9
 70
     1
102
RTVSPropertyOp10
 70
     1
102
RTVSPropertyOp11
 70
     1
102
RTVSPropertyOp12
 70
     1
102
RTVSPropertyOp13
 70
     1
102
RTVSPropertyOp14
 70
     1
102
RTVSPropertyOp15
 70
     1
102
RTVSPropertyOp16
 70
     1
102
RTVSPropertyOp17
 70
     1
102
RTVSPropertyOp18
 70
     1
102
RTVSPropertyOp19
 70
     1
102
RTVSPropertyOp20
 70
     1
102
RTVSPropertyOp21
 70
     1
102
RTVSPropertyOp22
 70
     1
102
RTVSPropertyOp23
 70
     1
102
RTVSPropertyOp24
 70
     1
102
RTVSPropertyOp25
 70
     1
102
RTVSPropertyOp26
 70
     1
102
RTVSPropertyOp27
 70
     1
102
RTVSPropertyOp28
 70
     1
102
RTVSPropertyOp29
 70
     1
102
RTVSPropertyOp30
 70
     1
102
RTVSPropertyOp31
 70
     1
102
RTVSPropertyOp32
 70
     1
102
RTVSPropertyOp33
 70
     1
102
RTVSPropertyOp34
 70
     1
102
RTVSPropertyOp35
 70
     1
102
RTVSPropertyOp36
 70
     1
102
RTVSPropertyOp37
 70
     1
102
RTVSPropertyOp38
 70
     1
102
RTVSPropertyOp39
 70
     1
102
RTVSPropertyOp40
 70
     1
102
RTVSPropertyOp41
 70
     1
102
RTVSPropertyOp42
 70
     1
102
RTVSPropertyOp43
 70
     1
102
RTVSPropertyOp44
 70
     1
102
RTVSPropertyOp45
 70
     1
102
RTVSPropertyOp46
 70
     1
102
RTVSPropertyOp47
 70
     1
102
RTVSPropertyOp48
 70
     1
102
RTVSPropertyOp49
 70
     1
102
RTVSPropertyOp50
 70
     1
102
RTVSPropertyOp51
 70
     0
102
RTVSPropertyOp52
 70
     0
102
RTVSPropertyOp53
 70
     1
102
RTVSPropertyOp54
 70
     1
102
RTVSPropertyOp55
 70
     1
102
RTVSPropertyOp56
 70
     1
102
RTVSPropertyOp57
 70
     1
102
RTVSPost2010Prop28
280
     0
102
RTVSPost2010PropOp28
 70
     1
102
RTVSPost2010Prop29
280
     1
102
RTVSPost2010PropOp29
 70
     1
102
RTVSPost2010Prop30
280
     1
102
RTVSPost2010PropOp30
 70
     1
102
RTVSPost2010Prop31
280
     0
102
RTVSPost2010PropOp31
 70
     1
102
RTVSPost2010Prop32
280
     0
102
RTVSPost2010PropOp32
 70
     1
102
RTVSPost2010Prop33
280
     0
102
RTVSPost2010PropOp33
 70
     1
102
RTVSPost2010Prop34
280
     0
102
RTVSPost2010PropOp34
 70
     1
102
RTVSPost2010Prop35
280
     0
102
RTVSPost2010PropOp35
 70
     1
102
RTVSPost2010Prop36
280
     0
102
RTVSPost2010PropOp36
 70
     1
102
RTVSPost2010Prop37
 90
       50
102
RTVSPost2010PropOp37
 70
     1
102
RTVSPost2010Prop38
140
0.0
102
RTVSPost2010PropOp38
 70
     1
102
RTVSPost2010Prop39
140
1.0
102
RTVSPost2010PropOp39
 70
     1
102
RTVSPost2010Prop40
 90
        0
102
RTVSPost2010PropOp40
 70
     1
102
RTVSPost2010Prop41ColorIndex
 90
       18
102
RTVSPost2010Prop41ColorRGB
 90
        0
102
RTVSPost2010PropOp41
 70
     1
102
RTVSPost2010Prop42
 90
       50
102
RTVSPost2010PropOp42
 70
     1
102
RTVSPost2010Prop43
 90
        3
102
RTVSPost2010PropOp43
 70
     1
102
RTVSPost2010Prop44ColorIndex
 90
        5
102
RTVSPost2010Prop44ColorRGB
 90
      255
102
RTVSPost2010PropOp44
 70
     1
102
RTVSPost2010Prop45
280
     0
102
RTVSPost2010PropOp45
 70
     1
102
RTVSPost2010Prop46
 90
       50
102
RTVSPost2010PropOp46
 70
     1
102
RTVSPost2010Prop47
 90
       50
102
RTVSPost2010PropOp47
 70
     1
102
RTVSPost2010Prop48
 90
       50
102
RTVSPost2010PropOp48
 70
     1
102
RTVSPost2010Prop49
280
     0
102
RTVSPost2010PropOp49
 70
     1
102
RTVSPost2010Prop50
 90
       50
102
RTVSPost2010PropOp50
 70
     1
102
RTVSPost2010Prop51ColorIndex
 90
      256
102
RTVSPost2010Prop51ColorRGB
 90
-16777216
102
RTVSPost2010PropOp51
 70
     0
102
RTVSPost2010Prop52
140
1.0
102
RTVSPost2010PropOp52
 70
     0
102
RTVSPost2010Prop53
 90
        2
102
RTVSPost2010PropOp53
 70
     1
102
RTVSPost2010Prop54
  1
strokes_ogs.tif
102
RTVSPost2010PropOp54
 70
     1
102
RTVSPost2010Prop55
280
     0
102
RTVSPost2010PropOp55
 70
     1
102
RTVSPost2010Prop56
140
1.0
102
RTVSPost2010PropOp56
 70
     1
102
RTVSPost2010Prop57
140
1.0
102
RTVSPost2010PropOp57
 70
     1
  0
ENDSEC
  0
EOF
