0
SECTION
2
HEADER
9
$EXTMIN
10
0.788071
20
1.204681
9
$EXTMAX
10
44.815491
20
29.502256
0
ENDSEC
0
SECTION
2
TABLES
0
TABLE
2
LTYPE
70
1
0
LTYPE
2
0
70
0
3
Solid Line
72
65
73
0
40
0.0
0
ENDTAB
0
TABLE
2
LAYER
70
1
0
LAYER
2
1
70
0
62
7
6
0
0
ENDTAB
0
ENDSEC
0
SECTION
2
BLOCKS
0
ENDSEC
0
SECTION
2
ENTITIES
0
POLYLINE
8
1
66
1
70
1
0
VERTEX
8
1
10
6.819740
20
8.029396
42
-0.049614
0
VERTEX
8
1
10
6.665955
20
7.998350
0
VERTEX
8
1
10
6.634521
20
8.000780
0
VERTEX
8
1
10
6.603912
20
8.008541
42
-0.136289
0
VERTEX
8
1
10
6.436424
20
8.155203
42
-0.799286
0
VERTEX
8
1
10
6.485687
20
8.191111
42
0.093793
0
VERTEX
8
1
10
6.603630
20
8.076588
42
0.181162
0
VERTEX
8
1
10
6.707817
20
8.064526
0
VERTEX
8
1
10
6.874718
20
8.109907
42
-0.896517
0
VERTEX
8
1
10
6.910698
20
8.059727
42
-0.165306
0
VERTEX
8
1
10
6.870880
20
8.032541
42
-0.443490
0
SEQEND
0
POLYLINE
8
1
66
1
70
1
0
VERTEX
8
1
10
25.378891
20
20.738173
42
0.132401
0
VERTEX
8
1
10
25.345406
20
20.929893
0
VERTEX
8
1
10
25.321930
20
20.954311
42
0.262030
0
VERTEX
8
1
10
25.109741
20
20.921951
42
0.105652
0
VERTEX
8
1
10
24.926567
20
20.726768
42
0.052199
0
VERTEX
8
1
10
24.620605
20
20.108299
42
-0.044908
0
VERTEX
8
1
10
24.341660
20
19.565989
42
-0.101652
0
VERTEX
8
1
10
23.852936
20
19.087471
0
VERTEX
8
1
10
23.762451
20
19.029041
42
-0.024836
0
VERTEX
8
1
10
22.687958
20
18.476046
42
0.062333
0
VERTEX
8
1
10
21.548241
20
17.726734
42
0.056076
0
VERTEX
8
1
10
20.549553
20
16.679483
42
-0.038643
0
VERTEX
8
1
10
20.806389
20
17.145599
42
-0.051330
0
VERTEX
8
1
10
21.703606
20
18.291050
0
VERTEX
8
1
10
21.765793
20
18.343584
42
0.038873
0
VERTEX
8
1
10
23.370453
20
19.578197
0
VERTEX
8
1
10
23.419342
20
19.626028
42
0.088142
0
VERTEX
8
1
10
23.590302
20
19.854916
42
0.103241
0
VERTEX
8
1
10
23.909073
20
20.823124
42
0.058587
0
VERTEX
8
1
10
23.897469
20
21.269699
42
0.064715
0
VERTEX
8
1
10
23.840996
20
21.460064
42
0.093454
0
VERTEX
8
1
10
23.780312
20
21.532501
0
VERTEX
8
1
10
23.752014
20
21.540533
42
0.234995
0
VERTEX
8
1
10
23.570190
20
21.459812
42
0.109915
0
VERTEX
8
1
10
23.463615
20
21.284348
42
0.063980
0
VERTEX
8
1
10
23.325478
20
20.630112
42
-0.070162
0
VERTEX
8
1
10
23.157494
20
19.982887
0
VERTEX
8
1
10
23.120323
20
19.908287
42
-0.081823
0
VERTEX
8
1
10
22.704575
20
19.405037
42
-0.013768
0
VERTEX
8
1
10
21.901321
20
18.731501
0
VERTEX
8
1
10
21.759247
20
18.610069
42
0.112765
0
VERTEX
8
1
10
20.351974
20
16.588142
42
0.098761
0
VERTEX
8
1
10
20.172348
20
16.419643
0
VERTEX
8
1
10
20.158730
20
16.415936
42
0.103575
0
VERTEX
8
1
10
19.037331
20
16.503965
0
VERTEX
8
1
10
18.990662
20
16.544666
0
VERTEX
8
1
10
18.958725
20
16.729244
0
VERTEX
8
1
10
18.924927
20
16.913490
42
0.018204
0
VERTEX
8
1
10
18.110413
20
20.366291
0
VERTEX
8
1
10
18.062317
20
20.523821
0
VERTEX
8
1
10
18.006088
20
20.696861
42
0.044139
0
VERTEX
8
1
10
16.422867
20
24.248417
42
0.024225
0
VERTEX
8
1
10
15.560959
20
25.592386
42
0.031761
0
VERTEX
8
1
10
13.810524
20
27.781792
42
0.032323
0
VERTEX
8
1
10
12.854950
20
28.681610
0
VERTEX
8
1
10
12.664375
20
28.828445
0
VERTEX
8
1
10
12.550278
20
28.901094
0
VERTEX
8
1
10
12.195511
20
29.066307
42
0.082995
0
VERTEX
8
1
10
11.048965
20
29.366146
42
0.123581
0
VERTEX
8
1
10
10.005013
20
29.199102
0
VERTEX
8
1
10
9.931358
20
29.159489
0
VERTEX
8
1
10
9.893349
20
29.129547
42
0.147830
0
VERTEX
8
1
10
9.402107
20
28.319633
42
0.073809
0
VERTEX
8
1
10
9.380424
20
28.066715
0
VERTEX
8
1
10
9.336029
20
28.098911
42
0.101175
0
VERTEX
8
1
10
8.216232
20
28.887840
42
-0.018946
0
VERTEX
8
1
10
8.067574
20
28.972950
42
0.027090
0
VERTEX
8
1
10
7.456718
20
29.282776
0
VERTEX
8
1
10
7.335182
20
29.352528
42
0.052477
0
VERTEX
8
1
10
6.818726
20
29.500767
42
0.330358
0
VERTEX
8
1
10
6.489464
20
29.303459
42
0.098295
0
VERTEX
8
1
10
6.409622
20
28.979721
42
0.033361
0
VERTEX
8
1
10
6.420769
20
28.339087
42
0.044033
0
VERTEX
8
1
10
6.467751
20
27.807293
42
-0.108705
0
VERTEX
8
1
10
6.425156
20
27.389116
0
VERTEX
8
1
10
6.416367
20
27.349594
0
VERTEX
8
1
10
6.409424
20
27.309708
42
0.170473
0
VERTEX
8
1
10
6.551369
20
26.613361
0
VERTEX
8
1
10
6.574905
20
26.576778
42
-0.217281
0
VERTEX
8
1
10
6.647369
20
26.225037
42
0.086237
0
VERTEX
8
1
10
6.580933
20
25.299807
42
0.145166
0
VERTEX
8
1
10
6.737061
20
24.957010
0
VERTEX
8
1
10
6.777542
20
24.907009
0
VERTEX
8
1
10
6.819870
20
24.858555
0
VERTEX
8
1
10
6.793198
20
24.810223
0
VERTEX
8
1
10
6.768089
20
24.761065
42
0.107115
0
VERTEX
8
1
10
6.646049
20
24.303871
0
VERTEX
8
1
10
6.643440
20
24.252096
0
VERTEX
8
1
10
6.642792
20
24.200260
42
0.135897
0
VERTEX
8
1
10
6.808548
20
23.494308
42
-0.115842
0
VERTEX
8
1
10
6.844406
20
23.298378
42
0.033707
0
VERTEX
8
1
10
6.862198
20
23.027323
42
-0.117986
0
VERTEX
8
1
10
6.813416
20
22.709621
42
0.165369
0
VERTEX
8
1
10
6.833641
20
22.284828
42
-0.037990
0
VERTEX
8
1
10
6.955894
20
21.910587
42
-0.165847
0
VERTEX
8
1
10
6.921013
20
21.730953
42
0.018349
0
VERTEX
8
1
10
6.865570
20
21.591721
42
0.159066
0
VERTEX
8
1
10
6.934158
20
21.107246
42
-0.141269
0
VERTEX
8
1
10
6.965897
20
20.786346
42
0.092509
0
VERTEX
8
1
10
7.013794
20
20.129236
0
VERTEX
8
1
10
7.019432
20
20.113577
0
VERTEX
8
1
10
7.027512
20
19.914322
42
0.040757
0
VERTEX
8
1
10
7.008842
20
19.441851
42
0.051856
0
VERTEX
8
1
10
7.077469
20
19.097391
42
-0.100308
0
VERTEX
8
1
10
7.094383
20
18.807528
42
0.165628
0
VERTEX
8
1
10
7.124580
20
17.936008
42
-0.157611
0
VERTEX
8
1
10
7.184547
20
17.627493
42
0.099593
0
VERTEX
8
1
10
7.290337
20
16.968229
42
-0.005441
0
VERTEX
8
1
10
7.452957
20
16.655357
42
-0.038596
0
VERTEX
8
1
10
7.565735
20
16.503191
42
-0.104232
0
VERTEX
8
1
10
7.583931
20
16.300873
42
0.151365
0
VERTEX
8
1
10
7.809608
20
15.799879
0
VERTEX
8
1
10
7.804657
20
15.782543
42
-0.027974
0
VERTEX
8
1
10
6.825081
20
14.785845
42
-0.008204
0
VERTEX
8
1
10
6.572701
20
14.590994
42
-0.003928
0
VERTEX
8
1
10
5.792084
20
14.092112
42
0.268084
0
VERTEX
8
1
10
5.727821
20
13.910704
0
VERTEX
8
1
10
5.730331
20
13.882242
42
-0.196232
0
VERTEX
8
1
10
5.527534
20
12.811033
0
VERTEX
8
1
10
5.497429
20
12.764521
42
0.023415
0
VERTEX
8
1
10
5.074699
20
12.115398
42
0.049673
0
VERTEX
8
1
10
4.430870
20
10.874527
42
0.104946
0
VERTEX
8
1
10
4.365738
20
10.352535
0
VERTEX
8
1
10
4.375053
20
10.348013
42
-0.058897
0
VERTEX
8
1
10
4.525604
20
10.413363
0
VERTEX
8
1
10
4.555183
20
10.374004
42
-0.084957
0
VERTEX
8
1
10
4.722488
20
9.910351
42
-0.102851
0
VERTEX
8
1
10
4.630539
20
9.390743
42
-0.032055
0
VERTEX
8
1
10
4.113258
20
8.332209
42
0.020454
0
VERTEX
8
1
10
3.797676
20
7.836750
42
0.098158
0
VERTEX
8
1
10
3.733223
20
7.592154
0
VERTEX
8
1
10
3.737328
20
7.560125
42
0.129946
0
VERTEX
8
1
10
3.891602
20
7.566360
42
-0.140909
0
VERTEX
8
1
10
3.979576
20
7.550919
42
-0.258407
0
VERTEX
8
1
10
4.069901
20
7.324043
42
-0.110417
0
VERTEX
8
1
10
3.982246
20
7.037912
42
-0.045116
0
VERTEX
8
1
10
3.563072
20
6.257784
42
-0.035024
0
VERTEX
8
1
10
3.083000
20
5.558254
42
0.060438
0
VERTEX
8
1
10
2.887955
20
5.212648
0
VERTEX
8
1
10
2.903320
20
5.215954
42
-0.003077
0
VERTEX
8
1
10
0.790520
20
2.249229
42
0.532888
0
VERTEX
8
1
10
0.811447
20
2.212948
42
0.152772
0
VERTEX
8
1
10
0.942345
20
2.246037
42
0.043921
0
VERTEX
8
1
10
1.392822
20
2.536819
42
0.020485
0
VERTEX
8
1
10
2.585274
20
3.528522
0
VERTEX
8
1
10
2.785591
20
3.700649
42
-0.016366
0
VERTEX
8
1
10
3.729317
20
4.357685
42
-0.046945
0
VERTEX
8
1
10
4.157951
20
4.572353
42
0.066427
0
VERTEX
8
1
10
4.313522
20
4.572060
42
-0.311274
0
VERTEX
8
1
10
4.332748
20
4.461796
42
-0.032685
0
VERTEX
8
1
10
4.148842
20
3.968571
42
-0.116271
0
VERTEX
8
1
10
4.613686
20
4.048645
42
-0.140637
0
VERTEX
8
1
10
4.881493
20
3.936211
0
VERTEX
8
1
10
4.882248
20
3.910034
42
-0.068907
0
VERTEX
8
1
10
4.458672
20
3.421131
42
-0.051811
0
VERTEX
8
1
10
3.842087
20
2.971073
42
0.115865
0
VERTEX
8
1
10
3.161438
20
2.272701
42
0.105913
0
VERTEX
8
1
10
3.097694
20
2.051750
42
0.234036
0
VERTEX
8
1
10
3.171295
20
1.914845
0
VERTEX
8
1
10
3.221817
20
1.888004
42
0.159649
0
VERTEX
8
1
10
3.406372
20
1.911640
42
0.082880
0
VERTEX
8
1
10
3.828636
20
2.155689
42
0.089771
0
VERTEX
8
1
10
4.813469
20
3.229176
42
-0.051663
0
VERTEX
8
1
10
5.123993
20
3.672085
42
-0.187924
0
VERTEX
8
1
10
5.285927
20
3.736507
42
-0.189128
0
VERTEX
8
1
10
5.339981
20
3.704357
42
-0.112751
0
VERTEX
8
1
10
5.536453
20
3.321545
42
-0.097630
0
VERTEX
8
1
10
5.654205
20
2.249916
42
0.374385
0
VERTEX
8
1
10
5.723396
20
2.164856
42
0.174523
0
VERTEX
8
1
10
5.843193
20
2.174667
42
0.126031
0
VERTEX
8
1
10
6.167923
20
2.373711
42
-0.074987
0
VERTEX
8
1
10
6.462341
20
2.571503
42
-0.092114
0
VERTEX
8
1
10
6.636436
20
2.606888
42
0.067873
0
VERTEX
8
1
10
6.643288
20
1.977047
42
0.113925
0
VERTEX
8
1
10
6.776192
20
1.642365
42
0.190604
0
VERTEX
8
1
10
7.001373
20
1.501759
42
-0.094637
0
VERTEX
8
1
10
7.119598
20
1.535576
42
0.131321
0
VERTEX
8
1
10
7.567162
20
1.755043
42
0.066277
0
VERTEX
8
1
10
7.921204
20
2.161232
42
0.037407
0
VERTEX
8
1
10
8.225441
20
2.680645
42
0.030610
0
VERTEX
8
1
10
8.635117
20
3.625370
42
0.019698
0
VERTEX
8
1
10
9.066360
20
4.913944
0
VERTEX
8
1
10
9.106979
20
5.008802
42
-0.034588
0
VERTEX
8
1
10
9.409264
20
5.515860
42
-0.032733
0
VERTEX
8
1
10
11.112633
20
7.654573
0
VERTEX
8
1
10
11.165489
20
7.700392
42
-0.040915
0
VERTEX
8
1
10
11.004921
20
7.284426
42
0.018044
0
VERTEX
8
1
10
10.830528
20
6.849386
42
0.136056
0
VERTEX
8
1
10
10.808304
20
6.270279
42
-0.062675
0
VERTEX
8
1
10
10.755501
20
5.810263
0
VERTEX
8
1
10
10.591301
20
5.146755
0
VERTEX
8
1
10
10.576073
20
5.063335
42
0.125736
0
VERTEX
8
1
10
10.585846
20
4.752785
42
0.236809
0
VERTEX
8
1
10
10.710808
20
4.647781
0
VERTEX
8
1
10
10.753281
20
4.648420
42
0.109613
0
VERTEX
8
1
10
11.007927
20
4.763742
42
0.088225
0
VERTEX
8
1
10
11.689278
20
5.487600
42
0.019285
0
VERTEX
8
1
10
12.166328
20
5.944223
42
0.052190
0
VERTEX
8
1
10
12.218361
20
6.022018
42
-0.095184
0
VERTEX
8
1
10
12.363495
20
6.081633
42
0.130298
0
VERTEX
8
1
10
12.587997
20
6.224771
42
-0.093296
0
VERTEX
8
1
10
12.999962
20
6.701654
42
0.018229
0
VERTEX
8
1
10
13.344673
20
7.026495
0
VERTEX
8
1
10
13.362221
20
7.047419
42
-0.069171
0
VERTEX
8
1
10
13.480385
20
7.187262
42
0.011257
0
VERTEX
8
1
10
13.827972
20
7.497114
42
0.046874
0
VERTEX
8
1
10
14.125847
20
7.780039
42
0.081587
0
VERTEX
8
1
10
14.157684
20
7.847309
42
-0.101564
0
VERTEX
8
1
10
14.304619
20
8.064703
42
0.058571
0
VERTEX
8
1
10
15.827698
20
9.253435
42
0.057146
0
VERTEX
8
1
10
16.449478
20
10.052656
0
VERTEX
8
1
10
16.543068
20
10.225708
0
VERTEX
8
1
10
16.580025
20
10.289536
42
0.033696
0
VERTEX
8
1
10
16.970940
20
10.487911
0
VERTEX
8
1
10
16.985909
20
10.466846
42
-0.055301
0
VERTEX
8
1
10
17.050491
20
9.832350
42
0.060963
0
VERTEX
8
1
10
17.097961
20
9.393534
42
-0.085719
0
VERTEX
8
1
10
17.113007
20
8.932917
42
0.079936
0
VERTEX
8
1
10
17.136391
20
8.640673
0
VERTEX
8
1
10
17.144096
20
8.621357
42
0.338661
0
VERTEX
8
1
10
17.247726
20
8.549839
0
VERTEX
8
1
10
17.254791
20
8.547955
42
-0.281765
0
VERTEX
8
1
10
17.324570
20
8.437508
42
-0.004393
0
VERTEX
8
1
10
17.385849
20
7.725433
42
0.004521
0
VERTEX
8
1
10
17.381836
20
7.273176
42
-0.050113
0
VERTEX
8
1
10
17.399078
20
7.011690
42
0.081731
0
VERTEX
8
1
10
17.381569
20
6.811834
0
VERTEX
8
1
10
17.388443
20
6.799976
42
0.379475
0
VERTEX
8
1
10
17.520813
20
6.855972
42
0.117474
0
VERTEX
8
1
10
17.561760
20
6.968548
42
0.066509
0
VERTEX
8
1
10
17.562103
20
7.535215
0
VERTEX
8
1
10
17.556442
20
7.612738
42
-0.027960
0
VERTEX
8
1
10
17.564720
20
8.475616
42
-0.036847
0
VERTEX
8
1
10
17.600258
20
8.776487
42
0.120998
0
VERTEX
8
1
10
17.537506
20
9.303644
42
-0.009539
0
VERTEX
8
1
10
17.518890
20
9.372601
42
-0.019542
0
VERTEX
8
1
10
17.385368
20
10.141552
42
-0.016976
0
VERTEX
8
1
10
17.388260
20
10.600407
0
VERTEX
8
1
10
17.391396
20
10.608250
42
0.034715
0
VERTEX
8
1
10
17.615211
20
10.418629
42
0.018297
0
VERTEX
8
1
10
18.007004
20
10.212511
42
-0.046484
0
VERTEX
8
1
10
18.305359
20
10.095449
42
-0.197429
0
VERTEX
8
1
10
18.361252
20
10.015127
42
-0.078163
0
VERTEX
8
1
10
18.406036
20
9.765930
42
0.073146
0
VERTEX
8
1
10
18.551094
20
9.184740
42
-0.034096
0
VERTEX
8
1
10
18.685791
20
8.719105
42
0.004177
0
VERTEX
8
1
10
18.843628
20
8.079096
42
0.227063
0
VERTEX
8
1
10
19.024185
20
7.886692
0
VERTEX
8
1
10
19.035553
20
7.852762
42
0.053381
0
VERTEX
8
1
10
19.143288
20
7.339823
42
0.054891
0
VERTEX
8
1
10
19.196526
20
7.238089
42
0.172211
0
VERTEX
8
1
10
19.280304
20
7.190804
0
VERTEX
8
1
10
19.287857
20
7.212025
42
0.062727
0
VERTEX
8
1
10
19.247986
20
8.045660
42
0.084790
0
VERTEX
8
1
10
19.152840
20
8.299828
42
0.034721
0
VERTEX
8
1
10
18.885162
20
9.139791
42
-0.085498
0
VERTEX
8
1
10
18.713707
20
9.960619
42
0.079608
0
VERTEX
8
1
10
18.619186
20
10.385603
42
0.207354
0
VERTEX
8
1
10
18.360977
20
10.616802
42
-0.081648
0
VERTEX
8
1
10
18.185608
20
10.723553
42
0.020036
0
VERTEX
8
1
10
17.874084
20
11.080786
0
VERTEX
8
1
10
17.892540
20
11.087538
42
0.103717
0
VERTEX
8
1
10
18.416222
20
11.279741
42
-0.012335
0
VERTEX
8
1
10
18.834312
20
11.506346
42
-0.101341
0
VERTEX
8
1
10
19.194954
20
11.585791
42
-0.320413
0
VERTEX
8
1
10
19.331352
20
11.465776
0
VERTEX
8
1
10
19.379700
20
11.262897
0
VERTEX
8
1
10
19.528656
20
10.931257
42
0.070413
0
VERTEX
8
1
10
19.867645
20
10.152170
42
-0.042091
0
VERTEX
8
1
10
20.119461
20
9.604853
42
0.101966
0
VERTEX
8
1
10
20.306473
20
9.344028
42
-0.098607
0
VERTEX
8
1
10
20.537262
20
8.985262
42
-0.022965
0
VERTEX
8
1
10
20.737923
20
8.485615
42
0.033396
0
VERTEX
8
1
10
20.827415
20
8.286062
42
0.096233
0
VERTEX
8
1
10
20.976700
20
8.168596
0
VERTEX
8
1
10
20.991440
20
8.182308
42
0.052577
0
VERTEX
8
1
10
20.896225
20
8.515436
42
-0.022203
0
VERTEX
8
1
10
20.753937
20
8.993357
42
0.106253
0
VERTEX
8
1
10
20.554581
20
9.520271
42
-0.035360
0
VERTEX
8
1
10
20.093002
20
10.545450
42
0.028260
0
VERTEX
8
1
10
19.824722
20
11.023327
42
-0.067541
0
VERTEX
8
1
10
19.636230
20
11.479675
0
VERTEX
8
1
10
19.497429
20
11.867762
0
VERTEX
8
1
10
19.545776
20
11.897657
42
-0.095530
0
VERTEX
8
1
10
19.815231
20
12.048893
42
-0.401199
0
VERTEX
8
1
10
19.935143
20
11.970695
42
0.027087
0
VERTEX
8
1
10
20.326942
20
11.180655
42
-0.043764
0
VERTEX
8
1
10
20.723351
20
10.464077
42
0.058628
0
VERTEX
8
1
10
21.101997
20
9.876297
42
0.047977
0
VERTEX
8
1
10
21.380379
20
9.652943
0
VERTEX
8
1
10
21.399200
20
9.637691
42
-0.071514
0
VERTEX
8
1
10
21.770508
20
9.171209
42
0.073470
0
VERTEX
8
1
10
21.938026
20
8.916666
0
VERTEX
8
1
10
21.953903
20
8.912325
42
0.208980
0
VERTEX
8
1
10
21.980080
20
9.075672
42
0.098060
0
VERTEX
8
1
10
21.904106
20
9.291603
42
0.057287
0
VERTEX
8
1
10
21.514496
20
9.821505
42
-0.000722
0
VERTEX
8
1
10
21.222786
20
10.150433
0
VERTEX
8
1
10
21.154884
20
10.243694
0
VERTEX
8
1
10
21.088608
20
10.338125
42
-0.038261
0
VERTEX
8
1
10
20.477821
20
11.395800
42
-0.026207
0
VERTEX
8
1
10
20.199097
20
12.093159
42
0.080253
0
VERTEX
8
1
10
20.007324
20
12.406137
42
0.098042
0
VERTEX
8
1
10
19.907425
20
12.471260
42
0.223337
0
VERTEX
8
1
10
19.762650
20
12.413515
42
-0.121684
0
VERTEX
8
1
10
19.338165
20
12.160450
0
VERTEX
8
1
10
19.321983
20
12.160648
42
0.163406
0
VERTEX
8
1
10
19.131844
20
12.154823
42
-0.053294
0
VERTEX
8
1
10
18.852547
20
12.078817
42
0.042062
0
VERTEX
8
1
10
18.161415
20
11.976208
0
VERTEX
8
1
10
18.139404
20
11.969555
0
VERTEX
8
1
10
18.117592
20
11.962479
0
VERTEX
8
1
10
18.190331
20
12.012510
42
-0.053703
0
VERTEX
8
1
10
18.795914
20
12.375475
42
0.050772
0
VERTEX
8
1
10
19.642006
20
12.898024
42
0.060372
0
VERTEX
8
1
10
20.065491
20
13.258095
42
-0.116784
0
VERTEX
8
1
10
20.326347
20
13.429945
0
VERTEX
8
1
10
20.341522
20
13.418354
42
0.126675
0
VERTEX
8
1
10
20.677292
20
13.088984
42
-0.141781
0
VERTEX
8
1
10
21.000778
20
12.705971
42
0.041680
0
VERTEX
8
1
10
21.103516
20
12.552881
42
0.131021
0
VERTEX
8
1
10
21.412163
20
12.378979
42
-0.208175
0
VERTEX
8
1
10
21.774055
20
12.078697
42
0.057248
0
VERTEX
8
1
10
22.276924
20
11.537586
42
-0.091322
0
VERTEX
8
1
10
22.554527
20
11.161770
42
0.272016
0
VERTEX
8
1
10
22.694237
20
11.260595
0
VERTEX
8
1
10
22.675476
20
11.260923
42
-0.222228
0
VERTEX
8
1
10
22.554626
20
11.357733
0
VERTEX
8
1
10
22.425491
20
11.587278
42
-0.050523
0
VERTEX
8
1
10
22.097885
20
12.034977
42
0.079925
0
VERTEX
8
1
10
21.707336
20
12.456083
42
-0.081347
0
VERTEX
8
1
10
21.092567
20
12.986856
0
VERTEX
8
1
10
21.024483
20
13.063435
0
VERTEX
8
1
10
20.956757
20
13.140331
42
0.004850
0
VERTEX
8
1
10
20.475815
20
13.585081
0
VERTEX
8
1
10
20.464714
20
13.598223
42
0.076302
0
VERTEX
8
1
10
20.286888
20
13.795380
42
0.255515
0
VERTEX
8
1
10
20.039726
20
13.783075
42
0.013304
0
VERTEX
8
1
10
19.556534
20
13.486248
42
-0.034055
0
VERTEX
8
1
10
19.128502
20
13.261589
0
VERTEX
8
1
10
19.109978
20
13.256075
0
VERTEX
8
1
10
19.117813
20
13.266621
42
0.017528
0
VERTEX
8
1
10
19.677933
20
14.178978
0
VERTEX
8
1
10
19.951141
20
14.284395
42
0.067321
0
VERTEX
8
1
10
20.733208
20
15.093870
42
0.046938
0
VERTEX
8
1
10
20.959755
20
15.480770
42
0.071978
0
VERTEX
8
1
10
21.069519
20
15.876453
0
VERTEX
8
1
10
21.073639
20
16.012096
0
VERTEX
8
1
10
21.057076
20
16.146902
0
VERTEX
8
1
10
21.017639
20
16.279993
42
0.193197
0
VERTEX
8
1
10
20.696785
20
16.608633
0
VERTEX
8
1
10
20.731544
20
16.664888
0
VERTEX
8
1
10
20.870056
20
16.826063
42
-0.061958
0
VERTEX
8
1
10
22.350433
20
18.054174
0
VERTEX
8
1
10
22.479408
20
18.105358
42
0.029235
0
VERTEX
8
1
10
24.120712
20
18.830667
42
0.028969
0
VERTEX
8
1
10
24.515526
20
19.070992
42
0.116663
0
VERTEX
8
1
10
25.265923
20
20.197624
42
0.054049
0
VERTEX
8
1
10
25.375084
20
20.667387
0
SEQEND
0
POLYLINE
8
1
66
1
70
1
0
VERTEX
8
1
10
20.011604
20
15.756994
0
VERTEX
8
1
10
20.018555
20
15.809137
42
-0.088774
0
VERTEX
8
1
10
20.198074
20
16.142273
42
-0.571975
0
VERTEX
8
1
10
20.323883
20
16.121178
0
VERTEX
8
1
10
20.332321
20
16.095779
42
-0.054385
0
VERTEX
8
1
10
20.331596
20
15.855536
0
VERTEX
8
1
10
20.300270
20
15.761675
42
0.316790
0
VERTEX
8
1
10
20.244049
20
15.747101
42
0.044580
0
VERTEX
8
1
10
20.170753
20
15.677593
42
-0.631154
0
SEQEND
0
POLYLINE
8
1
66
1
70
1
0
VERTEX
8
1
10
16.533417
20
23.197746
42
-0.003518
0
VERTEX
8
1
10
17.076706
20
22.092588
42
-0.064372
0
VERTEX
8
1
10
17.194183
20
21.826569
42
-0.334981
0
VERTEX
8
1
10
17.113541
20
21.679840
0
VERTEX
8
1
10
17.077637
20
21.661827
42
-0.013364
0
VERTEX
8
1
10
16.485168
20
21.475365
0
VERTEX
8
1
10
16.465950
20
21.481548
0
VERTEX
8
1
10
16.405510
20
21.531403
42
0.089677
0
VERTEX
8
1
10
16.215691
20
21.672379
0
VERTEX
8
1
10
16.196594
20
21.673210
42
0.236619
0
VERTEX
8
1
10
16.158684
20
21.503960
0
VERTEX
8
1
10
16.215248
20
21.306808
42
-0.369225
0
VERTEX
8
1
10
16.133385
20
21.131725
42
-0.125005
0
VERTEX
8
1
10
15.779350
20
21.013851
0
VERTEX
8
1
10
15.747314
20
21.200087
42
-0.099940
0
VERTEX
8
1
10
15.637146
20
21.344839
42
-0.046012
0
VERTEX
8
1
10
15.495522
20
21.677862
42
0.075455
0
VERTEX
8
1
10
15.270500
20
22.080902
42
-0.028936
0
VERTEX
8
1
10
15.032410
20
22.472992
0
VERTEX
8
1
10
15.018761
20
22.506088
42
0.063281
0
VERTEX
8
1
10
15.223274
20
22.566566
0
VERTEX
8
1
10
15.237717
20
22.556946
42
-0.058201
0
VERTEX
8
1
10
15.496078
20
22.105247
42
0.183221
0
VERTEX
8
1
10
15.618492
20
22.101952
0
VERTEX
8
1
10
15.637932
20
22.119440
42
0.220985
0
VERTEX
8
1
10
15.630852
20
22.249874
42
0.047339
0
VERTEX
8
1
10
15.438454
20
22.588037
0
VERTEX
8
1
10
15.444084
20
22.600456
42
0.335397
0
VERTEX
8
1
10
15.677399
20
22.782579
42
0.057729
0
VERTEX
8
1
10
15.718384
20
23.066990
0
VERTEX
8
1
10
15.727005
20
23.079618
0
VERTEX
8
1
10
15.749405
20
23.079832
42
-0.229604
0
VERTEX
8
1
10
15.919716
20
22.947853
42
0.092536
0
VERTEX
8
1
10
16.084236
20
22.754986
42
0.384514
0
VERTEX
8
1
10
16.228340
20
22.776150
42
0.221665
0
VERTEX
8
1
10
16.270828
20
22.898846
42
0.089718
0
VERTEX
8
1
10
16.176468
20
23.189148
42
-0.081455
0
VERTEX
8
1
10
16.096848
20
23.481226
42
-0.312454
0
VERTEX
8
1
10
16.238594
20
23.681576
0
VERTEX
8
1
10
16.248871
20
23.676807
42
-0.042144
0
SEQEND
0
POLYLINE
8
1
66
1
70
1
0
VERTEX
8
1
10
17.702698
20
17.104433
42
-0.146620
0
VERTEX
8
1
10
17.550789
20
17.095037
42
0.093717
0
VERTEX
8
1
10
17.273666
20
17.490673
42
0.122630
0
VERTEX
8
1
10
16.985542
20
17.643419
0
VERTEX
8
1
10
16.981148
20
17.631046
0
VERTEX
8
1
10
17.008118
20
17.566156
42
0.005873
0
VERTEX
8
1
10
17.144302
20
17.161028
0
VERTEX
8
1
10
17.145798
20
17.142511
42
-0.321491
0
VERTEX
8
1
10
16.849892
20
17.032660
0
VERTEX
8
1
10
16.818390
20
17.130997
42
0.117085
0
VERTEX
8
1
10
16.526794
20
17.493036
0
VERTEX
8
1
10
16.518196
20
17.496300
0
VERTEX
8
1
10
16.406715
20
17.455780
42
0.098348
0
VERTEX
8
1
10
16.388397
20
17.264555
42
0.012142
0
VERTEX
8
1
10
16.445274
20
16.923340
0
VERTEX
8
1
10
16.441803
20
16.901217
42
-0.223096
0
VERTEX
8
1
10
16.243362
20
16.966837
42
-0.081452
0
VERTEX
8
1
10
15.961586
20
17.349342
42
0.050504
0
VERTEX
8
1
10
15.750595
20
17.633802
0
VERTEX
8
1
10
15.708351
20
17.668499
42
0.278018
0
VERTEX
8
1
10
15.525085
20
17.694048
0
VERTEX
8
1
10
15.474594
20
17.664972
0
VERTEX
8
1
10
15.474335
20
17.647877
42
-0.127294
0
VERTEX
8
1
10
15.559074
20
17.524860
42
0.001530
0
VERTEX
8
1
10
15.629578
20
17.375856
0
VERTEX
8
1
10
15.620789
20
17.368795
42
-0.127663
0
VERTEX
8
1
10
15.514046
20
17.427673
42
-0.050943
0
VERTEX
8
1
10
15.213112
20
17.778091
42
-0.012586
0
VERTEX
8
1
10
14.639923
20
18.629362
0
VERTEX
8
1
10
14.624649
20
18.664473
42
-0.254471
0
VERTEX
8
1
10
15.011909
20
18.630407
42
-0.176667
0
VERTEX
8
1
10
15.321220
20
18.248404
42
0.047770
0
VERTEX
8
1
10
15.516785
20
18.086138
42
0.206231
0
VERTEX
8
1
10
15.857513
20
18.044109
0
VERTEX
8
1
10
15.874146
20
18.066732
0
VERTEX
8
1
10
15.871452
20
18.102381
42
0.093065
0
VERTEX
8
1
10
15.747520
20
18.418486
42
-0.006711
0
VERTEX
8
1
10
15.460793
20
18.889545
0
VERTEX
8
1
10
15.459229
20
18.921623
0
VERTEX
8
1
10
15.515656
20
18.938282
42
-0.169292
0
VERTEX
8
1
10
15.745010
20
18.877377
42
-0.059596
0
VERTEX
8
1
10
16.027802
20
18.665312
42
0.033728
0
VERTEX
8
1
10
16.422768
20
18.365330
42
0.116079
0
VERTEX
8
1
10
16.627693
20
18.310120
0
VERTEX
8
1
10
16.687576
20
18.320547
42
0.370361
0
VERTEX
8
1
10
16.896049
20
18.712227
42
0.075571
0
VERTEX
8
1
10
16.812988
20
18.989870
42
0.025767
0
VERTEX
8
1
10
16.436157
20
19.684425
42
-0.055263
0
VERTEX
8
1
10
16.278740
20
20.045870
0
VERTEX
8
1
10
16.292976
20
20.067955
0
VERTEX
8
1
10
16.353302
20
20.053217
42
-0.171470
0
VERTEX
8
1
10
16.521461
20
19.880873
0
VERTEX
8
1
10
16.632751
20
19.647442
0
VERTEX
8
1
10
16.641640
20
19.636766
0
VERTEX
8
1
10
16.648209
20
19.631334
0
VERTEX
8
1
10
16.648209
20
19.573227
42
0.044652
0
VERTEX
8
1
10
16.946327
20
18.918993
42
0.001125
0
VERTEX
8
1
10
17.475899
20
18.007256
42
-0.087050
0
VERTEX
8
1
10
17.763336
20
17.387985
42
-0.100075
0
VERTEX
8
1
10
17.774422
20
17.199070
42
-0.213132
0
SEQEND
0
POLYLINE
8
1
66
1
70
1
0
VERTEX
8
1
10
14.828918
20
17.259298
0
VERTEX
8
1
10
14.723434
20
17.291033
42
0.071804
0
VERTEX
8
1
10
13.928123
20
17.429539
42
-0.020727
0
VERTEX
8
1
10
13.035728
20
17.490242
42
0.020090
0
VERTEX
8
1
10
12.309387
20
17.594503
0
VERTEX
8
1
10
12.322479
20
17.660595
42
0.008680
0
VERTEX
8
1
10
12.393669
20
18.232830
42
0.111257
0
VERTEX
8
1
10
12.397514
20
18.366688
42
-0.012280
0
VERTEX
8
1
10
13.530586
20
18.502535
42
0.023135
0
VERTEX
8
1
10
13.905220
20
18.610989
42
-0.141894
0
VERTEX
8
1
10
14.212654
20
18.605429
42
-0.128762
0
VERTEX
8
1
10
14.554222
20
18.349567
42
-0.103052
0
VERTEX
8
1
10
15.144043
20
17.208723
0
VERTEX
8
1
10
15.120377
20
17.173252
0
SEQEND
0
POLYLINE
8
1
66
1
70
1
0
VERTEX
8
1
10
12.139778
20
17.795033
42
0.126192
0
VERTEX
8
1
10
12.100777
20
17.492004
0
VERTEX
8
1
10
11.834061
20
17.471046
42
0.022270
0
VERTEX
8
1
10
10.948341
20
17.296528
0
VERTEX
8
1
10
10.905434
20
17.296278
0
VERTEX
8
1
10
10.766113
20
17.388197
42
-0.208162
0
VERTEX
8
1
10
10.529594
20
17.759867
42
-0.095529
0
VERTEX
8
1
10
10.524612
20
18.237057
0
VERTEX
8
1
10
10.524925
20
18.255724
42
0.642906
0
VERTEX
8
1
10
10.464996
20
18.297014
42
0.214678
0
VERTEX
8
1
10
10.235123
20
18.119972
42
0.031703
0
VERTEX
8
1
10
9.956841
20
17.519468
42
-0.054472
0
VERTEX
8
1
10
9.756424
20
17.177582
42
-0.046003
0
VERTEX
8
1
10
9.204124
20
16.663330
42
0.057379
0
VERTEX
8
1
10
9.241447
20
16.680632
42
-2.650518
0
VERTEX
8
1
10
9.246292
20
16.680340
0
VERTEX
8
1
10
9.216759
20
16.664404
42
-0.021668
0
VERTEX
8
1
10
8.834419
20
16.528587
42
-0.007033
0
VERTEX
8
1
10
9.172554
20
16.889927
42
0.070941
0
VERTEX
8
1
10
9.694641
20
17.658474
42
0.068696
0
VERTEX
8
1
10
9.825859
20
18.098385
42
-0.128190
0
VERTEX
8
1
10
10.554924
20
18.824791
42
-0.108316
0
VERTEX
8
1
10
11.054451
20
18.969656
42
-0.244544
0
VERTEX
8
1
10
11.498306
20
18.743919
42
-0.129901
0
VERTEX
8
1
10
11.733215
20
18.209927
42
-0.170309
0
VERTEX
8
1
10
11.615952
20
17.818293
42
-0.289722
0
VERTEX
8
1
10
11.158417
20
17.661083
0
VERTEX
8
1
10
11.128128
20
17.674078
42
-0.421013
0
VERTEX
8
1
10
11.037117
20
18.082329
42
-0.311354
0
VERTEX
8
1
10
11.254395
20
18.155277
42
-0.235168
0
VERTEX
8
1
10
11.314674
20
18.084932
42
-0.048592
0
VERTEX
8
1
10
11.346054
20
17.978611
0
VERTEX
8
1
10
11.351822
20
17.968500
0
VERTEX
8
1
10
11.359200
20
17.962164
42
0.168993
0
VERTEX
8
1
10
11.419960
20
18.126497
42
0.267497
0
VERTEX
8
1
10
11.333000
20
18.258715
42
0.272628
0
VERTEX
8
1
10
11.010490
20
18.255209
42
0.186691
0
VERTEX
8
1
10
10.849014
20
18.061338
42
0.288203
0
VERTEX
8
1
10
10.943794
20
17.575100
0
VERTEX
8
1
10
10.980614
20
17.543385
42
0.193975
0
VERTEX
8
1
10
11.353981
20
17.458490
42
0.260674
0
VERTEX
8
1
10
11.791168
20
17.843365
42
0.131361
0
VERTEX
8
1
10
11.858086
20
18.398779
42
0.144232
0
VERTEX
8
1
10
11.603386
20
18.890444
42
0.270399
0
VERTEX
8
1
10
10.861053
20
19.076078
42
0.152962
0
VERTEX
8
1
10
9.940041
20
18.496998
42
0.015330
0
VERTEX
8
1
10
10.172852
20
19.218010
42
-0.037293
0
VERTEX
8
1
10
10.251083
20
19.520870
42
-0.164076
0
VERTEX
8
1
10
10.309174
20
19.578663
0
VERTEX
8
1
10
10.323921
20
19.578247
42
-0.392837
0
VERTEX
8
1
10
10.393593
20
19.385435
42
-0.165791
0
VERTEX
8
1
10
10.272133
20
19.221046
42
0.232981
0
VERTEX
8
1
10
10.444931
20
19.175507
42
0.222565
0
VERTEX
8
1
10
10.568024
20
19.285109
42
0.088739
0
VERTEX
8
1
10
10.662468
20
19.569695
42
-0.022954
0
VERTEX
8
1
10
10.744576
20
19.869471
0
VERTEX
8
1
10
10.764877
20
19.907402
0
VERTEX
8
1
10
10.788261
20
19.932787
42
-0.241724
0
VERTEX
8
1
10
11.003601
20
19.944916
42
-0.150931
0
VERTEX
8
1
10
11.275749
20
19.731485
42
-0.045979
0
VERTEX
8
1
10
11.419434
20
19.409781
42
0.122722
0
VERTEX
8
1
10
11.550148
20
19.238693
0
VERTEX
8
1
10
11.569405
20
19.292686
42
0.090181
0
VERTEX
8
1
10
11.567062
20
19.673136
42
0.110204
0
VERTEX
8
1
10
11.416542
20
20.111042
0
VERTEX
8
1
10
11.412750
20
20.120455
42
0.148004
0
VERTEX
8
1
10
11.332596
20
20.266232
42
-0.052040
0
VERTEX
8
1
10
11.225540
20
20.331268
0
VERTEX
8
1
10
11.241295
20
20.363552
42
0.135795
0
VERTEX
8
1
10
11.544495
20
21.165894
0
VERTEX
8
1
10
11.550613
20
21.231054
42
0.085716
0
VERTEX
8
1
10
11.490898
20
21.886230
42
0.004631
0
VERTEX
8
1
10
11.441414
20
22.095724
42
-0.401197
0
VERTEX
8
1
10
11.505516
20
22.191532
42
-0.230622
0
VERTEX
8
1
10
11.861420
20
22.148603
42
-0.050967
0
VERTEX
8
1
10
12.085457
20
21.988916
42
0.043472
0
VERTEX
8
1
10
12.234138
20
21.642864
0
VERTEX
8
1
10
12.013870
20
21.820919
42
0.170253
0
VERTEX
8
1
10
11.779358
20
21.917377
0
VERTEX
8
1
10
11.749390
20
21.913727
0
VERTEX
8
1
10
11.724213
20
21.893795
42
0.061308
0
VERTEX
8
1
10
11.735970
20
21.629101
42
0.004705
0
VERTEX
8
1
10
11.861610
20
21.048042
42
-0.094839
0
VERTEX
8
1
10
11.858109
20
20.665722
42
-0.033372
0
VERTEX
8
1
10
11.712082
20
20.345257
42
0.104090
0
VERTEX
8
1
10
11.680824
20
20.173227
0
VERTEX
8
1
10
11.685555
20
20.149723
42
0.078157
0
VERTEX
8
1
10
11.845551
20
19.867023
42
-0.174189
0
VERTEX
8
1
10
11.933739
20
19.537512
42
-0.041860
0
VERTEX
8
1
10
11.905312
20
19.286030
42
0.184289
0
VERTEX
8
1
10
11.983551
20
18.971586
42
-0.033121
0
VERTEX
8
1
10
12.143463
20
18.706411
42
-0.087525
0
VERTEX
8
1
10
12.213348
20
18.256908
42
-0.102067
0
SEQEND
0
POLYLINE
8
1
66
1
70
1
0
VERTEX
8
1
10
8.454147
20
16.881292
42
0.056885
0
VERTEX
8
1
10
8.434822
20
16.653742
0
VERTEX
8
1
10
8.326508
20
16.520658
0
VERTEX
8
1
10
8.294006
20
16.661367
42
-0.042634
0
VERTEX
8
1
10
8.184479
20
17.241425
42
-0.155008
0
VERTEX
8
1
10
8.305946
20
17.689789
42
0.040973
0
VERTEX
8
1
10
8.424820
20
17.959120
42
0.033812
0
VERTEX
8
1
10
8.498077
20
18.409952
0
VERTEX
8
1
10
8.515564
20
18.421898
42
-0.134059
0
VERTEX
8
1
10
8.608719
20
18.211538
42
-0.070282
0
VERTEX
8
1
10
8.649963
20
17.622774
42
-0.078483
0
VERTEX
8
1
10
8.591965
20
17.301693
42
-0.014011
0
VERTEX
8
1
10
8.473083
20
16.973005
42
0.049280
0
SEQEND
0
POLYLINE
8
1
66
1
70
1
0
VERTEX
8
1
10
8.587959
20
16.835203
0
VERTEX
8
1
10
8.591362
20
17.012465
42
0.063181
0
VERTEX
8
1
10
8.821671
20
17.620594
42
0.118672
0
VERTEX
8
1
10
8.777977
20
18.614557
0
VERTEX
8
1
10
8.751114
20
18.690479
0
VERTEX
8
1
10
8.719505
20
18.761988
42
0.160702
0
VERTEX
8
1
10
8.493401
20
19.010666
0
VERTEX
8
1
10
8.486992
20
19.034966
42
0.127621
0
VERTEX
8
1
10
8.225121
20
19.383751
0
VERTEX
8
1
10
8.215790
20
19.371588
42
0.008377
0
VERTEX
8
1
10
8.318512
20
18.878206
42
-0.154511
0
VERTEX
8
1
10
8.217300
20
18.204857
42
0.019146
0
VERTEX
8
1
10
8.023079
20
17.798037
42
0.118037
0
VERTEX
8
1
10
7.965591
20
17.131823
42
0.108881
0
VERTEX
8
1
10
8.122749
20
16.617035
42
-10.748338
0
VERTEX
8
1
10
8.126205
20
16.605989
0
VERTEX
8
1
10
7.891708
20
17.029482
42
-0.087146
0
VERTEX
8
1
10
7.658241
20
17.612656
42
0.069524
0
VERTEX
8
1
10
7.621132
20
17.841349
0
VERTEX
8
1
10
7.516464
20
18.026541
0
VERTEX
8
1
10
7.521881
20
18.039803
42
0.206111
0
VERTEX
8
1
10
7.758797
20
18.693783
42
0.041269
0
VERTEX
8
1
10
7.706261
20
19.284925
42
-0.089412
0
VERTEX
8
1
10
7.728661
20
19.733856
42
-0.069991
0
VERTEX
8
1
10
7.789070
20
19.956673
42
-0.057905
0
VERTEX
8
1
10
8.199677
20
20.400841
42
0.094887
0
VERTEX
8
1
10
8.267944
20
20.484510
42
0.244508
0
VERTEX
8
1
10
8.257217
20
20.570959
42
0.058574
0
VERTEX
8
1
10
8.146812
20
20.746449
42
-0.088756
0
VERTEX
8
1
10
7.914948
20
21.269341
0
VERTEX
8
1
10
7.793549
20
21.804441
0
VERTEX
8
1
10
7.795937
20
21.859314
42
0.196232
0
VERTEX
8
1
10
7.806755
20
22.034813
42
0.110482
0
VERTEX
8
1
10
7.664757
20
22.296936
42
0.034104
0
VERTEX
8
1
10
7.348129
20
22.622044
42
-0.218237
0
VERTEX
8
1
10
7.203842
20
22.978752
0
VERTEX
8
1
10
7.206894
20
22.991667
42
-0.258317
0
VERTEX
8
1
10
7.406868
20
23.147865
42
-0.153640
0
VERTEX
8
1
10
7.438377
20
23.138334
0
VERTEX
8
1
10
7.463158
20
23.165060
0
VERTEX
8
1
10
7.475792
20
23.160009
42
0.161403
0
VERTEX
8
1
10
7.617493
20
23.193947
42
0.073654
0
VERTEX
8
1
10
7.811157
20
23.312370
42
0.049607
0
VERTEX
8
1
10
8.099907
20
23.737640
42
-0.063642
0
VERTEX
8
1
10
8.495293
20
24.242182
42
-0.089608
0
VERTEX
8
1
10
8.734512
20
24.454002
42
-0.163617
0
VERTEX
8
1
10
8.872139
20
24.471100
42
0.117078
0
VERTEX
8
1
10
8.973450
20
24.440878
0
VERTEX
8
1
10
8.978752
20
24.399570
42
0.067633
0
VERTEX
8
1
10
9.086617
20
24.375628
0
VERTEX
8
1
10
9.090866
20
24.355635
0
VERTEX
8
1
10
9.169754
20
24.290461
42
0.057820
0
VERTEX
8
1
10
9.360809
20
24.116577
0
VERTEX
8
1
10
9.366318
20
24.093628
42
-0.069205
0
VERTEX
8
1
10
9.483406
20
24.032700
42
0.217669
0
VERTEX
8
1
10
9.712692
20
24.022354
42
0.036036
0
VERTEX
8
1
10
10.463554
20
24.232204
0
VERTEX
8
1
10
10.537086
20
24.256199
42
-0.032780
0
VERTEX
8
1
10
10.823112
20
24.330114
42
0.085059
0
VERTEX
8
1
10
10.997948
20
24.404699
0
VERTEX
8
1
10
10.997032
20
24.340553
42
0.110985
0
VERTEX
8
1
10
11.225533
20
23.534042
42
0.161217
0
VERTEX
8
1
10
11.449471
20
23.358259
42
-0.063247
0
VERTEX
8
1
10
11.560692
20
23.286608
0
VERTEX
8
1
10
11.561287
20
23.202421
42
0.242138
0
VERTEX
8
1
10
11.577980
20
23.134426
42
-0.044972
0
VERTEX
8
1
10
11.814880
20
22.942772
42
-0.268414
0
VERTEX
8
1
10
11.837891
20
22.781988
42
0.137874
0
VERTEX
8
1
10
11.845695
20
22.610859
0
VERTEX
8
1
10
11.786781
20
22.682682
42
0.081727
0
VERTEX
8
1
10
11.356041
20
23.092087
42
0.143150
0
VERTEX
8
1
10
10.984985
20
23.189091
0
VERTEX
8
1
10
10.961708
20
23.264061
42
0.027804
0
VERTEX
8
1
10
10.829689
20
23.777454
42
0.079858
0
VERTEX
8
1
10
10.754219
20
23.916664
42
0.213238
0
VERTEX
8
1
10
10.610565
20
23.976896
42
0.065947
0
VERTEX
8
1
10
10.329254
20
23.933285
42
0.054962
0
VERTEX
8
1
10
9.724564
20
23.748381
42
-0.242020
0
VERTEX
8
1
10
9.547531
20
23.757874
42
-0.018725
0
VERTEX
8
1
10
9.233124
20
23.991051
42
0.115771
0
VERTEX
8
1
10
8.820656
20
24.153866
42
0.147999
0
VERTEX
8
1
10
8.677505
20
24.119240
42
0.096701
0
VERTEX
8
1
10
8.537323
20
23.946190
0
VERTEX
8
1
10
8.518341
20
23.918285
42
0.029099
0
VERTEX
8
1
10
8.217361
20
23.467787
42
0.063912
0
VERTEX
8
1
10
8.025650
20
23.116415
0
VERTEX
8
1
10
8.017830
20
23.086538
0
VERTEX
8
1
10
8.004349
20
23.064560
0
VERTEX
8
1
10
7.967896
20
23.062342
42
0.036030
0
VERTEX
8
1
10
7.624634
20
23.059116
42
0.203309
0
VERTEX
8
1
10
7.454094
20
22.947111
0
VERTEX
8
1
10
7.445999
20
22.916258
42
0.109227
0
VERTEX
8
1
10
7.627266
20
22.783245
42
-0.249244
0
VERTEX
8
1
10
8.157646
20
21.977612
0
VERTEX
8
1
10
8.207382
20
21.349915
42
0.171829
0
VERTEX
8
1
10
8.527237
20
20.690395
0
VERTEX
8
1
10
8.915886
20
20.305241
0
VERTEX
8
1
10
8.629501
20
20.278708
42
0.147770
0
VERTEX
8
1
10
8.204399
20
20.094137
42
0.148143
0
VERTEX
8
1
10
7.938232
20
19.575550
42
0.154669
0
VERTEX
8
1
10
7.968254
20
19.418814
0
VERTEX
8
1
10
7.994522
20
19.411615
42
-0.140788
0
VERTEX
8
1
10
8.335869
20
19.852386
42
-0.084505
0
VERTEX
8
1
10
8.756676
20
20.079744
0
VERTEX
8
1
10
8.779922
20
20.074184
42
0.402412
0
VERTEX
8
1
10
8.859322
20
19.118240
42
0.204425
0
VERTEX
8
1
10
9.105370
20
19.049849
42
0.349246
0
VERTEX
8
1
10
9.302162
20
19.281389
42
0.179224
0
VERTEX
8
1
10
9.273651
20
19.341560
42
0.065312
0
VERTEX
8
1
10
9.088951
20
19.453962
42
-0.150890
0
VERTEX
8
1
10
8.958763
20
19.590139
0
VERTEX
8
1
10
8.969124
20
19.638571
42
-0.123813
0
VERTEX
8
1
10
9.181854
20
19.981239
0
VERTEX
8
1
10
9.222137
20
20.010618
42
-0.381555
0
VERTEX
8
1
10
9.466690
20
19.976437
42
-0.152441
0
VERTEX
8
1
10
9.612358
20
19.711485
42
-0.078271
0
VERTEX
8
1
10
9.641754
20
19.345894
42
0.029382
0
VERTEX
8
1
10
9.672531
20
18.827436
42
-0.090665
0
VERTEX
8
1
10
9.605537
20
18.213579
0
VERTEX
8
1
10
9.496490
20
17.911631
42
-0.045580
0
VERTEX
8
1
10
9.050209
20
17.355337
42
0.006304
0
SEQEND
0
POLYLINE
8
1
66
1
70
1
0
VERTEX
8
1
10
7.720177
20
24.083115
42
-0.115215
0
VERTEX
8
1
10
7.756538
20
24.342960
0
VERTEX
8
1
10
7.786186
20
24.389032
0
VERTEX
8
1
10
7.817139
20
24.481997
42
-0.216405
0
VERTEX
8
1
10
7.939301
20
24.543364
42
-0.141680
0
VERTEX
8
1
10
8.163658
20
24.514503
42
-0.201183
0
VERTEX
8
1
10
8.375343
20
24.338251
0
VERTEX
8
1
10
8.254471
20
24.177078
42
0.198588
0
VERTEX
8
1
10
8.172829
20
24.062857
42
-0.028320
0
VERTEX
8
1
10
7.770973
20
23.458900
0
VERTEX
8
1
10
7.760551
20
23.451065
0
VERTEX
8
1
10
7.754333
20
23.661293
0
SEQEND
0
POLYLINE
8
1
66
1
70
1
0
VERTEX
8
1
10
8.342918
20
25.297180
0
VERTEX
8
1
10
8.342384
20
25.207645
42
-0.229611
0
VERTEX
8
1
10
8.099419
20
24.727507
0
VERTEX
8
1
10
8.062210
20
24.705536
42
-0.388620
0
VERTEX
8
1
10
7.785698
20
24.777058
42
-0.134340
0
VERTEX
8
1
10
7.667931
20
25.053749
42
-0.088634
0
VERTEX
8
1
10
7.658669
20
25.834961
0
VERTEX
8
1
10
7.663513
20
25.842297
42
-0.416734
0
VERTEX
8
1
10
7.690674
20
25.821884
0
VERTEX
8
1
10
7.752747
20
25.852924
42
-0.189381
0
VERTEX
8
1
10
7.933372
20
25.943790
42
-0.215836
0
VERTEX
8
1
10
8.147697
20
25.829742
42
-0.171766
0
SEQEND
0
POLYLINE
8
1
66
1
70
1
0
VERTEX
8
1
10
9.327225
20
25.923561
0
VERTEX
8
1
10
9.294479
20
25.922421
42
-0.121713
0
VERTEX
8
1
10
9.345581
20
25.980494
0
VERTEX
8
1
10
9.327942
20
25.925707
42
-0.106407
0
VERTEX
8
1
10
9.800858
20
25.816154
42
-0.049338
0
VERTEX
8
1
10
10.516548
20
25.425980
42
-0.159271
0
VERTEX
8
1
10
10.887924
20
24.905060
42
-0.159147
0
VERTEX
8
1
10
10.864273
20
24.546387
0
VERTEX
8
1
10
10.831413
20
24.489529
42
-0.094349
0
VERTEX
8
1
10
10.634338
20
24.519455
42
-0.017237
0
VERTEX
8
1
10
10.163719
20
24.716148
42
0.043315
0
VERTEX
8
1
10
9.626144
20
24.951946
42
-0.223845
0
VERTEX
8
1
10
9.383484
20
25.212461
42
-0.093559
0
VERTEX
8
1
10
9.282845
20
25.790281
0
SEQEND
0
POLYLINE
8
1
66
1
70
1
0
VERTEX
8
1
10
10.233185
20
27.209394
42
-0.137320
0
VERTEX
8
1
10
10.046883
20
27.413952
0
VERTEX
8
1
10
10.078613
20
27.540718
42
0.165903
0
VERTEX
8
1
10
10.127609
20
27.544865
42
0.081125
0
VERTEX
8
1
10
10.312164
20
27.627705
42
-0.086349
0
VERTEX
8
1
10
10.602295
20
27.722984
42
-0.221162
0
VERTEX
8
1
10
10.782822
20
27.651930
42
-0.189856
0
VERTEX
8
1
10
10.968330
20
27.277264
42
-0.053562
0
VERTEX
8
1
10
10.972389
20
27.066082
42
-0.021934
0
VERTEX
8
1
10
10.936157
20
26.690758
0
VERTEX
8
1
10
10.922554
20
26.654419
42
-0.158525
0
VERTEX
8
1
10
10.744400
20
26.746803
42
-0.013320
0
VERTEX
8
1
10
10.492050
20
27.019653
42
0.023188
0
SEQEND
0
POLYLINE
8
1
66
1
70
1
0
VERTEX
8
1
10
9.829819
20
24.505013
42
-0.072552
0
VERTEX
8
1
10
10.423080
20
24.373447
42
-0.016050
0
VERTEX
8
1
10
9.934143
20
24.196939
42
-0.050790
0
VERTEX
8
1
10
9.801086
20
24.177738
42
-0.200139
0
VERTEX
8
1
10
9.537445
20
24.212498
0
VERTEX
8
1
10
9.537445
20
24.407881
0
VERTEX
8
1
10
9.564911
20
24.468788
42
-0.102476
0
SEQEND
0
POLYLINE
8
1
66
1
70
1
0
VERTEX
8
1
10
11.056007
20
20.798504
0
VERTEX
8
1
10
11.037224
20
20.916843
42
-0.013307
0
VERTEX
8
1
10
10.909950
20
21.474495
42
0.133840
0
VERTEX
8
1
10
10.779076
20
21.711216
0
VERTEX
8
1
10
10.758003
20
21.707069
42
0.088681
0
VERTEX
8
1
10
10.730247
20
21.509346
42
0.022219
0
VERTEX
8
1
10
10.737419
20
21.192749
42
-0.030764
0
VERTEX
8
1
10
10.687088
20
20.631954
42
-0.136964
0
VERTEX
8
1
10
10.548035
20
20.353775
0
VERTEX
8
1
10
10.512756
20
20.339273
42
-0.098038
0
VERTEX
8
1
10
10.336922
20
20.617640
42
-0.016072
0
VERTEX
8
1
10
10.185600
20
21.062908
42
-0.055468
0
VERTEX
8
1
10
10.040825
20
21.591345
0
VERTEX
8
1
10
10.037582
20
21.646698
42
-0.207292
0
VERTEX
8
1
10
10.083458
20
21.801022
0
VERTEX
8
1
10
10.134834
20
21.884611
42
-0.346211
0
VERTEX
8
1
10
10.154778
20
21.918594
42
-0.071118
0
VERTEX
8
1
10
10.136765
20
21.886513
42
0.122966
0
VERTEX
8
1
10
10.236534
20
21.927233
0
VERTEX
8
1
10
10.556244
20
22.151791
42
-0.175098
0
VERTEX
8
1
10
11.000809
20
22.302868
42
-0.303932
0
VERTEX
8
1
10
11.181442
20
22.154911
0
VERTEX
8
1
10
11.194473
20
22.116833
0
VERTEX
8
1
10
11.205284
20
22.074314
42
-0.046242
0
VERTEX
8
1
10
11.261665
20
21.042995
42
-0.153873
0
VERTEX
8
1
10
11.093758
20
20.618668
42
-0.116350
0
VERTEX
8
1
10
11.047653
20
20.587112
0
VERTEX
8
1
10
11.046593
20
20.606304
42
0.081851
0
SEQEND
0
POLYLINE
8
1
66
1
70
1
0
VERTEX
8
1
10
9.053902
20
22.398874
42
-0.196736
0
VERTEX
8
1
10
9.331474
20
21.833069
42
-0.056751
0
VERTEX
8
1
10
9.317734
20
21.349827
0
VERTEX
8
1
10
9.307297
20
21.215178
42
0.098771
0
VERTEX
8
1
10
9.365242
20
20.798485
42
0.033913
0
VERTEX
8
1
10
9.590843
20
20.061098
42
0.107261
0
VERTEX
8
1
10
9.689507
20
19.934338
42
0.123186
0
VERTEX
8
1
10
9.922546
20
19.875181
42
0.049070
0
VERTEX
8
1
10
10.251038
20
19.867699
0
VERTEX
8
1
10
10.258064
20
19.876083
42
-0.077866
0
VERTEX
8
1
10
10.118935
20
20.051140
42
-0.095711
0
VERTEX
8
1
10
9.823242
20
20.786449
42
-0.138171
0
VERTEX
8
1
10
9.831947
20
22.139019
0
VERTEX
8
1
10
9.834167
20
22.176605
42
0.134158
0
VERTEX
8
1
10
9.476662
20
22.503201
42
0.215285
0
VERTEX
8
1
10
9.262650
20
22.493145
0
SEQEND
0
POLYLINE
8
1
66
1
70
1
0
VERTEX
8
1
10
8.231422
20
22.344385
0
VERTEX
8
1
10
8.211060
20
22.423786
42
-0.002450
0
VERTEX
8
1
10
8.452614
20
22.227253
42
-0.069823
0
VERTEX
8
1
10
8.629234
20
22.017691
42
0.026567
0
VERTEX
8
1
10
8.911797
20
21.479488
0
VERTEX
8
1
10
8.921761
20
21.452988
42
-0.093726
0
VERTEX
8
1
10
8.931572
20
21.162567
42
0.101386
0
VERTEX
8
1
10
9.034576
20
20.503746
0
VERTEX
8
1
10
9.010323
20
20.501480
42
-0.136646
0
VERTEX
8
1
10
8.625999
20
20.829674
42
-0.122992
0
VERTEX
8
1
10
8.356224
20
21.505316
42
-0.020070
0
VERTEX
8
1
10
8.311752
20
21.924606
42
-0.013437
0
VERTEX
8
1
10
8.229134
20
22.314835
0
VERTEX
8
1
10
8.229248
20
22.331570
0
SEQEND
0
POLYLINE
8
1
66
1
70
1
0
VERTEX
8
1
10
8.863045
20
21.849291
0
VERTEX
8
1
10
8.740540
20
22.032314
42
0.078294
0
VERTEX
8
1
10
8.351898
20
22.490496
42
0.084673
0
VERTEX
8
1
10
8.044846
20
22.708942
42
-0.110984
0
VERTEX
8
1
10
7.900261
20
22.838625
0
VERTEX
8
1
10
7.893188
20
22.858088
0
VERTEX
8
1
10
7.895889
20
22.863552
42
-0.095074
0
VERTEX
8
1
10
7.966743
20
22.858276
0
VERTEX
8
1
10
7.966454
20
22.888649
42
0.128430
0
VERTEX
8
1
10
7.997353
20
22.855047
42
0.075055
0
VERTEX
8
1
10
8.255463
20
22.764376
42
-0.061352
0
VERTEX
8
1
10
8.473892
20
22.679218
42
-0.068083
0
VERTEX
8
1
10
8.859001
20
22.446041
0
VERTEX
8
1
10
8.883926
20
22.418186
42
-0.094360
0
VERTEX
8
1
10
9.161346
20
21.808811
42
-0.090353
0
VERTEX
8
1
10
9.163681
20
21.630981
0
VERTEX
8
1
10
9.146767
20
21.590698
0
VERTEX
8
1
10
9.118004
20
21.568111
42
-0.072812
0
SEQEND
0
POLYLINE
8
1
66
1
70
1
0
VERTEX
8
1
10
10.493240
20
23.417147
42
0.320368
0
VERTEX
8
1
10
10.263412
20
23.618431
42
0.047619
0
VERTEX
8
1
10
9.985008
20
23.638359
42
0.034762
0
VERTEX
8
1
10
9.997276
20
23.644764
0
VERTEX
8
1
10
10.043343
20
23.728573
42
-0.112726
0
VERTEX
8
1
10
10.167839
20
23.775684
42
0.063200
0
VERTEX
8
1
10
10.441078
20
23.845650
42
-0.093088
0
VERTEX
8
1
10
10.578049
20
23.861168
0
VERTEX
8
1
10
10.603378
20
23.853659
42
-0.081984
0
VERTEX
8
1
10
10.735878
20
23.361927
0
VERTEX
8
1
10
10.741020
20
23.304527
0
VERTEX
8
1
10
10.737686
20
23.269722
0
VERTEX
8
1
10
10.695702
20
23.264503
42
-0.125741
0
VERTEX
8
1
10
10.535423
20
23.251083
0
VERTEX
8
1
10
10.517288
20
23.259373
0
VERTEX
8
1
10
10.510338
20
23.265968
0
VERTEX
8
1
10
10.526382
20
23.295715
0
SEQEND
0
POLYLINE
8
1
66
1
70
1
0
VERTEX
8
1
10
9.897575
20
23.488176
42
-0.044140
0
VERTEX
8
1
10
10.189476
20
23.523529
42
-0.370032
0
VERTEX
8
1
10
10.383591
20
23.330074
42
-0.164645
0
VERTEX
8
1
10
10.342010
20
23.075203
0
VERTEX
8
1
10
10.374603
20
23.064079
0
VERTEX
8
1
10
10.414352
20
23.060406
42
0.060094
0
VERTEX
8
1
10
10.646622
20
23.098343
42
-0.226553
0
VERTEX
8
1
10
10.861389
20
23.039341
0
VERTEX
8
1
10
10.899422
20
23.004955
0
VERTEX
8
1
10
10.892265
20
22.986855
0
VERTEX
8
1
10
10.799370
20
22.972366
42
0.055451
0
VERTEX
8
1
10
10.424950
20
22.917248
42
0.157277
0
VERTEX
8
1
10
10.049843
20
22.589626
0
VERTEX
8
1
10
10.036682
20
22.560417
0
VERTEX
8
1
10
10.027580
20
22.531902
0
VERTEX
8
1
10
10.018921
20
22.515141
0
VERTEX
8
1
10
9.970840
20
22.528751
42
-0.111229
0
VERTEX
8
1
10
9.783676
20
22.598841
0
VERTEX
8
1
10
9.775352
20
22.610271
42
-0.072351
0
VERTEX
8
1
10
9.917542
20
22.896204
42
-0.059215
0
VERTEX
8
1
10
10.059540
20
23.119114
0
VERTEX
8
1
10
10.044731
20
23.137409
42
0.156596
0
VERTEX
8
1
10
9.889549
20
23.175430
42
0.044300
0
VERTEX
8
1
10
9.530045
20
23.113903
42
0.015763
0
VERTEX
8
1
10
9.107941
20
23.056290
42
0.134797
0
VERTEX
8
1
10
8.935768
20
22.963623
0
VERTEX
8
1
10
8.934502
20
22.940788
42
0.189022
0
VERTEX
8
1
10
9.081047
20
22.885277
42
0.082062
0
VERTEX
8
1
10
9.379120
20
22.906507
42
0.266089
0
VERTEX
8
1
10
9.432884
20
22.931862
42
0.018008
0
VERTEX
8
1
10
9.724411
20
23.044872
42
-0.305556
0
VERTEX
8
1
10
9.761177
20
22.955658
42
-0.189282
0
VERTEX
8
1
10
9.558815
20
22.640675
42
-0.116629
0
VERTEX
8
1
10
9.516327
20
22.630611
42
-0.045325
0
VERTEX
8
1
10
9.345947
20
22.680464
42
0.046659
0
VERTEX
8
1
10
9.113007
20
22.691334
42
-0.158929
0
VERTEX
8
1
10
8.777420
20
22.813335
0
VERTEX
8
1
10
8.741615
20
22.850983
42
-0.337260
0
VERTEX
8
1
10
8.723831
20
23.123596
0
VERTEX
8
1
10
8.759155
20
23.170937
0
VERTEX
8
1
10
8.806976
20
23.217144
42
-0.117687
0
VERTEX
8
1
10
9.209145
20
23.393620
42
-0.044390
0
VERTEX
8
1
10
9.841843
20
23.480066
0
VERTEX
8
1
10
9.868820
20
23.483669
0
SEQEND
0
POLYLINE
8
1
66
1
70
1
0
VERTEX
8
1
10
9.429863
20
23.527807
0
VERTEX
8
1
10
9.379219
20
23.572491
42
0.284984
0
VERTEX
8
1
10
8.604233
20
23.253283
42
0.138415
0
VERTEX
8
1
10
8.465973
20
22.860638
42
-0.055659
0
VERTEX
8
1
10
8.173897
20
23.085526
0
VERTEX
8
1
10
8.208092
20
23.120197
42
0.075729
0
VERTEX
8
1
10
8.420631
20
23.491196
42
-0.059878
0
VERTEX
8
1
10
8.615395
20
23.818132
42
-0.324393
0
VERTEX
8
1
10
8.975746
20
23.892216
42
-0.113753
0
VERTEX
8
1
10
9.396400
20
23.590202
42
-0.073910
0
SEQEND
0
POLYLINE
8
1
66
1
70
1
0
VERTEX
8
1
10
11.383904
20
22.466827
0
VERTEX
8
1
10
11.268028
20
22.451431
42
0.009916
0
VERTEX
8
1
10
10.722977
20
22.352097
42
0.045573
0
VERTEX
8
1
10
10.338440
20
22.220621
0
VERTEX
8
1
10
10.115860
20
22.077404
42
0.116685
0
VERTEX
8
1
10
9.965622
20
21.988064
0
VERTEX
8
1
10
9.976219
20
21.927555
0
VERTEX
8
1
10
9.948814
20
21.952759
42
-0.173321
0
VERTEX
8
1
10
9.963799
20
21.986137
0
VERTEX
8
1
10
9.929375
20
22.182076
42
-0.358494
0
VERTEX
8
1
10
9.925209
20
22.216225
42
-0.161780
0
VERTEX
8
1
10
9.928413
20
22.187016
42
0.303655
0
VERTEX
8
1
10
9.940239
20
22.178066
42
0.139531
0
VERTEX
8
1
10
10.037590
20
22.294941
42
-0.050834
0
VERTEX
8
1
10
10.151878
20
22.440884
42
-0.045291
0
VERTEX
8
1
10
10.434814
20
22.628895
42
-0.117599
0
VERTEX
8
1
10
10.970802
20
22.824726
42
-0.106305
0
VERTEX
8
1
10
11.367661
20
22.822998
42
-0.144209
0
VERTEX
8
1
10
11.790550
20
22.531254
42
-0.102895
0
VERTEX
8
1
10
11.854424
20
22.402134
0
VERTEX
8
1
10
11.821243
20
22.398922
42
0.135372
0
SEQEND
0
POLYLINE
8
1
66
1
70
1
0
VERTEX
8
1
10
12.900085
20
23.262463
42
-0.066328
0
VERTEX
8
1
10
12.853897
20
23.460926
42
0.047653
0
VERTEX
8
1
10
13.276398
20
23.527046
42
-0.069624
0
VERTEX
8
1
10
13.704880
20
23.561525
0
VERTEX
8
1
10
13.743088
20
23.555283
42
-0.197306
0
VERTEX
8
1
10
14.125069
20
23.230307
42
-0.152204
0
VERTEX
8
1
10
14.150436
20
23.029753
0
VERTEX
8
1
10
14.107666
20
23.034138
42
0.109487
0
VERTEX
8
1
10
13.372894
20
23.035172
42
0.101323
0
VERTEX
8
1
10
13.022339
20
22.861645
0
VERTEX
8
1
10
12.812111
20
22.661263
42
-0.255133
0
VERTEX
8
1
10
12.710983
20
22.645636
42
-0.039952
0
VERTEX
8
1
10
12.565735
20
22.696661
42
0.452472
0
VERTEX
8
1
10
12.460609
20
22.617369
42
0.097783
0
VERTEX
8
1
10
12.556213
20
22.413252
42
-0.211366
0
VERTEX
8
1
10
12.620819
20
21.931047
42
-0.223506
0
VERTEX
8
1
10
12.403244
20
21.714279
0
VERTEX
8
1
10
12.432770
20
21.684738
42
-0.133422
0
VERTEX
8
1
10
12.347908
20
21.686420
0
VERTEX
8
1
10
12.343330
20
21.698875
0
VERTEX
8
1
10
12.324432
20
21.841141
42
0.134398
0
VERTEX
8
1
10
12.130363
20
22.290676
0
VERTEX
8
1
10
12.113014
20
22.315786
42
-0.235275
0
VERTEX
8
1
10
12.069054
20
22.483442
42
-0.035726
0
VERTEX
8
1
10
12.169312
20
22.735630
42
-0.101982
0
VERTEX
8
1
10
12.434929
20
23.165268
0
VERTEX
8
1
10
12.467590
20
23.193901
42
-0.232373
0
VERTEX
8
1
10
12.667870
20
23.248432
42
0.053827
0
VERTEX
8
1
10
12.908447
20
23.216749
0
SEQEND
0
POLYLINE
8
1
66
1
70
1
0
VERTEX
8
1
10
14.667938
20
22.472467
42
-0.016204
0
VERTEX
8
1
10
15.320908
20
21.361057
42
0.014191
0
VERTEX
8
1
10
15.497276
20
21.094692
42
-0.036463
0
VERTEX
8
1
10
15.722435
20
20.683708
0
VERTEX
8
1
10
15.742752
20
20.627043
42
-0.163181
0
VERTEX
8
1
10
15.754196
20
20.439932
0
VERTEX
8
1
10
15.736816
20
20.413876
42
0.083615
0
VERTEX
8
1
10
15.540993
20
20.326521
42
-0.289897
0
VERTEX
8
1
10
15.385162
20
20.343580
0
VERTEX
8
1
10
15.355354
20
20.364958
42
-0.077956
0
VERTEX
8
1
10
15.058533
20
20.696735
42
0.149724
0
VERTEX
8
1
10
14.882584
20
20.842171
0
VERTEX
8
1
10
14.858902
20
20.850620
0
VERTEX
8
1
10
14.884781
20
20.756142
0
VERTEX
8
1
10
15.031670
20
20.443129
42
-0.169781
0
VERTEX
8
1
10
15.049583
20
20.245588
0
VERTEX
8
1
10
15.034683
20
20.221914
42
0.119446
0
VERTEX
8
1
10
14.840858
20
20.108568
42
-0.072818
0
VERTEX
8
1
10
14.674309
20
20.011534
0
VERTEX
8
1
10
14.650932
20
20.021717
42
0.018017
0
VERTEX
8
1
10
14.306847
20
20.395475
42
0.077911
0
VERTEX
8
1
10
14.074104
20
20.552702
0
VERTEX
8
1
10
14.040771
20
20.562397
0
VERTEX
8
1
10
14.026413
20
20.538561
42
0.160789
0
VERTEX
8
1
10
14.082977
20
20.310511
42
0.034125
0
VERTEX
8
1
10
14.333801
20
19.946648
42
-0.099592
0
VERTEX
8
1
10
14.419304
20
19.739691
42
-0.301825
0
VERTEX
8
1
10
14.319061
20
19.559954
42
0.014853
0
VERTEX
8
1
10
14.057495
20
19.411991
0
VERTEX
8
1
10
14.029068
20
19.406225
42
0.115534
0
VERTEX
8
1
10
13.498695
20
20.157661
0
VERTEX
8
1
10
13.455826
20
20.190983
0
VERTEX
8
1
10
13.412254
20
20.221294
0
VERTEX
8
1
10
13.386826
20
20.232054
42
-0.095272
0
VERTEX
8
1
10
13.238274
20
20.158745
0
VERTEX
8
1
10
13.209152
20
20.258343
42
0.070577
0
VERTEX
8
1
10
12.962868
20
20.702103
0
VERTEX
8
1
10
12.883713
20
20.813656
42
-0.019705
0
VERTEX
8
1
10
12.617905
20
21.218697
42
-0.111916
0
VERTEX
8
1
10
12.564064
20
21.403784
0
VERTEX
8
1
10
12.581070
20
21.426338
0
VERTEX
8
1
10
12.637161
20
21.433735
42
-0.128775
0
VERTEX
8
1
10
12.923775
20
21.354088
42
-0.024568
0
VERTEX
8
1
10
13.390266
20
21.037508
42
0.067848
0
VERTEX
8
1
10
13.614525
20
20.932621
0
VERTEX
8
1
10
13.703796
20
20.955339
0
VERTEX
8
1
10
13.702896
20
20.968103
42
0.071364
0
VERTEX
8
1
10
13.584465
20
21.262127
42
0.147961
0
VERTEX
8
1
10
13.929474
20
21.326996
42
0.228421
0
VERTEX
8
1
10
14.147644
20
21.652718
42
0.115565
0
VERTEX
8
1
10
14.134361
20
21.970900
0
VERTEX
8
1
10
14.127983
20
22.015877
42
-0.059151
0
VERTEX
8
1
10
14.248894
20
21.905270
42
0.026603
0
VERTEX
8
1
10
14.535278
20
21.584373
42
0.115029
0
VERTEX
8
1
10
14.703369
20
21.498053
0
VERTEX
8
1
10
14.725700
20
21.514097
42
0.177015
0
VERTEX
8
1
10
14.642517
20
21.836397
42
0.030577
0
VERTEX
8
1
10
14.315033
20
22.261818
42
-0.054998
0
VERTEX
8
1
10
14.114120
20
22.573792
42
-0.120707
0
VERTEX
8
1
10
14.095558
20
22.728456
0
VERTEX
8
1
10
14.114655
20
22.730968
42
-0.116290
0
VERTEX
8
1
10
14.533569
20
22.621346
0
VERTEX
8
1
10
14.556938
20
22.605537
42
-0.228292
0
VERTEX
8
1
10
14.600273
20
22.542191
0
VERTEX
8
1
10
14.721420
20
22.481651
42
0.117316
0
SEQEND
0
POLYLINE
8
1
66
1
70
1
0
VERTEX
8
1
10
12.073219
20
20.910574
42
0.030308
0
VERTEX
8
1
10
12.020775
20
21.138117
42
0.098527
0
VERTEX
8
1
10
11.961090
20
21.316616
42
-0.178487
0
VERTEX
8
1
10
12.444038
20
21.018478
42
-0.031796
0
VERTEX
8
1
10
12.793121
20
20.476570
42
-0.108703
0
VERTEX
8
1
10
12.877434
20
20.123480
0
VERTEX
8
1
10
12.857086
20
20.095837
42
-0.078306
0
VERTEX
8
1
10
12.496895
20
20.188877
42
0.104211
0
VERTEX
8
1
10
11.917503
20
20.271999
0
VERTEX
8
1
10
11.905594
20
20.279524
0
VERTEX
8
1
10
11.907875
20
20.310774
42
-0.067141
0
VERTEX
8
1
10
12.016808
20
20.601017
42
0.126428
0
SEQEND
0
POLYLINE
8
1
66
1
70
1
0
VERTEX
8
1
10
12.283226
20
18.932890
0
VERTEX
8
1
10
12.230194
20
19.002504
42
-0.189974
0
VERTEX
8
1
10
12.129341
20
19.306942
42
0.044723
0
VERTEX
8
1
10
12.107643
20
19.749245
42
0.089341
0
VERTEX
8
1
10
12.009277
20
20.002214
0
VERTEX
8
1
10
12.043449
20
20.006250
42
-0.091224
0
VERTEX
8
1
10
13.078362
20
19.803362
42
-0.167410
0
VERTEX
8
1
10
13.399605
20
19.585291
42
-0.024127
0
VERTEX
8
1
10
13.567490
20
19.350376
42
-0.051180
0
VERTEX
8
1
10
13.808907
20
19.012093
42
-0.163390
0
VERTEX
8
1
10
13.830460
20
18.790508
0
VERTEX
8
1
10
13.785858
20
18.771797
42
-0.127021
0
VERTEX
8
1
10
13.284111
20
18.811136
0
VERTEX
8
1
10
13.243530
20
18.791042
42
0.113950
0
VERTEX
8
1
10
12.896942
20
18.853682
42
0.058210
0
VERTEX
8
1
10
12.416901
20
18.786112
0
VERTEX
8
1
10
12.382790
20
18.791740
42
0.035140
0
SEQEND
0
POLYLINE
8
1
66
1
70
1
0
VERTEX
8
1
10
15.265152
20
24.572287
42
-0.177679
0
VERTEX
8
1
10
15.530464
20
24.561779
42
0.031522
0
VERTEX
8
1
10
15.736008
20
24.305597
42
-0.147525
0
VERTEX
8
1
10
15.877983
20
23.927361
0
VERTEX
8
1
10
15.808907
20
23.935261
42
-0.111246
0
VERTEX
8
1
10
15.728142
20
24.011135
42
0.135343
0
VERTEX
8
1
10
15.602768
20
24.090757
42
0.266612
0
VERTEX
8
1
10
15.583305
20
24.019455
42
0.132570
0
VERTEX
8
1
10
15.640137
20
23.899132
0
VERTEX
8
1
10
15.645233
20
23.885891
42
0.225596
0
VERTEX
8
1
10
15.581696
20
23.672867
0
VERTEX
8
1
10
15.564087
20
23.660862
42
0.054757
0
VERTEX
8
1
10
15.239220
20
23.615940
42
0.107820
0
VERTEX
8
1
10
15.061546
20
23.514200
42
0.288493
0
VERTEX
8
1
10
15.033066
20
23.353916
0
VERTEX
8
1
10
15.048676
20
23.312878
42
-0.053992
0
VERTEX
8
1
10
15.157326
20
23.018250
0
VERTEX
8
1
10
15.159325
20
22.976059
42
-0.341223
0
VERTEX
8
1
10
15.097816
20
22.893454
42
-0.142240
0
VERTEX
8
1
10
14.960419
20
22.897579
42
-0.182781
0
VERTEX
8
1
10
14.843025
20
23.003399
42
0.127415
0
VERTEX
8
1
10
14.649841
20
23.171932
42
0.056027
0
VERTEX
8
1
10
14.391907
20
23.270657
42
-0.206080
0
VERTEX
8
1
10
14.155960
20
23.477051
42
-0.010502
0
VERTEX
8
1
10
14.070175
20
23.644009
0
VERTEX
8
1
10
13.900887
20
23.783089
42
0.121724
0
VERTEX
8
1
10
14.119865
20
23.862528
42
0.079243
0
VERTEX
8
1
10
14.309738
20
24.022984
42
-0.087207
0
VERTEX
8
1
10
14.748695
20
24.374771
42
-0.057662
0
SEQEND
0
POLYLINE
8
1
66
1
70
1
0
VERTEX
8
1
10
13.341011
20
26.596804
42
-0.328681
0
VERTEX
8
1
10
13.474022
20
26.886110
42
-0.236606
0
VERTEX
8
1
10
13.946762
20
26.933081
42
-0.201703
0
VERTEX
8
1
10
14.124031
20
26.745293
0
VERTEX
8
1
10
14.183243
20
26.745293
42
-0.034606
0
VERTEX
8
1
10
14.646095
20
26.095604
42
-0.177019
0
VERTEX
8
1
10
14.790688
20
25.357548
42
-0.134240
0
VERTEX
8
1
10
14.695763
20
25.184439
42
-0.263148
0
VERTEX
8
1
10
14.277115
20
25.116165
42
-0.053744
0
VERTEX
8
1
10
13.962807
20
25.245747
42
-0.231622
0
VERTEX
8
1
10
13.672623
20
25.569103
42
-0.032102
0
VERTEX
8
1
10
13.631317
20
25.719269
42
0.040164
0
VERTEX
8
1
10
13.388268
20
26.422848
42
-0.055322
0
SEQEND
0
POLYLINE
8
1
66
1
70
1
0
VERTEX
8
1
10
13.299042
20
25.421007
42
-0.167113
0
VERTEX
8
1
10
13.946854
20
24.817289
42
-0.079415
0
VERTEX
8
1
10
14.091591
20
24.351349
42
-0.420920
0
VERTEX
8
1
10
13.986206
20
24.235657
42
-0.042609
0
VERTEX
8
1
10
13.709297
20
24.323412
42
-0.189778
0
VERTEX
8
1
10
13.214401
20
24.688646
42
0.081848
0
VERTEX
8
1
10
12.466835
20
25.439791
0
VERTEX
8
1
10
12.372406
20
25.565731
42
-0.084877
0
VERTEX
8
1
10
12.116577
20
25.761436
42
-0.111336
0
VERTEX
8
1
10
12.089180
20
25.814514
42
0.018150
0
VERTEX
8
1
10
13.023689
20
25.522011
42
0.026535
0
VERTEX
8
1
10
13.227791
20
25.483734
0
VERTEX
8
1
10
13.217720
20
25.461273
0
SEQEND
0
POLYLINE
8
1
66
1
70
1
0
VERTEX
8
1
10
12.256790
20
26.060324
42
-0.078203
0
VERTEX
8
1
10
11.739418
20
26.324821
42
-0.069381
0
VERTEX
8
1
10
11.631531
20
26.771791
42
0.029314
0
VERTEX
8
1
10
11.543686
20
27.191437
0
VERTEX
8
1
10
11.670387
20
27.381462
42
-0.140459
0
VERTEX
8
1
10
11.845993
20
27.366463
42
-0.093213
0
VERTEX
8
1
10
12.142632
20
27.215090
42
-0.046402
0
VERTEX
8
1
10
12.678635
20
26.770061
42
-0.075248
0
VERTEX
8
1
10
13.127548
20
26.223469
42
-0.106259
0
VERTEX
8
1
10
13.275604
20
25.745634
0
VERTEX
8
1
10
13.258659
20
25.728100
42
0.035181
0
VERTEX
8
1
10
12.982117
20
25.834080
42
-0.010238
0
SEQEND
0
POLYLINE
8
1
66
1
70
1
0
VERTEX
8
1
10
11.448326
20
27.954033
42
0.044658
0
VERTEX
8
1
10
11.623375
20
28.400848
42
0.039426
0
VERTEX
8
1
10
11.634163
20
28.505596
42
-0.043017
0
VERTEX
8
1
10
11.676880
20
28.759363
42
-0.423526
0
VERTEX
8
1
10
11.882545
20
28.844980
0
VERTEX
8
1
10
11.918015
20
28.831470
42
-0.097308
0
VERTEX
8
1
10
12.247810
20
28.566116
42
-0.109885
0
VERTEX
8
1
10
12.916473
20
27.411135
42
-0.074908
0
VERTEX
8
1
10
12.972847
20
26.992630
0
VERTEX
8
1
10
12.945091
20
26.972086
0
VERTEX
8
1
10
12.908852
20
26.976112
42
-0.110512
0
VERTEX
8
1
10
12.677353
20
27.097511
0
VERTEX
8
1
10
12.340874
20
27.380178
0
VERTEX
8
1
10
12.308426
20
27.403332
42
0.012951
0
VERTEX
8
1
10
11.964073
20
27.581802
42
-0.037527
0
VERTEX
8
1
10
11.675591
20
27.789772
42
0.144496
0
VERTEX
8
1
10
11.479713
20
27.859924
0
SEQEND
0
POLYLINE
8
1
66
1
70
1
0
VERTEX
8
1
10
11.645966
20
25.754028
42
-0.064640
0
VERTEX
8
1
10
12.121437
20
25.381474
42
0.010731
0
VERTEX
8
1
10
12.482109
20
25.061352
42
-0.045722
0
VERTEX
8
1
10
12.835480
20
24.631016
42
0.775483
0
VERTEX
8
1
10
12.848984
20
24.643745
0
VERTEX
8
1
10
12.875557
20
24.590576
42
-0.058741
0
VERTEX
8
1
10
12.919128
20
24.312565
42
-0.201429
0
VERTEX
8
1
10
12.815910
20
24.107594
42
-0.236198
0
VERTEX
8
1
10
12.716866
20
24.094902
42
-0.003519
0
VERTEX
8
1
10
12.321327
20
24.292175
42
-0.101535
0
VERTEX
8
1
10
11.788429
20
24.746609
42
-0.140210
0
VERTEX
8
1
10
11.538673
20
25.263172
0
VERTEX
8
1
10
11.528664
20
25.310852
0
VERTEX
8
1
10
11.519005
20
25.358871
42
0.072625
0
VERTEX
8
1
10
11.380920
20
25.826252
0
VERTEX
8
1
10
11.379707
20
25.853962
42
-0.086392
0
SEQEND
0
POLYLINE
8
1
66
1
70
1
0
VERTEX
8
1
10
10.015236
20
28.401194
42
-0.037838
0
VERTEX
8
1
10
10.418678
20
28.758816
42
-0.098292
0
VERTEX
8
1
10
10.740387
20
28.939821
42
-0.214307
0
VERTEX
8
1
10
11.199409
20
28.871157
42
-0.229656
0
VERTEX
8
1
10
11.309479
20
28.652245
42
-0.117970
0
VERTEX
8
1
10
11.267082
20
28.395626
42
-0.080278
0
VERTEX
8
1
10
10.979912
20
27.875187
0
VERTEX
8
1
10
10.960953
20
27.868721
0
VERTEX
8
1
10
10.852798
20
27.962069
42
0.335404
0
VERTEX
8
1
10
10.626076
20
28.002651
42
-0.058752
0
VERTEX
8
1
10
10.491226
20
27.974178
42
-0.161234
0
VERTEX
8
1
10
10.285027
20
28.081377
42
-0.038166
0
SEQEND
0
POLYLINE
8
1
66
1
70
1
0
VERTEX
8
1
10
9.314774
20
27.055288
42
-0.205367
0
VERTEX
8
1
10
9.995461
20
26.676880
42
-0.053656
0
VERTEX
8
1
10
10.331062
20
26.185959
0
VERTEX
8
1
10
10.356400
20
26.129536
0
VERTEX
8
1
10
10.376648
20
26.074808
42
-0.169518
0
VERTEX
8
1
10
10.384361
20
25.857147
0
VERTEX
8
1
10
10.377937
20
25.844212
42
-0.317884
0
VERTEX
8
1
10
10.279022
20
25.795975
42
-0.127020
0
VERTEX
8
1
10
10.150696
20
25.834061
42
0.071246
0
VERTEX
8
1
10
9.776794
20
25.971935
42
-0.081426
0
VERTEX
8
1
10
9.254898
20
26.207064
0
VERTEX
8
1
10
9.209679
20
26.242474
42
-0.262839
0
VERTEX
8
1
10
9.019485
20
26.711697
0
VERTEX
8
1
10
9.027962
20
26.777145
0
VERTEX
8
1
10
8.933945
20
26.961864
42
0.128901
0
VERTEX
8
1
10
8.935631
20
26.961792
42
0.077339
0
VERTEX
8
1
10
8.968567
20
27.054239
0
VERTEX
8
1
10
8.984665
20
27.059525
42
-0.054388
0
SEQEND
0
POLYLINE
8
1
66
1
70
1
0
VERTEX
8
1
10
8.248634
20
27.883076
42
-0.150463
0
VERTEX
8
1
10
8.098412
20
28.373348
0
VERTEX
8
1
10
8.104599
20
28.432882
0
VERTEX
8
1
10
8.165802
20
28.524693
0
VERTEX
8
1
10
8.221573
20
28.554136
42
-0.068040
0
VERTEX
8
1
10
8.574181
20
28.366177
42
-0.017820
0
VERTEX
8
1
10
9.094749
20
27.952824
42
-0.023524
0
VERTEX
8
1
10
9.642975
20
27.546923
42
-0.066230
0
VERTEX
8
1
10
9.827766
20
27.346754
42
-0.100964
0
VERTEX
8
1
10
9.866646
20
27.231991
0
VERTEX
8
1
10
9.860886
20
27.194622
0
VERTEX
8
1
10
9.851593
20
27.177383
42
-0.247152
0
VERTEX
8
1
10
9.774353
20
27.165148
42
-0.057885
0
VERTEX
8
1
10
9.446671
20
27.300549
42
0.091294
0
VERTEX
8
1
10
9.200928
20
27.371387
42
-0.036161
0
VERTEX
8
1
10
8.769447
20
27.446163
0
VERTEX
8
1
10
8.733109
20
27.458525
0
VERTEX
8
1
10
8.678894
20
27.481565
42
-0.134744
0
SEQEND
0
POLYLINE
8
1
66
1
70
1
0
VERTEX
8
1
10
7.849747
20
27.326069
42
-0.115759
0
VERTEX
8
1
10
8.095749
20
27.025398
42
-0.107592
0
VERTEX
8
1
10
8.136566
20
26.418678
42
-0.131771
0
VERTEX
8
1
10
8.037682
20
26.215595
42
-0.385756
0
VERTEX
8
1
10
7.769783
20
26.207581
42
-0.197597
0
VERTEX
8
1
10
7.530296
20
26.574532
42
-0.078659
0
VERTEX
8
1
10
7.495567
20
26.997421
42
-0.090480
0
VERTEX
8
1
10
7.532738
20
27.131062
42
-0.132266
0
VERTEX
8
1
10
7.595116
20
27.191065
0
VERTEX
8
1
10
7.657219
20
27.284206
0
VERTEX
8
1
10
7.658485
20
27.240305
42
-0.115723
0
VERTEX
8
1
10
7.701859
20
27.340069
0
VERTEX
8
1
10
7.726227
20
27.356632
42
-0.246952
0
SEQEND
0
POLYLINE
8
1
66
1
70
1
0
VERTEX
8
1
10
7.088585
20
27.756447
0
VERTEX
8
1
10
7.077766
20
27.808027
42
-0.127960
0
VERTEX
8
1
10
7.132172
20
28.545544
42
-0.040154
0
VERTEX
8
1
10
7.211143
20
28.715673
0
VERTEX
8
1
10
7.319138
20
28.764099
42
-0.181432
0
VERTEX
8
1
10
7.454025
20
28.796089
42
-0.226989
0
VERTEX
8
1
10
7.664108
20
28.596441
42
-0.117597
0
VERTEX
8
1
10
7.748581
20
27.795467
42
-0.222581
0
VERTEX
8
1
10
7.544327
20
27.465149
42
-0.295501
0
VERTEX
8
1
10
7.275261
20
27.485100
42
-0.189016
0
SEQEND
0
POLYLINE
8
1
66
1
70
1
0
VERTEX
8
1
10
6.641487
20
27.917776
42
-0.033409
0
VERTEX
8
1
10
6.637985
20
28.253876
42
-0.040395
0
VERTEX
8
1
10
6.658752
20
28.649343
42
-0.201250
0
VERTEX
8
1
10
6.807877
20
28.854881
42
-0.100793
0
VERTEX
8
1
10
6.990440
20
28.878962
0
VERTEX
8
1
10
7.053825
20
28.942345
42
-0.081959
0
VERTEX
8
1
10
6.972031
20
28.552029
42
0.090308
0
VERTEX
8
1
10
6.878014
20
28.027485
42
-0.001331
0
VERTEX
8
1
10
6.858551
20
27.623249
0
VERTEX
8
1
10
6.825233
20
27.611185
42
-0.251371
0
VERTEX
8
1
10
6.701782
20
27.703506
42
-0.109669
0
SEQEND
0
POLYLINE
8
1
66
1
70
1
0
VERTEX
8
1
10
6.880394
20
26.359997
42
-0.045515
0
VERTEX
8
1
10
6.766342
20
26.714188
42
-0.052154
0
VERTEX
8
1
10
6.685188
20
27.055759
0
VERTEX
8
1
10
6.685005
20
27.084305
0
VERTEX
8
1
10
6.687279
20
27.111021
0
VERTEX
8
1
10
6.692299
20
27.135515
42
-0.394466
0
VERTEX
8
1
10
6.955841
20
27.255205
42
-0.174801
0
VERTEX
8
1
10
7.022087
20
27.191288
0
VERTEX
8
1
10
7.036484
20
27.220066
42
0.095363
0
VERTEX
8
1
10
7.024147
20
27.164467
42
0.068841
0
VERTEX
8
1
10
7.035301
20
26.793995
42
0.141407
0
VERTEX
8
1
10
7.227013
20
26.292114
0
VERTEX
8
1
10
7.229790
20
26.269482
0
VERTEX
8
1
10
7.172157
20
26.239885
0
VERTEX
8
1
10
7.153275
20
26.231426
42
-0.314816
0
VERTEX
8
1
10
6.940758
20
26.273880
42
-0.106516
0
SEQEND
0
POLYLINE
8
1
66
1
70
1
0
VERTEX
8
1
10
7.054749
20
24.950499
42
-0.192048
0
VERTEX
8
1
10
6.828743
20
25.367184
42
-0.106511
0
VERTEX
8
1
10
6.853188
20
25.742867
42
-0.285612
0
VERTEX
8
1
10
6.999527
20
25.857512
42
-0.043592
0
VERTEX
8
1
10
7.167320
20
25.866060
42
0.352039
0
VERTEX
8
1
10
7.244881
20
25.949249
0
VERTEX
8
1
10
7.306786
20
25.918295
42
0.052236
0
VERTEX
8
1
10
7.266891
20
25.393246
42
0.129016
0
VERTEX
8
1
10
7.365883
20
25.128292
42
-0.057758
0
VERTEX
8
1
10
7.462097
20
24.911634
0
VERTEX
8
1
10
7.291237
20
24.893887
42
-0.251424
0
SEQEND
0
POLYLINE
8
1
66
1
70
1
0
VERTEX
8
1
10
7.156029
20
23.376493
0
VERTEX
8
1
10
7.101494
20
23.437477
42
-0.187974
0
VERTEX
8
1
10
6.927864
20
24.217945
42
-0.033521
0
VERTEX
8
1
10
6.991570
20
24.552433
0
VERTEX
8
1
10
7.010147
20
24.581396
0
VERTEX
8
1
10
7.168121
20
24.651001
42
-0.205156
0
VERTEX
8
1
10
7.387039
20
24.654543
0
VERTEX
8
1
10
7.404160
20
24.643753
0
VERTEX
8
1
10
7.434265
20
24.643753
42
0.069549
0
VERTEX
8
1
10
7.388069
20
24.372257
42
0.054245
0
VERTEX
8
1
10
7.410767
20
23.778217
42
0.065250
0
VERTEX
8
1
10
7.471245
20
23.607618
42
-0.079566
0
VERTEX
8
1
10
7.520119
20
23.416595
42
-0.362750
0
VERTEX
8
1
10
7.419876
20
23.310377
0
VERTEX
8
1
10
7.343307
20
23.299934
42
-0.218619
0
SEQEND
0
POLYLINE
8
1
66
1
70
1
0
VERTEX
8
1
10
7.112747
20
22.048847
42
-0.095774
0
VERTEX
8
1
10
7.056343
20
22.633232
0
VERTEX
8
1
10
7.097786
20
22.610241
42
0.051691
0
VERTEX
8
1
10
7.231880
20
22.466290
0
VERTEX
8
1
10
7.470879
20
22.283291
42
-0.039238
0
VERTEX
8
1
10
7.558495
20
21.848661
42
-0.118495
0
VERTEX
8
1
10
7.271652
20
21.873489
42
-0.217552
0
SEQEND
0
POLYLINE
8
1
66
1
70
1
0
VERTEX
8
1
10
7.175735
20
20.974598
42
-0.081330
0
VERTEX
8
1
10
7.123070
20
21.485924
42
-0.124367
0
VERTEX
8
1
10
7.245598
20
21.513565
42
0.080442
0
VERTEX
8
1
10
7.391533
20
21.546001
0
VERTEX
8
1
10
7.402405
20
21.553726
0
VERTEX
8
1
10
7.529678
20
21.460941
42
0.182581
0
VERTEX
8
1
10
7.482162
20
21.263748
42
0.075935
0
VERTEX
8
1
10
7.566589
20
20.840111
42
-0.088222
0
VERTEX
8
1
10
7.655807
20
19.997107
0
VERTEX
8
1
10
7.631851
20
19.957201
42
-0.156522
0
VERTEX
8
1
10
7.430466
20
19.908178
42
-0.262725
0
VERTEX
8
1
10
7.296509
20
20.025551
42
-0.097235
0
VERTEX
8
1
10
7.247047
20
20.423307
42
0.068006
0
SEQEND
0
POLYLINE
8
1
66
1
70
1
0
VERTEX
8
1
10
7.500443
20
18.321968
42
-0.203434
0
VERTEX
8
1
10
7.380875
20
18.200970
42
-0.053164
0
VERTEX
8
1
10
7.340721
20
18.584013
42
0.010959
0
VERTEX
8
1
10
7.305214
20
19.080099
42
-0.070275
0
VERTEX
8
1
10
7.343071
20
19.454138
0
VERTEX
8
1
10
7.362198
20
19.508543
0
VERTEX
8
1
10
7.381927
20
19.544725
42
0.115389
0
VERTEX
8
1
10
7.558029
20
19.608620
0
VERTEX
8
1
10
7.550804
20
19.484936
0
VERTEX
8
1
10
7.566666
20
18.738932
0
VERTEX
8
1
10
7.564354
20
18.669319
42
-0.089813
0
SEQEND
0
POLYLINE
8
1
66
1
70
1
0
VERTEX
8
1
10
7.871696
20
16.269699
0
VERTEX
8
1
10
7.685135
20
16.720421
0
VERTEX
8
1
10
7.665901
20
16.754210
42
-0.068811
0
VERTEX
8
1
10
7.450371
20
17.151712
42
-0.186993
0
VERTEX
8
1
10
7.467583
20
17.429319
42
-0.104079
0
VERTEX
8
1
10
7.503304
20
17.461443
42
0.078927
0
VERTEX
8
1
10
7.752174
20
16.894976
42
-0.096952
0
VERTEX
8
1
10
8.055710
20
16.132799
42
-0.250006
0
VERTEX
8
1
10
7.976822
20
16.123709
42
-0.133185
0
SEQEND
0
POLYLINE
8
1
66
1
70
1
0
VERTEX
8
1
10
7.261047
20
14.880030
42
-0.019349
0
VERTEX
8
1
10
7.488281
20
15.050470
42
0.035087
0
VERTEX
8
1
10
7.864418
20
15.409458
42
-0.102391
0
VERTEX
8
1
10
8.105682
20
15.624113
0
VERTEX
8
1
10
8.121407
20
15.588488
42
-0.140536
0
VERTEX
8
1
10
8.272797
20
15.472574
42
0.032551
0
VERTEX
8
1
10
8.421097
20
15.323442
42
-0.094418
0
VERTEX
8
1
10
8.563049
20
15.085581
42
-0.088856
0
VERTEX
8
1
10
8.407570
20
15.007238
42
0.024792
0
VERTEX
8
1
10
7.456673
20
14.752140
42
-0.066981
0
VERTEX
8
1
10
7.176010
20
14.716053
0
VERTEX
8
1
10
7.154686
20
14.731489
0
VERTEX
8
1
10
7.160690
20
14.759096
42
-0.112944
0
SEQEND
0
POLYLINE
8
1
66
1
70
1
0
VERTEX
8
1
10
8.606110
20
14.245802
0
VERTEX
8
1
10
8.610184
20
14.119133
42
0.086116
0
VERTEX
8
1
10
8.724892
20
13.525465
42
0.069042
0
VERTEX
8
1
10
8.853821
20
13.235407
42
0.075916
0
VERTEX
8
1
10
8.793556
20
13.077255
0
VERTEX
8
1
10
8.712196
20
13.021736
42
-0.159647
0
VERTEX
8
1
10
8.407257
20
12.908007
0
VERTEX
8
1
10
8.387810
20
12.924244
0
VERTEX
8
1
10
8.357780
20
12.971584
42
-0.086855
0
VERTEX
8
1
10
8.277847
20
13.276943
0
VERTEX
8
1
10
8.271324
20
13.381838
42
0.018489
0
VERTEX
8
1
10
8.227409
20
13.853384
42
-0.042577
0
VERTEX
8
1
10
8.218567
20
14.280930
42
-0.231261
0
VERTEX
8
1
10
8.296333
20
14.377810
42
-0.070083
0
VERTEX
8
1
10
8.596092
20
14.472944
0
VERTEX
8
1
10
8.606285
20
14.471441
0
SEQEND
0
POLYLINE
8
1
66
1
70
1
0
VERTEX
8
1
10
6.301765
20
12.930532
42
0.043100
0
VERTEX
8
1
10
6.540817
20
13.888298
42
-0.217051
0
VERTEX
8
1
10
6.661850
20
14.053509
42
0.033418
0
VERTEX
8
1
10
6.886055
20
14.183950
42
0.065229
0
VERTEX
8
1
10
7.111168
20
14.439112
0
VERTEX
8
1
10
7.286316
20
14.421602
42
-0.127662
0
VERTEX
8
1
10
7.747696
20
14.420238
42
-0.339056
0
VERTEX
8
1
10
7.824615
20
14.298849
42
-0.078516
0
VERTEX
8
1
10
7.811310
20
14.202066
42
0.104409
0
VERTEX
8
1
10
7.802460
20
13.723883
42
-0.014073
0
VERTEX
8
1
10
7.892403
20
13.213713
0
VERTEX
8
1
10
7.889084
20
13.211748
0
VERTEX
8
1
10
7.845566
20
13.232103
42
0.192724
0
VERTEX
8
1
10
7.779739
20
13.275976
42
-0.025908
0
VERTEX
8
1
10
7.513931
20
13.329935
42
0.069912
0
VERTEX
8
1
10
7.288361
20
13.338579
42
0.105220
0
VERTEX
8
1
10
6.943329
20
13.191299
42
-0.007067
0
VERTEX
8
1
10
6.716621
20
12.979389
42
-0.084613
0
VERTEX
8
1
10
6.602768
20
12.920900
42
-0.033178
0
SEQEND
0
POLYLINE
8
1
66
1
0
VERTEX
8
1
10
7.875679
20
13.130054
0
VERTEX
8
1
10
7.896248
20
13.118641
0
VERTEX
8
1
10
7.875679
20
13.130054
0
SEQEND
0
POLYLINE
8
1
66
1
70
1
0
VERTEX
8
1
10
6.541786
20
12.783136
42
0.115222
0
VERTEX
8
1
10
6.692787
20
12.823008
42
-0.297001
0
VERTEX
8
1
10
6.502144
20
12.793215
0
SEQEND
0
POLYLINE
8
1
66
1
70
1
0
VERTEX
8
1
10
6.102646
20
12.399435
42
0.067497
0
VERTEX
8
1
10
6.199760
20
12.839014
0
VERTEX
8
1
10
6.240837
20
12.838757
42
-0.089379
0
VERTEX
8
1
10
6.454796
20
12.739460
42
0.346323
0
VERTEX
8
1
10
6.781036
20
12.802299
42
-0.077116
0
VERTEX
8
1
10
7.133507
20
13.116238
42
-0.079848
0
VERTEX
8
1
10
7.354340
20
13.203676
42
-0.194342
0
VERTEX
8
1
10
7.818619
20
13.085756
42
-0.030291
0
VERTEX
8
1
10
8.105080
20
12.862448
42
0.060394
0
VERTEX
8
1
10
8.387947
20
12.684559
42
0.266192
0
VERTEX
8
1
10
8.546829
20
12.710836
42
0.042933
0
VERTEX
8
1
10
9.049973
20
13.114288
0
VERTEX
8
1
10
9.046982
20
13.155016
0
VERTEX
8
1
10
8.968094
20
13.430458
42
-0.083260
0
VERTEX
8
1
10
8.814545
20
14.579454
42
0.060435
0
VERTEX
8
1
10
8.760292
20
15.123512
42
0.141038
0
VERTEX
8
1
10
8.576691
20
15.412870
42
0.132234
0
VERTEX
8
1
10
8.351456
20
15.621912
0
VERTEX
8
1
10
8.289063
20
15.700937
0
VERTEX
8
1
10
8.312317
20
15.715338
42
-0.014592
0
VERTEX
8
1
10
8.890793
20
15.947647
42
0.073285
0
VERTEX
8
1
10
9.054085
20
15.914948
42
-0.074149
0
VERTEX
8
1
10
9.231956
20
15.869961
0
VERTEX
8
1
10
9.245911
20
15.878813
42
-0.023564
0
VERTEX
8
1
10
9.513199
20
16.193514
0
VERTEX
8
1
10
9.537117
20
16.204105
42
-0.011694
0
VERTEX
8
1
10
9.998863
20
16.330135
0
VERTEX
8
1
10
9.998611
20
16.322414
0
VERTEX
8
1
10
9.980423
20
16.304777
42
0.028191
0
VERTEX
8
1
10
9.571503
20
15.903025
42
0.070549
0
VERTEX
8
1
10
9.320656
20
15.602169
0
VERTEX
8
1
10
9.309990
20
15.579296
0
VERTEX
8
1
10
9.292953
20
15.566923
0
VERTEX
8
1
10
9.262924
20
15.571272
42
0.037505
0
VERTEX
8
1
10
8.923157
20
15.639925
42
0.197251
0
VERTEX
8
1
10
8.731453
20
15.563446
0
VERTEX
8
1
10
8.716705
20
15.538780
42
0.116791
0
VERTEX
8
1
10
8.858131
20
15.377499
42
-0.258319
0
VERTEX
8
1
10
9.219887
20
14.443567
42
0.014841
0
VERTEX
8
1
10
9.137878
20
13.790602
42
0.149940
0
VERTEX
8
1
10
9.301544
20
13.169115
42
0.008912
0
VERTEX
8
1
10
9.620476
20
12.683775
0
VERTEX
8
1
10
9.588631
20
12.684246
0
VERTEX
8
1
10
9.351112
20
12.711102
42
0.144763
0
VERTEX
8
1
10
8.894897
20
12.624876
42
0.137303
0
VERTEX
8
1
10
8.529343
20
12.204430
42
0.141734
0
VERTEX
8
1
10
8.509048
20
12.019827
0
VERTEX
8
1
10
8.521965
20
11.986601
0
VERTEX
8
1
10
8.550629
20
12.011873
42
-0.128554
0
VERTEX
8
1
10
8.932877
20
12.339706
42
-0.091885
0
VERTEX
8
1
10
9.440453
20
12.493967
0
VERTEX
8
1
10
9.436089
20
12.475977
42
0.386092
0
VERTEX
8
1
10
9.307907
20
11.547901
42
0.218678
0
VERTEX
8
1
10
9.551826
20
11.411703
42
0.339843
0
VERTEX
8
1
10
9.790428
20
11.592409
42
0.233657
0
VERTEX
8
1
10
9.768105
20
11.669504
42
0.088712
0
VERTEX
8
1
10
9.641457
20
11.788885
42
-0.141624
0
VERTEX
8
1
10
9.520653
20
11.959324
0
VERTEX
8
1
10
9.524483
20
11.992662
42
-0.127715
0
VERTEX
8
1
10
9.816933
20
12.307819
0
VERTEX
8
1
10
9.854729
20
12.325441
42
-0.367482
0
VERTEX
8
1
10
10.076294
20
12.265642
42
-0.161865
0
VERTEX
8
1
10
10.179230
20
12.002832
42
-0.082777
0
VERTEX
8
1
10
10.160789
20
11.701344
42
0.033830
0
VERTEX
8
1
10
10.063828
20
11.107874
42
-0.112429
0
VERTEX
8
1
10
9.828194
20
10.421165
42
-0.057254
0
VERTEX
8
1
10
9.563423
20
10.041695
42
-0.022617
0
VERTEX
8
1
10
8.725548
20
9.355894
42
0.063732
0
VERTEX
8
1
10
8.042854
20
8.961487
42
0.085818
0
VERTEX
8
1
10
8.293686
20
9.482954
42
0.050786
0
VERTEX
8
1
10
8.329201
20
9.726068
42
0.098650
0
VERTEX
8
1
10
9.152435
20
10.435648
42
0.494325
0
VERTEX
8
1
10
8.802414
20
11.539423
0
VERTEX
8
1
10
8.722786
20
11.555210
0
VERTEX
8
1
10
8.644722
20
11.568670
42
-0.125594
0
VERTEX
8
1
10
8.392235
20
11.681967
42
-0.282702
0
VERTEX
8
1
10
8.320610
20
11.932735
0
VERTEX
8
1
10
8.335670
20
12.173269
42
0.264751
0
VERTEX
8
1
10
8.251305
20
12.383783
42
0.096686
0
VERTEX
8
1
10
8.024330
20
12.522516
42
0.043244
0
VERTEX
8
1
10
7.401855
20
12.704638
0
VERTEX
8
1
10
7.346718
20
12.711121
42
0.280643
0
VERTEX
8
1
10
7.014183
20
12.563860
42
0.031862
0
VERTEX
8
1
10
6.827095
20
12.250669
0
VERTEX
8
1
10
6.796669
20
12.209980
42
0.158262
0
SEQEND
0
POLYLINE
8
1
66
1
70
1
0
VERTEX
8
1
10
11.803345
20
15.402561
42
0.320350
0
VERTEX
8
1
10
11.619560
20
15.646612
42
0.047632
0
VERTEX
8
1
10
11.351120
20
15.723083
42
0.034525
0
VERTEX
8
1
10
11.364433
20
15.726833
0
VERTEX
8
1
10
11.426682
20
15.799442
42
-0.112794
0
VERTEX
8
1
10
11.558182
20
15.820087
42
0.063207
0
VERTEX
8
1
10
11.839966
20
15.832668
42
-0.093104
0
VERTEX
8
1
10
11.977203
20
15.819832
0
VERTEX
8
1
10
12.000458
20
15.807299
42
-0.081969
0
VERTEX
8
1
10
12.029549
20
15.298857
0
VERTEX
8
1
10
12.022842
20
15.241621
0
VERTEX
8
1
10
12.012459
20
15.208235
0
VERTEX
8
1
10
11.970291
20
15.211718
42
-0.125741
0
VERTEX
8
1
10
11.810661
20
15.231375
0
VERTEX
8
1
10
11.794594
20
15.243200
0
VERTEX
8
1
10
11.789146
20
15.251078
0
VERTEX
8
1
10
11.810936
20
15.276911
0
SEQEND
0
POLYLINE
8
1
66
1
70
1
0
VERTEX
8
1
10
11.234825
20
15.593962
42
-0.044141
0
VERTEX
8
1
10
11.527763
20
15.568844
42
-0.369937
0
VERTEX
8
1
10
11.678192
20
15.339764
42
-0.164723
0
VERTEX
8
1
10
11.585342
20
15.098795
0
VERTEX
8
1
10
11.614983
20
15.081238
0
VERTEX
8
1
10
11.653130
20
15.069508
42
0.060060
0
VERTEX
8
1
10
11.888252
20
15.059111
42
-0.226554
0
VERTEX
8
1
10
12.086395
20
14.957417
0
VERTEX
8
1
10
12.116577
20
14.915977
0
VERTEX
8
1
10
12.105873
20
14.899721
0
VERTEX
8
1
10
12.011978
20
14.904551
42
0.055453
0
VERTEX
8
1
10
11.634216
20
14.927206
42
0.157260
0
VERTEX
8
1
10
11.199974
20
14.683279
0
VERTEX
8
1
10
11.181099
20
14.657385
0
VERTEX
8
1
10
11.166351
20
14.631334
0
VERTEX
8
1
10
11.154457
20
14.616701
0
VERTEX
8
1
10
11.110199
20
14.639854
42
-0.111226
0
VERTEX
8
1
10
10.941338
20
14.746756
0
VERTEX
8
1
10
10.935532
20
14.759647
42
-0.072423
0
VERTEX
8
1
10
11.133224
20
15.010431
42
-0.059200
0
VERTEX
8
1
10
11.317825
20
15.199572
0
VERTEX
8
1
10
11.307076
20
15.220510
42
0.156582
0
VERTEX
8
1
10
11.162964
20
15.289482
42
0.044313
0
VERTEX
8
1
10
10.798485
20
15.302811
42
0.015742
0
VERTEX
8
1
10
10.373520
20
15.332783
42
0.134825
0
VERTEX
8
1
10
10.186020
20
15.277315
0
VERTEX
8
1
10
10.180115
20
15.255224
42
0.189031
0
VERTEX
8
1
10
10.312202
20
15.170895
42
0.082073
0
VERTEX
8
1
10
10.608307
20
15.130692
42
0.265018
0
VERTEX
8
1
10
10.666161
20
15.144495
42
0.017995
0
VERTEX
8
1
10
10.974602
20
15.195473
42
-0.305343
0
VERTEX
8
1
10
10.992348
20
15.100622
42
-0.189300
0
VERTEX
8
1
10
10.729774
20
14.833727
42
-0.116365
0
VERTEX
8
1
10
10.686127
20
14.832561
42
-0.045346
0
VERTEX
8
1
10
10.529587
20
14.916218
42
0.046656
0
VERTEX
8
1
10
10.303802
20
14.974518
42
-0.158938
0
VERTEX
8
1
10
10.000252
20
15.162611
0
VERTEX
8
1
10
9.972908
20
15.206789
42
-0.337157
0
VERTEX
8
1
10
10.011292
20
15.477268
0
VERTEX
8
1
10
10.055565
20
15.516380
0
VERTEX
8
1
10
10.111832
20
15.551825
42
-0.117678
0
VERTEX
8
1
10
10.541611
20
15.642275
42
-0.044397
0
VERTEX
8
1
10
11.178604
20
15.597431
0
VERTEX
8
1
10
11.205757
20
15.595436
0
SEQEND
0
POLYLINE
8
1
66
1
70
1
0
VERTEX
8
1
10
11.818375
20
12.724167
0
VERTEX
8
1
10
11.824211
20
12.843845
42
-0.013452
0
VERTEX
8
1
10
11.813759
20
13.415739
42
0.133753
0
VERTEX
8
1
10
11.734116
20
13.674234
0
VERTEX
8
1
10
11.712646
20
13.674490
42
0.088581
0
VERTEX
8
1
10
11.644974
20
13.486631
42
0.022225
0
VERTEX
8
1
10
11.587212
20
13.175261
42
-0.030772
0
VERTEX
8
1
10
11.423210
20
12.636625
42
-0.136932
0
VERTEX
8
1
10
11.230171
20
12.392784
0
VERTEX
8
1
10
11.192680
20
12.385807
42
-0.098093
0
VERTEX
8
1
10
11.077507
20
12.694269
42
-0.016099
0
VERTEX
8
1
10
11.020508
20
13.161076
42
-0.055468
0
VERTEX
8
1
10
10.986893
20
13.707956
0
VERTEX
8
1
10
10.995056
20
13.762800
42
-0.207283
0
VERTEX
8
1
10
11.071526
20
13.904472
0
VERTEX
8
1
10
11.138763
20
13.975794
42
-0.330028
0
VERTEX
8
1
10
11.165405
20
14.004971
42
-0.070794
0
VERTEX
8
1
10
11.141289
20
13.977253
42
0.123050
0
VERTEX
8
1
10
11.247238
20
13.996698
0
VERTEX
8
1
10
11.606094
20
14.151079
42
-0.175087
0
VERTEX
8
1
10
12.072174
20
14.207998
42
-0.303923
0
VERTEX
8
1
10
12.218712
20
14.026211
0
VERTEX
8
1
10
12.223671
20
13.986273
0
VERTEX
8
1
10
12.225555
20
13.942440
42
-0.046212
0
VERTEX
8
1
10
12.069733
20
12.921408
42
-0.153846
0
VERTEX
8
1
10
11.818535
20
12.540411
42
-0.116361
0
VERTEX
8
1
10
11.766945
20
12.518957
0
VERTEX
8
1
10
11.769844
20
12.537958
42
0.081901
0
SEQEND
0
POLYLINE
8
1
66
1
70
1
0
VERTEX
8
1
10
12.480705
20
14.290104
0
VERTEX
8
1
10
12.364120
20
14.298744
42
0.009924
0
VERTEX
8
1
10
11.810265
20
14.313038
42
0.045570
0
VERTEX
8
1
10
11.406982
20
14.263021
0
VERTEX
8
1
10
11.159821
20
14.168381
42
0.116724
0
VERTEX
8
1
10
10.994476
20
14.111671
0
VERTEX
8
1
10
10.992462
20
14.050270
0
VERTEX
8
1
10
10.970795
20
14.080547
42
-0.173218
0
VERTEX
8
1
10
10.992294
20
14.110157
0
VERTEX
8
1
10
10.998680
20
14.308989
42
-0.358079
0
VERTEX
8
1
10
11.001602
20
14.343273
42
-0.161691
0
VERTEX
8
1
10
10.998749
20
14.314026
42
0.302615
0
VERTEX
8
1
10
11.008492
20
14.302847
42
0.139475
0
VERTEX
8
1
10
11.127708
20
14.397327
42
-0.050852
0
VERTEX
8
1
10
11.269447
20
14.516800
42
-0.045386
0
VERTEX
8
1
10
11.584862
20
14.642933
42
-0.117606
0
VERTEX
8
1
10
12.149574
20
14.724953
42
-0.106331
0
VERTEX
8
1
10
12.537651
20
14.642067
42
-0.144217
0
VERTEX
8
1
10
12.891930
20
14.269957
42
-0.102862
0
VERTEX
8
1
10
12.928040
20
14.130497
0
VERTEX
8
1
10
12.894920
20
14.134144
42
0.135364
0
SEQEND
0
POLYLINE
8
1
66
1
70
1
0
VERTEX
8
1
10
9.834229
20
13.588184
42
0.114810
0
VERTEX
8
1
10
9.782654
20
12.832973
42
-0.141436
0
VERTEX
8
1
10
9.461060
20
13.221027
42
-0.131259
0
VERTEX
8
1
10
9.321350
20
13.984081
42
-0.015974
0
VERTEX
8
1
10
9.363205
20
14.399595
42
-0.015032
0
VERTEX
8
1
10
9.360245
20
14.777214
42
-0.086751
0
VERTEX
8
1
10
9.370544
20
14.816603
0
VERTEX
8
1
10
9.366112
20
14.898569
0
VERTEX
8
1
10
9.492821
20
14.741549
42
-0.084996
0
VERTEX
8
1
10
9.687355
20
14.430269
42
0.032179
0
VERTEX
8
1
10
9.846581
20
13.880354
42
-0.157077
0
VERTEX
8
1
10
9.842064
20
13.617069
0
SEQEND
0
POLYLINE
8
1
66
1
70
1
0
VERTEX
8
1
10
9.886803
20
14.201441
0
VERTEX
8
1
10
9.804329
20
14.405659
42
0.078288
0
VERTEX
8
1
10
9.517708
20
14.933664
42
0.084639
0
VERTEX
8
1
10
9.261841
20
15.210320
42
-0.110965
0
VERTEX
8
1
10
9.146858
20
15.366837
0
VERTEX
8
1
10
9.143913
20
15.387333
0
VERTEX
8
1
10
9.147675
20
15.392132
42
-0.095214
0
VERTEX
8
1
10
9.215881
20
15.372478
0
VERTEX
8
1
10
9.221909
20
15.402260
42
0.128590
0
VERTEX
8
1
10
9.245277
20
15.363047
42
0.075099
0
VERTEX
8
1
10
9.479324
20
15.221485
42
-0.061361
0
VERTEX
8
1
10
9.675720
20
15.093428
42
-0.068079
0
VERTEX
8
1
10
10.004974
20
14.786392
0
VERTEX
8
1
10
10.023682
20
14.754025
42
-0.094354
0
VERTEX
8
1
10
10.170525
20
14.100777
42
-0.090346
0
VERTEX
8
1
10
10.136429
20
13.926233
0
VERTEX
8
1
10
10.111626
20
13.890261
0
VERTEX
8
1
10
10.078857
20
13.874039
42
-0.072829
0
SEQEND
0
POLYLINE
8
1
66
1
70
1
0
VERTEX
8
1
10
10.785110
20
15.728458
0
VERTEX
8
1
10
10.744652
20
15.782566
42
0.284998
0
VERTEX
8
1
10
9.920799
20
15.628677
42
0.138439
0
VERTEX
8
1
10
9.705154
20
15.272629
42
-0.055786
0
VERTEX
8
1
10
9.465218
20
15.552528
0
VERTEX
8
1
10
9.505791
20
15.579466
42
0.075709
0
VERTEX
8
1
10
9.789711
20
15.899130
42
-0.059890
0
VERTEX
8
1
10
10.047256
20
16.179298
42
-0.324392
0
VERTEX
8
1
10
10.415161
20
16.178076
42
-0.113758
0
VERTEX
8
1
10
10.765099
20
15.796385
42
-0.073823
0
SEQEND
0
POLYLINE
8
1
66
1
70
1
0
VERTEX
8
1
10
9.552338
20
9.550863
42
0.061233
0
VERTEX
8
1
10
9.679443
20
9.724556
42
0.100984
0
VERTEX
8
1
10
9.992378
20
9.965599
42
-0.020226
0
VERTEX
8
1
10
10.252411
20
10.208094
42
-0.085488
0
VERTEX
8
1
10
10.990952
20
10.547167
42
-0.099896
0
VERTEX
8
1
10
11.212227
20
10.549961
0
VERTEX
8
1
10
11.226265
20
10.535568
0
VERTEX
8
1
10
11.036926
20
10.414022
42
0.117090
0
VERTEX
8
1
10
10.665642
20
10.062368
42
-0.057856
0
VERTEX
8
1
10
10.459785
20
9.837379
42
-0.094501
0
VERTEX
8
1
10
10.085945
20
9.672754
42
0.005526
0
VERTEX
8
1
10
9.553596
20
9.547375
0
SEQEND
0
POLYLINE
8
1
66
1
70
1
0
VERTEX
8
1
10
6.520950
20
9.843794
42
0.179147
0
VERTEX
8
1
10
6.385933
20
9.229067
42
-0.032489
0
VERTEX
8
1
10
6.450424
20
8.897171
0
VERTEX
8
1
10
6.451385
20
8.860056
42
-0.215331
0
VERTEX
8
1
10
6.378433
20
8.670696
42
-0.174230
0
VERTEX
8
1
10
6.275696
20
8.820679
42
-0.069299
0
VERTEX
8
1
10
6.196976
20
9.175900
42
-0.119686
0
VERTEX
8
1
10
6.232613
20
9.716824
42
-0.024583
0
VERTEX
8
1
10
6.406952
20
10.210917
42
0.085973
0
VERTEX
8
1
10
6.488518
20
10.671389
42
-0.009804
0
VERTEX
8
1
10
6.461189
20
11.111851
0
VERTEX
8
1
10
6.462410
20
11.145748
42
0.035834
0
VERTEX
8
1
10
6.477119
20
11.283287
42
-0.052191
0
VERTEX
8
1
10
6.444130
20
11.355392
42
-0.442473
0
VERTEX
8
1
10
6.478653
20
11.387733
42
-0.140969
0
VERTEX
8
1
10
6.710915
20
11.314898
42
-0.130741
0
VERTEX
8
1
10
6.987648
20
10.886774
42
-0.095069
0
VERTEX
8
1
10
7.060852
20
10.393791
0
VERTEX
8
1
10
7.053513
20
10.350845
42
-0.098909
0
VERTEX
8
1
10
6.858566
20
9.995617
42
0.079509
0
VERTEX
8
1
10
6.723480
20
9.723099
42
-0.075427
0
VERTEX
8
1
10
6.675896
20
9.535419
42
-0.416574
0
VERTEX
8
1
10
6.623566
20
9.515360
42
-0.317384
0
VERTEX
8
1
10
6.523041
20
9.650679
42
-0.058231
0
SEQEND
0
POLYLINE
8
1
66
1
70
1
0
VERTEX
8
1
10
6.306107
20
5.838272
42
-0.007516
0
VERTEX
8
1
10
5.810684
20
5.722935
0
VERTEX
8
1
10
5.941246
20
5.918463
42
0.063884
0
VERTEX
8
1
10
6.207863
20
6.151167
42
-0.027357
0
VERTEX
8
1
10
6.448647
20
6.372076
42
-0.078811
0
VERTEX
8
1
10
7.150558
20
6.697123
42
-0.092618
0
VERTEX
8
1
10
7.384300
20
6.709244
0
VERTEX
8
1
10
7.420639
20
6.697403
0
VERTEX
8
1
10
7.281509
20
6.607555
42
0.083950
0
VERTEX
8
1
10
6.930862
20
6.325172
42
-0.029256
0
VERTEX
8
1
10
6.701988
20
6.042652
42
-0.120832
0
VERTEX
8
1
10
6.346741
20
5.850548
0
SEQEND
0
POLYLINE
8
1
66
1
70
1
0
VERTEX
8
1
10
5.714966
20
5.589682
0
VERTEX
8
1
10
5.854683
20
5.578642
42
0.025394
0
VERTEX
8
1
10
5.608788
20
5.451675
0
SEQEND
0
POLYLINE
8
1
66
1
70
1
0
VERTEX
8
1
10
6.396141
20
7.727663
42
-0.097695
0
VERTEX
8
1
10
5.579208
20
6.082182
0
VERTEX
8
1
10
5.576057
20
6.109367
0
VERTEX
8
1
10
5.511749
20
6.129520
42
0.028098
0
VERTEX
8
1
10
5.587189
20
6.892086
42
0.068728
0
VERTEX
8
1
10
5.525230
20
7.338230
0
VERTEX
8
1
10
5.596123
20
7.328754
42
0.242262
0
VERTEX
8
1
10
5.961426
20
7.439573
0
VERTEX
8
1
10
5.999466
20
7.473978
42
0.013591
0
VERTEX
8
1
10
6.403183
20
7.918478
0
VERTEX
8
1
10
6.457245
20
7.962572
0
SEQEND
0
POLYLINE
8
1
66
1
70
1
0
VERTEX
8
1
10
6.660881
20
9.024796
42
-0.078854
0
VERTEX
8
1
10
7.013443
20
9.635315
42
-0.098921
0
VERTEX
8
1
10
7.401039
20
9.942156
42
-0.072636
0
VERTEX
8
1
10
7.991226
20
10.161678
42
0.051949
0
VERTEX
8
1
10
8.347443
20
10.290430
42
0.212540
0
VERTEX
8
1
10
8.741585
20
10.851465
0
VERTEX
8
1
10
8.774933
20
11.208006
0
VERTEX
8
1
10
8.769432
20
11.313164
42
0.062099
0
VERTEX
8
1
10
8.929619
20
11.186468
42
-0.265909
0
VERTEX
8
1
10
9.098549
20
10.879372
42
-0.247113
0
VERTEX
8
1
10
8.815262
20
10.279257
42
-0.075888
0
VERTEX
8
1
10
8.376587
20
10.025249
42
0.032977
0
VERTEX
8
1
10
7.443184
20
9.598389
42
0.064502
0
VERTEX
8
1
10
7.066383
20
9.309959
42
-0.006866
0
VERTEX
8
1
10
6.634720
20
8.873545
0
VERTEX
8
1
10
6.626938
20
8.892221
42
-0.043455
0
SEQEND
0
POLYLINE
8
1
66
1
70
1
0
VERTEX
8
1
10
7.843643
20
11.854313
42
0.575369
0
VERTEX
8
1
10
7.898705
20
12.073448
42
0.073985
0
VERTEX
8
1
10
7.594048
20
12.269222
42
-0.206776
0
VERTEX
8
1
10
7.532890
20
12.360577
0
VERTEX
8
1
10
7.536674
20
12.372938
42
-0.210070
0
VERTEX
8
1
10
7.612755
20
12.401068
42
-0.143404
0
VERTEX
8
1
10
8.156883
20
12.234495
0
VERTEX
8
1
10
8.104111
20
12.199362
42
-0.084923
0
VERTEX
8
1
10
8.078491
20
11.572289
0
VERTEX
8
1
10
7.941673
20
10.989197
42
-0.072708
0
VERTEX
8
1
10
7.754234
20
10.485300
0
VERTEX
8
1
10
7.729561
20
10.491104
42
-0.056493
0
VERTEX
8
1
10
7.646767
20
10.751480
42
0.012458
0
VERTEX
8
1
10
7.547295
20
11.275721
0
VERTEX
8
1
10
7.531860
20
11.331257
42
0.143907
0
VERTEX
8
1
10
7.329460
20
11.671928
42
-0.009957
0
VERTEX
8
1
10
7.139938
20
11.878321
42
-0.263874
0
VERTEX
8
1
10
7.101517
20
12.167398
42
-0.075782
0
VERTEX
8
1
10
7.235146
20
12.438646
0
VERTEX
8
1
10
7.254639
20
12.415943
42
-0.018807
0
VERTEX
8
1
10
7.384438
20
12.129009
42
0.110520
0
VERTEX
8
1
10
7.568260
20
11.897541
42
0.233188
0
SEQEND
0
POLYLINE
8
1
66
1
70
1
0
VERTEX
8
1
10
8.289902
20
11.388159
42
-0.274187
0
VERTEX
8
1
10
8.290489
20
11.420408
0
VERTEX
8
1
10
8.338249
20
11.443403
42
-0.421162
0
VERTEX
8
1
10
8.556061
20
11.357466
42
-0.193345
0
VERTEX
8
1
10
8.585663
20
11.062468
42
-0.193404
0
VERTEX
8
1
10
8.248932
20
10.720301
42
-0.170545
0
VERTEX
8
1
10
8.065193
20
10.719044
0
VERTEX
8
1
10
8.094475
20
10.742577
0
VERTEX
8
1
10
8.120316
20
10.770863
42
0.105970
0
VERTEX
8
1
10
8.220108
20
11.009312
0
VERTEX
8
1
10
8.290001
20
11.355207
0
VERTEX
8
1
10
8.318573
20
11.405087
42
0.134510
0
SEQEND
0
POLYLINE
8
1
66
1
70
1
0
VERTEX
8
1
10
6.833237
20
8.866554
0
VERTEX
8
1
10
6.902084
20
8.944851
42
-0.045953
0
VERTEX
8
1
10
7.480690
20
9.409128
42
-0.106521
0
VERTEX
8
1
10
7.834465
20
9.528652
42
0.081019
0
VERTEX
8
1
10
8.062431
20
9.610992
0
VERTEX
8
1
10
8.048523
20
9.586664
42
-0.013063
0
VERTEX
8
1
10
7.883034
20
9.096645
42
-0.165237
0
VERTEX
8
1
10
7.562035
20
8.736025
42
-0.020125
0
VERTEX
8
1
10
6.778610
20
8.357151
0
VERTEX
8
1
10
6.747452
20
8.388771
42
-0.267745
0
VERTEX
8
1
10
6.803101
20
8.825655
0
SEQEND
0
POLYLINE
8
1
66
1
70
1
0
VERTEX
8
1
10
6.087318
20
12.010626
0
VERTEX
8
1
10
6.066727
20
12.090969
42
-0.218051
0
VERTEX
8
1
10
6.217438
20
12.172922
42
-0.127646
0
VERTEX
8
1
10
6.714539
20
12.091766
42
-0.111878
0
VERTEX
8
1
10
6.858498
20
11.970665
42
-0.085400
0
VERTEX
8
1
10
7.119957
20
11.516993
42
0.014961
0
VERTEX
8
1
10
7.318336
20
11.097509
42
-0.169950
0
VERTEX
8
1
10
7.382675
20
10.549244
42
-0.016668
0
VERTEX
8
1
10
7.267670
20
10.154663
0
VERTEX
8
1
10
7.258514
20
10.188999
0
VERTEX
8
1
10
7.251221
20
10.246521
42
0.025587
0
VERTEX
8
1
10
7.177994
20
10.886072
42
0.103646
0
VERTEX
8
1
10
7.025284
20
11.218811
42
0.080546
0
VERTEX
8
1
10
6.711449
20
11.439178
42
-0.071850
0
VERTEX
8
1
10
6.386345
20
11.689713
42
0.021409
0
VERTEX
8
1
10
6.065361
20
11.963190
42
-0.169855
0
SEQEND
0
POLYLINE
8
1
66
1
70
1
0
VERTEX
8
1
10
5.140762
20
11.610357
0
VERTEX
8
1
10
5.166878
20
11.646626
42
0.019780
0
VERTEX
8
1
10
5.513298
20
12.049730
42
0.048581
0
VERTEX
8
1
10
5.598724
20
12.196346
42
0.025295
0
VERTEX
8
1
10
5.765709
20
12.577263
0
VERTEX
8
1
10
5.782120
20
12.612854
42
0.066579
0
VERTEX
8
1
10
5.900322
20
12.789351
0
VERTEX
8
1
10
5.917526
20
12.763517
42
-0.188435
0
VERTEX
8
1
10
5.915329
20
12.471100
42
-0.078175
0
VERTEX
8
1
10
5.710358
20
12.052052
42
-0.051618
0
VERTEX
8
1
10
5.406700
20
11.654076
42
-0.078983
0
VERTEX
8
1
10
5.263519
20
11.549833
42
-0.125007
0
VERTEX
8
1
10
5.137131
20
11.529984
0
VERTEX
8
1
10
5.116760
20
11.542723
42
-0.141604
0
SEQEND
0
POLYLINE
8
1
66
1
70
1
0
VERTEX
8
1
10
3.415138
20
5.656010
42
0.023312
0
VERTEX
8
1
10
3.733894
20
6.020382
42
0.047862
0
VERTEX
8
1
10
4.098488
20
6.651346
0
VERTEX
8
1
10
4.201843
20
6.963562
42
-0.154848
0
VERTEX
8
1
10
4.286354
20
7.094248
42
-0.291515
0
VERTEX
8
1
10
4.337730
20
7.235844
0
VERTEX
8
1
10
4.349060
20
7.234241
42
-0.179982
0
VERTEX
8
1
10
4.397148
20
7.056068
42
-0.100209
0
VERTEX
8
1
10
4.316406
20
6.690670
42
-0.050891
0
VERTEX
8
1
10
4.009743
20
6.089010
42
-0.060610
0
VERTEX
8
1
10
3.431839
20
5.513958
0
VERTEX
8
1
10
3.416214
20
5.505192
42
-0.000799
0
VERTEX
8
1
10
3.219612
20
5.427099
0
VERTEX
8
1
10
3.214561
20
5.429447
0
SEQEND
0
POLYLINE
8
1
66
1
70
1
0
VERTEX
8
1
10
4.755348
20
4.635073
42
-0.191747
0
VERTEX
8
1
10
4.664864
20
4.274509
42
-0.100055
0
VERTEX
8
1
10
4.609276
20
4.273846
0
VERTEX
8
1
10
4.601891
20
4.355690
42
0.105740
0
VERTEX
8
1
10
4.547302
20
4.612038
42
0.224069
0
VERTEX
8
1
10
4.115547
20
4.895189
42
0.182988
0
VERTEX
8
1
10
3.597000
20
4.801128
42
0.113529
0
VERTEX
8
1
10
3.139915
20
4.398224
0
VERTEX
8
1
10
3.098801
20
4.439339
42
-0.121678
0
VERTEX
8
1
10
3.200157
20
4.630667
42
-0.011567
0
VERTEX
8
1
10
3.512009
20
4.970608
42
-0.212748
0
VERTEX
8
1
10
4.081787
20
5.292324
42
-0.177538
0
VERTEX
8
1
10
4.443756
20
5.169052
42
-0.205277
0
SEQEND
0
POLYLINE
8
1
66
1
70
1
0
VERTEX
8
1
10
5.249329
20
5.706388
42
-0.032703
0
VERTEX
8
1
10
4.837952
20
5.341608
0
VERTEX
8
1
10
4.758446
20
5.447193
0
VERTEX
8
1
10
4.678726
20
5.532280
0
VERTEX
8
1
10
4.598961
20
5.598118
0
VERTEX
8
1
10
4.519226
20
5.645950
0
VERTEX
8
1
10
4.439682
20
5.677013
42
0.216203
0
VERTEX
8
1
10
4.000443
20
5.595396
42
0.074054
0
VERTEX
8
1
10
3.612526
20
5.267782
0
VERTEX
8
1
10
3.181725
20
4.786629
0
VERTEX
8
1
10
3.129417
20
4.735373
0
VERTEX
8
1
10
3.092834
20
4.713333
42
-0.131650
0
VERTEX
8
1
10
3.194344
20
5.043024
42
-0.117125
0
VERTEX
8
1
10
3.737617
20
5.622576
42
-0.020334
0
VERTEX
8
1
10
4.056305
20
5.830376
42
0.108997
0
VERTEX
8
1
10
4.257500
20
6.042521
42
0.027485
0
VERTEX
8
1
10
4.525032
20
6.504114
42
0.073811
0
VERTEX
8
1
10
4.648537
20
6.919024
42
0.060326
0
VERTEX
8
1
10
4.619644
20
7.630209
42
0.100432
0
VERTEX
8
1
10
4.536842
20
7.823538
42
0.353621
0
VERTEX
8
1
10
4.415344
20
7.842613
0
VERTEX
8
1
10
4.386345
20
7.827076
0
VERTEX
8
1
10
4.354561
20
7.815983
0
VERTEX
8
1
10
4.333237
20
7.819096
0
VERTEX
8
1
10
4.321617
20
7.835384
0
VERTEX
8
1
10
4.318985
20
7.863821
0
VERTEX
8
1
10
4.324585
20
7.903376
42
-0.043194
0
VERTEX
8
1
10
4.450089
20
8.231905
42
-0.000165
0
VERTEX
8
1
10
4.928169
20
9.208776
42
0.086338
0
VERTEX
8
1
10
5.149345
20
10.050398
42
0.095975
0
VERTEX
8
1
10
5.111549
20
10.333458
42
0.150699
0
VERTEX
8
1
10
4.923691
20
10.563974
42
-0.357970
0
VERTEX
8
1
10
4.899628
20
10.692066
0
VERTEX
8
1
10
4.918312
20
10.727318
0
VERTEX
8
1
10
5.196541
20
11.100910
42
-0.058573
0
VERTEX
8
1
10
5.610100
20
11.561174
42
0.065841
0
VERTEX
8
1
10
5.842545
20
11.858280
0
VERTEX
8
1
10
5.873116
20
11.835707
0
VERTEX
8
1
10
5.926964
20
11.769098
42
-0.182175
0
VERTEX
8
1
10
6.227936
20
10.859230
42
-0.124801
0
VERTEX
8
1
10
5.968071
20
10.047132
42
0.231746
0
VERTEX
8
1
10
5.915390
20
9.112394
42
0.006319
0
VERTEX
8
1
10
6.018478
20
8.832697
0
VERTEX
8
1
10
6.026268
20
8.800909
42
-0.274647
0
VERTEX
8
1
10
6.008102
20
8.710733
42
0.083209
0
VERTEX
8
1
10
5.737915
20
8.816591
42
0.226315
0
VERTEX
8
1
10
5.387764
20
8.710073
0
VERTEX
8
1
10
5.351707
20
8.677195
42
0.083320
0
VERTEX
8
1
10
5.068199
20
8.246626
0
VERTEX
8
1
10
5.056168
20
8.208214
42
-0.237483
0
VERTEX
8
1
10
5.632515
20
8.437838
42
-0.107240
0
VERTEX
8
1
10
6.165878
20
8.285843
0
VERTEX
8
1
10
6.137398
20
8.249674
42
-0.028103
0
VERTEX
8
1
10
5.664955
20
7.710369
42
0.042443
0
VERTEX
8
1
10
5.481384
20
7.473900
42
0.117835
0
VERTEX
8
1
10
5.187309
20
7.956680
42
0.201053
0
VERTEX
8
1
10
4.940643
20
8.033936
0
VERTEX
8
1
10
4.917519
20
8.034370
0
VERTEX
8
1
10
4.901398
20
8.056240
42
0.180245
0
VERTEX
8
1
10
4.574524
20
8.192575
0
VERTEX
8
1
10
4.578697
20
8.174683
42
0.027984
0
VERTEX
8
1
10
4.759972
20
7.884077
42
-0.154327
0
VERTEX
8
1
10
4.903419
20
7.302158
42
-0.034044
0
VERTEX
8
1
10
4.847755
20
6.844570
42
0.161546
0
VERTEX
8
1
10
4.986580
20
6.039347
42
0.143281
0
VERTEX
8
1
10
5.259125
20
5.720966
0
SEQEND
0
POLYLINE
8
1
66
1
70
1
0
VERTEX
8
1
10
5.141602
20
7.093811
42
0.030547
0
VERTEX
8
1
10
5.080254
20
7.541264
0
VERTEX
8
1
10
5.111534
20
7.533140
42
-0.141321
0
VERTEX
8
1
10
5.227516
20
7.427301
42
-0.074208
0
VERTEX
8
1
10
5.400734
20
7.027779
42
-0.104034
0
VERTEX
8
1
10
5.465797
20
6.465855
0
VERTEX
8
1
10
5.463646
20
6.417711
0
VERTEX
8
1
10
5.461586
20
6.369684
42
0.087318
0
VERTEX
8
1
10
5.493835
20
5.976059
0
VERTEX
8
1
10
5.394279
20
5.860682
0
VERTEX
8
1
10
5.382431
20
5.871353
42
-0.034271
0
VERTEX
8
1
10
5.151466
20
6.249569
42
-0.155778
0
VERTEX
8
1
10
5.097488
20
6.697062
42
0.039767
0
SEQEND
0
POLYLINE
8
1
66
1
70
1
0
VERTEX
8
1
10
6.264275
20
3.732132
42
-0.133288
0
VERTEX
8
1
10
6.275269
20
3.225555
42
-0.042197
0
VERTEX
8
1
10
6.135399
20
2.774090
42
-0.116811
0
VERTEX
8
1
10
6.036919
20
2.634052
42
-0.172569
0
VERTEX
8
1
10
5.964348
20
2.613651
0
VERTEX
8
1
10
5.944275
20
2.631859
0
VERTEX
8
1
10
5.934059
20
2.910912
42
0.076572
0
VERTEX
8
1
10
5.874687
20
3.352501
42
0.067751
0
VERTEX
8
1
10
5.583595
20
3.872429
42
0.059665
0
VERTEX
8
1
10
5.390190
20
4.059376
0
VERTEX
8
1
10
5.369629
20
4.202965
42
-0.064240
0
VERTEX
8
1
10
5.389824
20
4.132301
0
VERTEX
8
1
10
5.403336
20
4.156612
0
VERTEX
8
1
10
5.418579
20
4.179871
42
-0.375939
0
VERTEX
8
1
10
5.763496
20
4.282776
0
VERTEX
8
1
10
5.820023
20
4.256939
42
-0.168911
0
SEQEND
0
POLYLINE
8
1
66
1
70
1
0
VERTEX
8
1
10
6.725784
20
4.746065
42
0.208711
0
VERTEX
8
1
10
6.470894
20
4.376316
42
0.136389
0
VERTEX
8
1
10
6.177414
20
4.653667
42
0.140087
0
VERTEX
8
1
10
5.495041
20
4.826715
42
0.187383
0
VERTEX
8
1
10
5.169151
20
4.691612
0
VERTEX
8
1
10
5.153175
20
4.685003
0
VERTEX
8
1
10
5.067192
20
4.905830
0
VERTEX
8
1
10
5.215645
20
5.029676
42
-0.090265
0
VERTEX
8
1
10
6.190857
20
5.503286
42
-0.080508
0
VERTEX
8
1
10
6.883514
20
5.570206
42
-0.091167
0
VERTEX
8
1
10
7.324806
20
5.449747
42
-0.217366
0
VERTEX
8
1
10
7.579079
20
5.099518
0
VERTEX
8
1
10
7.590294
20
5.045904
0
VERTEX
8
1
10
7.598091
20
4.990463
42
-0.126760
0
VERTEX
8
1
10
7.466194
20
4.274231
42
-0.160662
0
VERTEX
8
1
10
7.152649
20
3.995029
42
-0.349419
0
VERTEX
8
1
10
6.677055
20
4.155399
42
-0.386557
0
VERTEX
8
1
10
6.828865
20
4.605906
42
-0.270506
0
VERTEX
8
1
10
7.003723
20
4.587414
42
-0.426860
0
VERTEX
8
1
10
7.044769
20
4.386280
42
0.066707
0
VERTEX
8
1
10
7.017395
20
4.291592
0
VERTEX
8
1
10
7.021065
20
4.283657
0
VERTEX
8
1
10
7.089134
20
4.320885
42
0.369089
0
VERTEX
8
1
10
7.180618
20
4.569435
42
0.484129
0
SEQEND
0
POLYLINE
8
1
66
1
70
1
0
VERTEX
8
1
10
7.272484
20
2.030155
42
-0.215948
0
VERTEX
8
1
10
7.069923
20
1.918186
42
0.142279
0
VERTEX
8
1
10
7.078529
20
2.502800
0
VERTEX
8
1
10
7.064026
20
2.541561
42
0.118593
0
VERTEX
8
1
10
6.762245
20
2.898220
42
0.139562
0
VERTEX
8
1
10
6.659767
20
2.936077
42
0.175445
0
VERTEX
8
1
10
6.600357
20
2.912235
0
VERTEX
8
1
10
6.600349
20
2.966801
42
0.795884
0
VERTEX
8
1
10
6.592796
20
2.977055
42
-0.123195
0
VERTEX
8
1
10
6.725693
20
3.068531
42
0.024068
0
VERTEX
8
1
10
6.887306
20
3.097660
0
VERTEX
8
1
10
6.914612
20
3.091454
42
-0.131404
0
VERTEX
8
1
10
7.330139
20
2.796337
42
-0.115638
0
VERTEX
8
1
10
7.430862
20
2.562256
42
-0.182711
0
SEQEND
0
POLYLINE
8
1
66
1
70
1
0
VERTEX
8
1
10
9.020706
20
5.397516
42
-0.003001
0
VERTEX
8
1
10
8.661629
20
5.032627
0
VERTEX
8
1
10
8.596497
20
4.941971
42
0.043588
0
VERTEX
8
1
10
8.174240
20
4.226280
42
0.028929
0
VERTEX
8
1
10
7.978455
20
3.699280
42
-0.082753
0
VERTEX
8
1
10
7.757111
20
3.311504
42
-0.128451
0
VERTEX
8
1
10
7.625641
20
3.214630
42
-0.233785
0
VERTEX
8
1
10
7.516792
20
3.234241
42
-0.061651
0
VERTEX
8
1
10
7.538666
20
3.435379
42
0.149413
0
VERTEX
8
1
10
7.997292
20
4.016521
42
0.119492
0
VERTEX
8
1
10
8.133492
20
4.405472
42
0.066447
0
VERTEX
8
1
10
8.169167
20
4.942703
42
0.000562
0
VERTEX
8
1
10
8.173317
20
5.187054
0
VERTEX
8
1
10
8.447083
20
5.671843
0
VERTEX
8
1
10
8.477058
20
5.715221
42
-0.359928
0
VERTEX
8
1
10
9.186485
20
5.837940
0
VERTEX
8
1
10
9.190186
20
5.693096
0
VERTEX
8
1
10
9.106201
20
5.546137
42
-0.165045
0
VERTEX
8
1
10
9.050476
20
5.433329
0
SEQEND
0
POLYLINE
8
1
66
1
70
1
0
VERTEX
8
1
10
8.067772
20
4.957460
0
VERTEX
8
1
10
8.063637
20
4.993092
42
-0.342446
0
VERTEX
8
1
10
8.068359
20
5.027632
42
-0.052079
0
SEQEND
0
POLYLINE
8
1
66
1
70
1
0
VERTEX
8
1
10
9.797256
20
6.641264
0
VERTEX
8
1
10
9.442863
20
6.216513
0
VERTEX
8
1
10
9.421875
20
6.198807
42
-0.532575
0
VERTEX
8
1
10
9.358795
20
6.206657
0
VERTEX
8
1
10
9.346138
20
6.230495
0
VERTEX
8
1
10
9.289444
20
6.416464
42
0.299978
0
VERTEX
8
1
10
9.111755
20
6.558449
42
0.105899
0
VERTEX
8
1
10
8.942795
20
6.547182
0
VERTEX
8
1
10
8.941360
20
6.612749
42
0.025476
0
VERTEX
8
1
10
8.876617
20
7.039968
0
VERTEX
8
1
10
8.890823
20
7.060183
42
0.066632
0
VERTEX
8
1
10
9.129341
20
6.783403
42
0.220392
0
VERTEX
8
1
10
9.392189
20
6.657644
42
-0.061544
0
VERTEX
8
1
10
9.539513
20
6.625616
0
VERTEX
8
1
10
9.577660
20
6.634655
42
0.053977
0
VERTEX
8
1
10
9.802277
20
6.652655
0
SEQEND
0
POLYLINE
8
1
66
1
70
1
0
VERTEX
8
1
10
10.908104
20
9.423386
42
-0.133838
0
VERTEX
8
1
10
11.036461
20
8.936888
42
-0.046109
0
VERTEX
8
1
10
11.010834
20
8.563993
42
0.035316
0
VERTEX
8
1
10
10.995377
20
8.176584
0
VERTEX
8
1
10
10.988976
20
8.123156
42
-0.016765
0
VERTEX
8
1
10
10.562675
20
7.518938
0
VERTEX
8
1
10
10.243614
20
7.121006
42
-0.043522
0
VERTEX
8
1
10
9.924942
20
6.884491
42
-0.065452
0
VERTEX
8
1
10
9.617477
20
6.793995
42
-0.190952
0
VERTEX
8
1
10
9.225258
20
6.980438
42
-0.161366
0
VERTEX
8
1
10
8.924072
20
7.566687
42
-0.033774
0
VERTEX
8
1
10
8.858215
20
8.043322
0
VERTEX
8
1
10
8.843605
20
8.107985
42
0.108742
0
VERTEX
8
1
10
8.673134
20
8.170662
42
0.358003
0
VERTEX
8
1
10
8.564598
20
8.094681
42
0.102649
0
VERTEX
8
1
10
8.555435
20
7.852951
42
0.016740
0
VERTEX
8
1
10
8.718903
20
7.059610
42
-0.060676
0
VERTEX
8
1
10
8.757927
20
6.536404
0
VERTEX
8
1
10
8.731804
20
6.513443
42
-0.039636
0
VERTEX
8
1
10
8.429237
20
6.469381
42
0.060646
0
VERTEX
8
1
10
8.152191
20
6.396534
42
0.077477
0
VERTEX
8
1
10
7.670975
20
6.030542
0
VERTEX
8
1
10
7.669823
20
5.985378
42
-0.026241
0
VERTEX
8
1
10
7.938736
20
5.271761
42
-0.100270
0
VERTEX
8
1
10
7.993599
20
4.485378
42
-0.108322
0
VERTEX
8
1
10
7.832893
20
4.000854
42
-0.031932
0
VERTEX
8
1
10
7.558548
20
3.692699
42
-0.193394
0
VERTEX
8
1
10
6.783958
20
3.450836
0
VERTEX
8
1
10
6.802109
20
3.430229
42
0.068474
0
VERTEX
8
1
10
6.680260
20
3.397175
0
VERTEX
8
1
10
6.677216
20
3.406826
42
0.051923
0
VERTEX
8
1
10
6.645592
20
3.890404
0
VERTEX
8
1
10
6.648796
20
3.893303
0
VERTEX
8
1
10
6.701248
20
3.852631
42
0.288514
0
VERTEX
8
1
10
7.263725
20
3.875420
42
0.147097
0
VERTEX
8
1
10
7.695366
20
4.413284
42
0.137025
0
VERTEX
8
1
10
7.759613
20
5.059208
42
0.245428
0
VERTEX
8
1
10
7.282639
20
5.638985
42
0.094302
0
VERTEX
8
1
10
6.744865
20
5.766552
0
VERTEX
8
1
10
6.790398
20
5.791561
42
0.089408
0
VERTEX
8
1
10
7.105354
20
6.052912
42
0.028708
0
VERTEX
8
1
10
7.321831
20
6.327749
42
-0.174729
0
VERTEX
8
1
10
7.977737
20
6.742359
42
0.017256
0
VERTEX
8
1
10
8.402946
20
6.846745
0
VERTEX
8
1
10
8.393600
20
6.857252
42
0.133558
0
VERTEX
8
1
10
7.954597
20
6.939934
0
VERTEX
8
1
10
7.930191
20
6.942423
42
0.134089
0
VERTEX
8
1
10
7.678802
20
7.031059
42
0.090546
0
VERTEX
8
1
10
7.381081
20
7.008478
42
0.084958
0
VERTEX
8
1
10
6.682640
20
6.730246
42
0.089152
0
VERTEX
8
1
10
6.084618
20
6.149088
42
0.034329
0
VERTEX
8
1
10
6.780296
20
7.583254
0
VERTEX
8
1
10
6.810364
20
7.645987
42
-0.049213
0
VERTEX
8
1
10
6.970764
20
7.226053
42
0.104764
0
VERTEX
8
1
10
7.094086
20
7.025581
0
VERTEX
8
1
10
7.133797
20
7.037092
0
VERTEX
8
1
10
7.187744
20
7.107695
42
0.227165
0
VERTEX
8
1
10
7.319923
20
7.754642
42
0.049891
0
VERTEX
8
1
10
7.182426
20
8.159788
0
VERTEX
8
1
10
7.251122
20
8.168188
42
-0.204578
0
VERTEX
8
1
10
8.160675
20
7.624094
0
VERTEX
8
1
10
8.174431
20
7.608654
0
VERTEX
8
1
10
8.184380
20
7.600199
42
0.087755
0
VERTEX
8
1
10
8.199203
20
7.894089
42
0.171571
0
VERTEX
8
1
10
8.052460
20
8.151476
42
0.036090
0
VERTEX
8
1
10
7.727974
20
8.377926
0
VERTEX
8
1
10
7.745209
20
8.458427
42
-0.074924
0
VERTEX
8
1
10
8.663307
20
9.112896
42
-0.089659
0
VERTEX
8
1
10
9.411728
20
9.326508
42
-0.097537
0
VERTEX
8
1
10
9.999260
20
9.261286
42
-0.063585
0
VERTEX
8
1
10
10.257393
20
9.132856
0
VERTEX
8
1
10
10.310997
20
9.088190
42
-0.169093
0
VERTEX
8
1
10
10.548363
20
8.576302
42
-0.106222
0
VERTEX
8
1
10
10.488503
20
7.796106
0
VERTEX
8
1
10
10.440964
20
7.699326
42
-0.147733
0
VERTEX
8
1
10
10.133362
20
7.383104
42
-0.336515
0
VERTEX
8
1
10
9.537796
20
7.499317
0
VERTEX
8
1
10
9.513992
20
7.534124
42
-0.338363
0
VERTEX
8
1
10
9.616554
20
8.066547
42
-0.460730
0
VERTEX
8
1
10
9.943466
20
8.019522
42
-0.172983
0
VERTEX
8
1
10
9.960571
20
7.911377
0
VERTEX
8
1
10
9.926689
20
7.750154
0
VERTEX
8
1
10
9.928169
20
7.735815
0
VERTEX
8
1
10
9.933601
20
7.724808
42
0.177004
0
VERTEX
8
1
10
10.100769
20
7.903557
42
0.206248
0
VERTEX
8
1
10
10.087883
20
8.089891
42
0.523527
0
VERTEX
8
1
10
9.465363
20
8.220150
42
0.273481
0
VERTEX
8
1
10
9.257790
20
7.543192
42
0.201662
0
VERTEX
8
1
10
9.584518
20
7.134594
42
0.233642
0
VERTEX
8
1
10
10.142624
20
7.156681
42
0.105080
0
VERTEX
8
1
10
10.415245
20
7.378998
42
0.108897
0
VERTEX
8
1
10
10.745705
20
7.983311
0
VERTEX
8
1
10
10.770248
20
8.130369
42
0.107072
0
VERTEX
8
1
10
10.728432
20
8.762600
42
0.223459
0
VERTEX
8
1
10
10.140999
20
9.403828
0
VERTEX
8
1
10
10.100037
20
9.418650
0
VERTEX
8
1
10
10.058426
20
9.431547
0
VERTEX
8
1
10
10.094124
20
9.441345
0
VERTEX
8
1
10
10.129898
20
9.450886
42
0.126542
0
VERTEX
8
1
10
10.831398
20
9.801071
42
0.035392
0
VERTEX
8
1
10
11.135216
20
10.170527
42
-0.174740
0
VERTEX
8
1
10
11.790398
20
10.586079
42
0.016648
0
VERTEX
8
1
10
12.215401
20
10.690268
0
VERTEX
8
1
10
12.209030
20
10.701000
42
0.133347
0
VERTEX
8
1
10
11.770172
20
10.784334
0
VERTEX
8
1
10
11.746918
20
10.784943
42
0.156188
0
VERTEX
8
1
10
11.485100
20
10.875532
42
0.091165
0
VERTEX
8
1
10
11.066437
20
10.823399
42
0.118663
0
VERTEX
8
1
10
10.233910
20
10.370310
42
0.039782
0
VERTEX
8
1
10
9.775795
20
9.834051
0
VERTEX
8
1
10
9.748230
20
9.842627
0
VERTEX
8
1
10
9.853745
20
10.042765
42
0.021759
0
VERTEX
8
1
10
10.287010
20
10.754822
42
0.029078
0
VERTEX
8
1
10
10.677116
20
11.459894
42
-0.091145
0
VERTEX
8
1
10
10.795105
20
11.663261
42
-0.297581
0
VERTEX
8
1
10
10.850708
20
11.680138
42
-0.380073
0
VERTEX
8
1
10
10.886307
20
11.487291
42
-0.179696
0
VERTEX
8
1
10
10.729141
20
11.340811
0
VERTEX
8
1
10
10.754097
20
11.311296
0
VERTEX
8
1
10
10.808807
20
11.277191
42
0.316090
0
VERTEX
8
1
10
10.993088
20
11.303661
0
VERTEX
8
1
10
11.031815
20
11.341524
42
0.078655
0
VERTEX
8
1
10
11.193970
20
11.628101
42
-0.030486
0
VERTEX
8
1
10
11.329208
20
11.886354
0
VERTEX
8
1
10
11.355705
20
11.915754
0
VERTEX
8
1
10
11.382645
20
11.933008
42
-0.248644
0
VERTEX
8
1
10
11.613976
20
11.885834
42
-0.214832
0
VERTEX
8
1
10
11.861893
20
11.451639
0
VERTEX
8
1
10
11.867165
20
11.420124
42
0.105629
0
VERTEX
8
1
10
11.956039
20
11.129261
0
VERTEX
8
1
10
11.973297
20
11.106840
0
VERTEX
8
1
10
11.990662
20
11.105558
42
0.095420
0
VERTEX
8
1
10
12.053406
20
11.269060
42
0.083518
0
VERTEX
8
1
10
12.081207
20
11.778406
0
VERTEX
8
1
10
12.026222
20
12.004015
42
0.150641
0
VERTEX
8
1
10
11.980721
20
12.145979
42
-0.062324
0
VERTEX
8
1
10
11.887222
20
12.234482
0
VERTEX
8
1
10
11.923813
20
12.272774
42
0.131858
0
VERTEX
8
1
10
12.369545
20
12.976114
42
0.083386
0
VERTEX
8
1
10
12.467659
20
13.591881
42
0.004807
0
VERTEX
8
1
10
12.462120
20
13.921726
42
-0.391709
0
VERTEX
8
1
10
12.543755
20
13.995558
42
-0.227732
0
VERTEX
8
1
10
12.887695
20
13.879152
42
-0.024395
0
VERTEX
8
1
10
13.140602
20
13.597284
0
VERTEX
8
1
10
13.150200
20
13.636625
42
0.112678
0
VERTEX
8
1
10
13.105568
20
13.994984
42
0.052095
0
VERTEX
8
1
10
12.939682
20
14.379143
42
0.083938
0
VERTEX
8
1
10
12.590363
20
14.900297
42
0.140036
0
VERTEX
8
1
10
12.264732
20
15.071461
0
VERTEX
8
1
10
12.237389
20
15.083349
0
VERTEX
8
1
10
12.229385
20
15.182411
42
0.035678
0
VERTEX
8
1
10
12.202072
20
15.710453
42
0.101352
0
VERTEX
8
1
10
12.148994
20
15.855753
42
0.203790
0
VERTEX
8
1
10
12.018456
20
15.927547
42
0.073649
0
VERTEX
8
1
10
11.766594
20
15.941938
42
0.056038
0
VERTEX
8
1
10
11.094795
20
15.879469
42
-0.198279
0
VERTEX
8
1
10
10.948227
20
15.928848
42
-0.018565
0
VERTEX
8
1
10
10.683319
20
16.226604
42
0.088388
0
VERTEX
8
1
10
10.423225
20
16.419209
42
-0.024381
0
VERTEX
8
1
10
10.761948
20
16.471622
0
VERTEX
8
1
10
10.797043
20
16.437056
42
0.071003
0
VERTEX
8
1
10
10.994736
20
16.244457
0
VERTEX
8
1
10
11.017632
20
16.232805
42
0.159950
0
VERTEX
8
1
10
11.558868
20
16.221735
0
VERTEX
8
1
10
11.594513
20
16.219913
42
0.052797
0
VERTEX
8
1
10
11.735527
20
16.198759
0
VERTEX
8
1
10
12.137329
20
16.204725
42
-0.166140
0
VERTEX
8
1
10
12.379707
20
16.129089
42
-0.165523
0
VERTEX
8
1
10
12.478638
20
15.935030
42
-0.079452
0
VERTEX
8
1
10
12.484848
20
15.671783
42
0.192904
0
VERTEX
8
1
10
12.562218
20
15.444014
42
0.066130
0
VERTEX
8
1
10
12.753647
20
15.239574
42
-0.114928
0
VERTEX
8
1
10
13.356705
20
14.362129
42
-0.104262
0
VERTEX
8
1
10
13.470345
20
13.366844
42
-0.049397
0
VERTEX
8
1
10
13.432495
20
13.210079
42
-0.101824
0
VERTEX
8
1
10
13.360802
20
13.020964
0
VERTEX
8
1
10
13.354752
20
13.017408
0
VERTEX
8
1
10
13.347977
20
13.015566
0
VERTEX
8
1
10
13.155624
20
13.149120
0
VERTEX
8
1
10
12.843529
20
13.384226
42
-0.115611
0
VERTEX
8
1
10
12.722298
20
12.826195
42
-0.088930
0
VERTEX
8
1
10
12.604607
20
12.623310
0
VERTEX
8
1
10
12.566071
20
12.576544
42
0.018663
0
VERTEX
8
1
10
12.412720
20
12.405973
42
0.061068
0
VERTEX
8
1
10
12.343742
20
12.279390
0
VERTEX
8
1
10
12.340561
20
12.258165
42
0.084870
0
VERTEX
8
1
10
12.377892
20
12.073977
42
-0.036176
0
VERTEX
8
1
10
12.491470
20
11.701632
0
VERTEX
8
1
10
12.494980
20
11.669893
42
-0.152560
0
VERTEX
8
1
10
12.305069
20
11.102592
0
VERTEX
8
1
10
12.307259
20
11.089085
42
-0.112424
0
VERTEX
8
1
10
12.473724
20
11.021734
42
-0.041978
0
VERTEX
8
1
10
12.790932
20
10.744213
0
VERTEX
8
1
10
12.765167
20
10.724590
42
-0.018231
0
VERTEX
8
1
10
11.952011
20
10.432566
42
0.124150
0
VERTEX
8
1
10
11.505547
20
10.116278
0
VERTEX
8
1
10
11.474060
20
10.081877
0
VERTEX
8
1
10
11.442215
20
10.046158
42
-0.045284
0
VERTEX
8
1
10
11.121986
20
9.713818
42
0.043439
0
VERTEX
8
1
10
10.913345
20
9.472963
42
0.178359
0
SEQEND
0
POLYLINE
8
1
66
1
70
1
0
VERTEX
8
1
10
11.823868
20
16.267664
42
-0.041467
0
VERTEX
8
1
10
11.717751
20
16.268864
42
-0.019142
0
SEQEND
0
POLYLINE
8
1
66
1
70
1
0
VERTEX
8
1
10
15.571152
20
12.820030
42
-0.056755
0
VERTEX
8
1
10
14.341507
20
12.289042
42
0.025314
0
VERTEX
8
1
10
13.555359
20
12.058699
0
VERTEX
8
1
10
12.725220
20
11.743593
0
VERTEX
8
1
10
12.703163
20
11.740801
42
0.055139
0
VERTEX
8
1
10
12.603523
20
12.060236
42
-0.202898
0
VERTEX
8
1
10
12.615623
20
12.304874
0
VERTEX
8
1
10
12.631531
20
12.340160
42
-0.029011
0
VERTEX
8
1
10
12.843796
20
12.665396
42
0.106372
0
VERTEX
8
1
10
12.938202
20
12.910469
42
-0.196204
0
VERTEX
8
1
10
12.989929
20
12.980610
42
-0.196918
0
VERTEX
8
1
10
13.084160
20
12.960089
42
0.037202
0
VERTEX
8
1
10
13.279953
20
12.824701
42
0.326178
0
VERTEX
8
1
10
13.455620
20
12.870758
42
0.122553
0
VERTEX
8
1
10
13.557808
20
13.065308
42
0.068831
0
VERTEX
8
1
10
13.641769
20
13.542038
42
0.103839
0
VERTEX
8
1
10
13.603790
20
14.001833
0
VERTEX
8
1
10
13.622284
20
14.012358
0
VERTEX
8
1
10
13.719231
20
14.010159
42
-0.037806
0
VERTEX
8
1
10
13.941574
20
13.936106
42
-0.011155
0
VERTEX
8
1
10
14.589958
20
13.748783
42
-0.010587
0
VERTEX
8
1
10
15.343231
20
13.536242
0
VERTEX
8
1
10
15.389076
20
13.524933
42
-0.047286
0
VERTEX
8
1
10
15.817070
20
13.402290
0
VERTEX
8
1
10
15.863876
20
13.378389
42
-0.156188
0
VERTEX
8
1
10
15.994736
20
13.250601
0
VERTEX
8
1
10
15.999176
20
13.233126
0
VERTEX
8
1
10
15.969887
20
13.197544
42
0.423354
0
VERTEX
8
1
10
15.960495
20
13.178423
0
VERTEX
8
1
10
15.982239
20
13.206297
0
VERTEX
8
1
10
15.983322
20
13.168581
42
-0.464292
0
VERTEX
8
1
10
15.962471
20
13.173468
42
-0.102510
0
SEQEND
0
POLYLINE
8
1
66
1
70
1
0
VERTEX
8
1
10
14.614998
20
12.072147
0
VERTEX
8
1
10
14.602272
20
12.061926
0
VERTEX
8
1
10
14.460052
20
11.979313
42
0.068112
0
VERTEX
8
1
10
14.251030
20
11.933485
42
0.030166
0
VERTEX
8
1
10
13.504036
20
11.576771
42
0.066997
0
VERTEX
8
1
10
12.830383
20
11.053473
0
VERTEX
8
1
10
12.807991
20
11.041302
0
VERTEX
8
1
10
12.784401
20
11.062012
42
0.031851
0
VERTEX
8
1
10
12.506218
20
11.228065
0
VERTEX
8
1
10
12.497276
20
11.230600
0
VERTEX
8
1
10
12.488419
20
11.232456
0
VERTEX
8
1
10
12.504005
20
11.248024
42
-0.082377
0
VERTEX
8
1
10
13.369530
20
11.723520
42
0.025489
0
VERTEX
8
1
10
13.604698
20
11.836477
42
-0.021212
0
VERTEX
8
1
10
14.265358
20
12.135090
42
-0.074320
0
VERTEX
8
1
10
14.558830
20
12.194170
0
VERTEX
8
1
10
14.597839
20
12.190369
0
VERTEX
8
1
10
14.625832
20
12.177565
42
-0.425120
0
SEQEND
0
POLYLINE
8
1
66
1
70
1
0
VERTEX
8
1
10
14.918480
20
11.428062
42
-0.105769
0
VERTEX
8
1
10
14.857689
20
11.802704
42
-0.208844
0
VERTEX
8
1
10
14.932442
20
11.923697
42
-0.051649
0
VERTEX
8
1
10
15.187546
20
12.063656
0
VERTEX
8
1
10
15.227058
20
12.085327
0
VERTEX
8
1
10
15.578789
20
12.310129
42
-0.133661
0
VERTEX
8
1
10
15.941078
20
12.422453
0
VERTEX
8
1
10
16.046150
20
12.401480
42
-0.022369
0
VERTEX
8
1
10
15.884743
20
12.104696
42
-0.172004
0
VERTEX
8
1
10
15.182007
20
11.388731
42
-0.137446
0
VERTEX
8
1
10
15.011314
20
11.355633
42
-0.246757
0
SEQEND
0
POLYLINE
8
1
66
1
70
1
0
VERTEX
8
1
10
16.173523
20
13.661863
42
-0.161655
0
VERTEX
8
1
10
16.042030
20
13.677523
42
0.034306
0
VERTEX
8
1
10
15.608269
20
13.856495
42
-0.004013
0
VERTEX
8
1
10
14.370102
20
14.220844
42
-0.013185
0
VERTEX
8
1
10
13.496902
20
14.475933
42
0.063093
0
VERTEX
8
1
10
13.377434
20
14.745232
42
0.065305
0
VERTEX
8
1
10
12.882080
20
15.411800
0
VERTEX
8
1
10
12.855797
20
15.441721
42
-0.129754
0
VERTEX
8
1
10
12.693260
20
15.718420
0
VERTEX
8
1
10
12.665329
20
16.003212
42
0.251530
0
VERTEX
8
1
10
12.496544
20
16.260180
42
-0.042925
0
VERTEX
8
1
10
13.500633
20
15.917002
42
-0.026881
0
VERTEX
8
1
10
14.319664
20
15.559261
42
-0.073040
0
VERTEX
8
1
10
14.583771
20
15.349728
42
0.171310
0
VERTEX
8
1
10
15.258575
20
15.053215
42
-0.028247
0
VERTEX
8
1
10
15.693871
20
15.044970
42
-0.212561
0
VERTEX
8
1
10
15.872955
20
14.919077
42
-0.104661
0
VERTEX
8
1
10
16.067589
20
14.476824
42
0.044080
0
VERTEX
8
1
10
16.225281
20
14.043493
42
-0.155150
0
VERTEX
8
1
10
16.239754
20
13.723539
42
-0.204060
0
SEQEND
0
POLYLINE
8
1
66
1
70
1
0
VERTEX
8
1
10
12.556908
20
15.605528
0
VERTEX
8
1
10
12.585701
20
15.529772
42
-0.115009
0
SEQEND
0
POLYLINE
8
1
66
1
70
1
0
VERTEX
8
1
10
11.188713
20
8.799374
42
0.139575
0
VERTEX
8
1
10
11.119507
20
9.302048
42
-0.267498
0
VERTEX
8
1
10
11.154762
20
9.501261
42
-0.057907
0
VERTEX
8
1
10
11.342491
20
9.720453
42
0.014558
0
VERTEX
8
1
10
11.949387
20
10.244249
42
-0.089663
0
VERTEX
8
1
10
12.124840
20
10.337727
42
-0.027613
0
VERTEX
8
1
10
12.291534
20
10.355497
0
VERTEX
8
1
10
12.256218
20
10.293457
0
VERTEX
8
1
10
11.783546
20
9.612892
42
-0.021695
0
VERTEX
8
1
10
11.650696
20
9.445431
42
0.048025
0
VERTEX
8
1
10
11.199005
20
8.780437
0
VERTEX
8
1
10
11.186279
20
8.769180
0
SEQEND
0
POLYLINE
8
1
66
1
70
1
0
VERTEX
8
1
10
11.311295
20
6.266264
0
VERTEX
8
1
10
11.312935
20
6.266264
0
VERTEX
8
1
10
11.289986
20
5.911484
42
-0.223155
0
VERTEX
8
1
10
11.205124
20
5.830397
0
VERTEX
8
1
10
11.188179
20
5.825090
0
VERTEX
8
1
10
11.167511
20
5.810120
0
VERTEX
8
1
10
11.166489
20
5.655668
42
-0.207643
0
VERTEX
8
1
10
11.107697
20
5.498110
42
0.048787
0
VERTEX
8
1
10
10.999863
20
5.435638
0
VERTEX
8
1
10
10.993263
20
5.425058
42
0.097683
0
VERTEX
8
1
10
10.974251
20
5.299311
42
-0.083665
0
VERTEX
8
1
10
10.820427
20
4.981247
0
VERTEX
8
1
10
10.789680
20
4.945503
0
VERTEX
8
1
10
10.758789
20
4.920282
0
VERTEX
8
1
10
10.728500
20
4.908590
0
VERTEX
8
1
10
10.699562
20
4.913443
0
VERTEX
8
1
10
10.672737
20
4.937849
42
-0.196042
0
VERTEX
8
1
10
10.639862
20
5.117338
42
-0.093114
0
VERTEX
8
1
10
10.739563
20
5.400238
42
0.057861
0
VERTEX
8
1
10
10.901253
20
5.879301
42
0.107377
0
VERTEX
8
1
10
10.888954
20
6.070757
42
-0.065339
0
VERTEX
8
1
10
10.870461
20
6.241796
42
-0.134562
0
VERTEX
8
1
10
10.992744
20
6.229446
0
VERTEX
8
1
10
11.009705
20
6.236593
42
-0.054352
0
VERTEX
8
1
10
11.221039
20
6.262571
0
SEQEND
0
POLYLINE
8
1
66
1
70
1
0
VERTEX
8
1
10
11.765778
20
7.254179
0
VERTEX
8
1
10
11.721756
20
7.159733
42
0.049036
0
VERTEX
8
1
10
11.611832
20
6.928566
42
-0.044667
0
VERTEX
8
1
10
11.507927
20
6.598600
42
-0.231055
0
VERTEX
8
1
10
11.285133
20
6.428944
42
-0.043963
0
VERTEX
8
1
10
11.109779
20
6.396275
42
-0.335134
0
VERTEX
8
1
10
10.947937
20
6.522938
42
-0.090448
0
VERTEX
8
1
10
10.893127
20
6.803816
42
-0.109613
0
VERTEX
8
1
10
11.093719
20
7.415485
0
VERTEX
8
1
10
11.116341
20
7.445644
0
VERTEX
8
1
10
11.101944
20
7.394794
42
0.011801
0
VERTEX
8
1
10
11.206253
20
7.496874
0
VERTEX
8
1
10
11.172859
20
7.518511
42
0.088957
0
VERTEX
8
1
10
11.622414
20
7.490141
0
VERTEX
8
1
10
11.656052
20
7.497398
0
VERTEX
8
1
10
11.688225
20
7.506872
0
VERTEX
8
1
10
11.731453
20
7.501282
42
-0.367954
0
VERTEX
8
1
10
11.800362
20
7.400019
42
-0.114100
0
SEQEND
0
POLYLINE
8
1
66
1
70
1
0
VERTEX
8
1
10
12.353226
20
6.779551
42
-0.075726
0
VERTEX
8
1
10
12.334335
20
6.601862
42
-0.152468
0
VERTEX
8
1
10
12.087234
20
6.293562
42
0.014715
0
VERTEX
8
1
10
11.898651
20
6.147955
42
0.259553
0
VERTEX
8
1
10
11.886192
20
6.117664
42
0.036306
0
VERTEX
8
1
10
11.741364
20
6.077909
42
-0.121964
0
VERTEX
8
1
10
11.810745
20
6.414270
42
-0.074494
0
VERTEX
8
1
10
11.990891
20
6.704403
0
VERTEX
8
1
10
12.016869
20
6.743971
0
VERTEX
8
1
10
12.155350
20
6.998753
42
-0.189345
0
VERTEX
8
1
10
12.370125
20
7.176947
42
-0.104035
0
VERTEX
8
1
10
12.367218
20
6.981731
42
0.025028
0
SEQEND
0
POLYLINE
8
1
66
1
70
1
0
VERTEX
8
1
10
12.340431
20
8.458879
42
0.018638
0
VERTEX
8
1
10
12.391373
20
8.493038
42
0.116388
0
VERTEX
8
1
10
12.306923
20
8.377569
42
0.035913
0
VERTEX
8
1
10
12.179993
20
8.085192
42
0.055893
0
VERTEX
8
1
10
12.090233
20
7.803183
42
-0.326872
0
VERTEX
8
1
10
11.922623
20
7.677563
42
0.057966
0
VERTEX
8
1
10
11.802956
20
7.651222
42
0.141622
0
VERTEX
8
1
10
11.752403
20
7.656445
42
-0.022615
0
VERTEX
8
1
10
11.671555
20
7.669983
42
0.005429
0
VERTEX
8
1
10
11.403862
20
7.670799
42
-0.159480
0
VERTEX
8
1
10
11.377670
20
7.888329
42
-0.104686
0
VERTEX
8
1
10
11.582687
20
8.496584
42
-0.233370
0
VERTEX
8
1
10
11.795708
20
8.610378
42
-0.085357
0
VERTEX
8
1
10
11.987862
20
8.596846
42
-0.022705
0
VERTEX
8
1
10
12.351868
20
8.491024
42
-0.271297
0
SEQEND
0
POLYLINE
8
1
66
1
70
1
0
VERTEX
8
1
10
12.127266
20
8.832682
42
-0.139926
0
VERTEX
8
1
10
11.962013
20
8.985268
42
-0.179198
0
VERTEX
8
1
10
11.969254
20
9.189508
42
-0.159470
0
VERTEX
8
1
10
12.207542
20
9.522585
42
0.063446
0
VERTEX
8
1
10
12.354744
20
9.676033
0
VERTEX
8
1
10
12.335342
20
9.626728
42
0.011645
0
VERTEX
8
1
10
12.480598
20
9.768915
42
0.119641
0
VERTEX
8
1
10
12.669106
20
9.559631
42
-0.035805
0
VERTEX
8
1
10
12.866592
20
9.370132
42
0.111818
0
VERTEX
8
1
10
13.024925
20
9.308485
42
-0.394445
0
VERTEX
8
1
10
13.072029
20
9.218216
0
VERTEX
8
1
10
13.040833
20
9.162766
42
-0.012044
0
VERTEX
8
1
10
12.866394
20
8.905037
42
-0.097545
0
VERTEX
8
1
10
12.638115
20
8.710798
42
-0.141162
0
VERTEX
8
1
10
12.517670
20
8.702335
42
-0.105307
0
SEQEND
0
POLYLINE
8
1
66
1
70
1
0
VERTEX
8
1
10
13.397972
20
7.606548
42
-0.056014
0
VERTEX
8
1
10
13.165169
20
7.343639
42
-0.062282
0
VERTEX
8
1
10
12.851074
20
7.064259
42
-0.141379
0
VERTEX
8
1
10
12.726898
20
7.032064
0
VERTEX
8
1
10
12.718460
20
7.049143
0
VERTEX
8
1
10
12.719078
20
7.094852
42
0.002172
0
VERTEX
8
1
10
12.672462
20
7.537462
42
-0.108919
0
VERTEX
8
1
10
12.678978
20
7.581350
0
VERTEX
8
1
10
12.685196
20
7.585083
0
VERTEX
8
1
10
12.692955
20
7.582439
0
VERTEX
8
1
10
12.791275
20
7.739822
42
-0.227452
0
VERTEX
8
1
10
12.714455
20
7.707651
0
VERTEX
8
1
10
12.720261
20
7.716726
42
0.074224
0
VERTEX
8
1
10
13.017555
20
8.029541
42
-0.082393
0
VERTEX
8
1
10
13.223129
20
8.211855
42
-0.527488
0
VERTEX
8
1
10
13.336456
20
8.170012
0
VERTEX
8
1
10
13.428078
20
7.931894
42
-0.270630
0
SEQEND
0
POLYLINE
8
1
66
1
70
1
0
VERTEX
8
1
10
13.826004
20
10.072609
0
VERTEX
8
1
10
13.703537
20
9.954350
42
0.028146
0
VERTEX
8
1
10
13.439445
20
9.704975
42
-0.082798
0
VERTEX
8
1
10
13.244392
20
9.500118
42
-0.294270
0
VERTEX
8
1
10
13.128967
20
9.507351
42
-0.100700
0
VERTEX
8
1
10
12.946465
20
9.733204
42
0.024374
0
VERTEX
8
1
10
12.760719
20
9.985716
42
-0.258198
0
VERTEX
8
1
10
12.752602
20
10.204657
0
VERTEX
8
1
10
12.765541
20
10.235003
0
VERTEX
8
1
10
12.780060
20
10.265074
42
-0.047264
0
VERTEX
8
1
10
13.104858
20
10.710646
42
-0.073863
0
VERTEX
8
1
10
13.343956
20
10.902445
42
0.061671
0
VERTEX
8
1
10
13.478394
20
11.021469
0
VERTEX
8
1
10
13.604958
20
11.093773
42
-0.809449
0
VERTEX
8
1
10
13.625206
20
11.107117
0
VERTEX
8
1
10
13.607468
20
11.095203
0
VERTEX
8
1
10
13.609520
20
11.071753
42
-0.054203
0
VERTEX
8
1
10
13.698776
20
10.808243
42
0.169833
0
VERTEX
8
1
10
13.871696
20
10.572598
42
-0.068913
0
VERTEX
8
1
10
14.006844
20
10.427101
0
VERTEX
8
1
10
14.018173
20
10.398596
0
VERTEX
8
1
10
14.018867
20
10.354086
0
VERTEX
8
1
10
14.003166
20
10.304089
42
-0.081798
0
SEQEND
0
POLYLINE
8
1
66
1
70
1
0
VERTEX
8
1
10
14.317650
20
8.505272
42
-0.093565
0
VERTEX
8
1
10
14.147278
20
8.321146
42
0.054466
0
VERTEX
8
1
10
13.923203
20
8.072954
0
VERTEX
8
1
10
13.892174
20
8.036341
42
-0.126269
0
VERTEX
8
1
10
13.709084
20
7.886110
0
VERTEX
8
1
10
13.685326
20
7.899818
0
VERTEX
8
1
10
13.649124
20
7.976553
42
-0.039661
0
VERTEX
8
1
10
13.499557
20
8.495241
42
-0.102287
0
VERTEX
8
1
10
13.613792
20
8.643066
42
0.058053
0
VERTEX
8
1
10
13.831261
20
8.936579
42
-0.109361
0
VERTEX
8
1
10
14.046280
20
9.141706
42
-0.337315
0
VERTEX
8
1
10
14.147377
20
9.111568
0
VERTEX
8
1
10
14.163193
20
9.092573
42
-0.055928
0
VERTEX
8
1
10
14.343781
20
8.705456
42
-0.186861
0
SEQEND
0
POLYLINE
8
1
66
1
70
1
0
VERTEX
8
1
10
14.289612
20
10.695217
42
-0.379111
0
VERTEX
8
1
10
14.140617
20
10.701521
42
-0.252532
0
VERTEX
8
1
10
13.944054
20
11.288773
42
-0.270676
0
VERTEX
8
1
10
14.357430
20
11.677011
0
VERTEX
8
1
10
14.386307
20
11.685467
0
VERTEX
8
1
10
14.415466
20
11.694117
42
0.123446
0
VERTEX
8
1
10
14.603500
20
11.785616
0
VERTEX
8
1
10
14.645340
20
11.722881
42
0.184717
0
VERTEX
8
1
10
14.622536
20
11.533422
0
VERTEX
8
1
10
14.698906
20
11.217995
42
-0.299715
0
VERTEX
8
1
10
14.661911
20
11.027792
42
-0.034061
0
VERTEX
8
1
10
14.454254
20
10.851818
42
-0.015901
0
SEQEND
0
POLYLINE
8
1
66
1
70
1
0
VERTEX
8
1
10
15.371178
20
9.839836
42
0.107130
0
VERTEX
8
1
10
15.385368
20
9.508394
0
VERTEX
8
1
10
15.336647
20
9.421286
42
-0.040957
0
VERTEX
8
1
10
15.058273
20
9.084364
42
-0.085225
0
VERTEX
8
1
10
14.780846
20
8.814137
42
-0.237782
0
VERTEX
8
1
10
14.670143
20
8.798031
0
VERTEX
8
1
10
14.598480
20
9.082920
42
0.026791
0
VERTEX
8
1
10
14.462433
20
9.384577
0
VERTEX
8
1
10
14.438477
20
9.470398
0
VERTEX
8
1
10
14.413330
20
9.512789
0
VERTEX
8
1
10
14.482788
20
9.576208
42
0.006205
0
VERTEX
8
1
10
14.883316
20
9.996735
42
-0.042039
0
VERTEX
8
1
10
15.182648
20
10.306278
0
VERTEX
8
1
10
15.220711
20
10.333817
42
-0.164721
0
VERTEX
8
1
10
15.366577
20
10.383852
0
VERTEX
8
1
10
15.391747
20
10.357288
42
-0.089731
0
VERTEX
8
1
10
15.402710
20
10.102741
42
-0.018970
0
SEQEND
0
POLYLINE
8
1
66
1
70
1
0
VERTEX
8
1
10
16.660606
20
12.272306
42
0.150234
0
VERTEX
8
1
10
16.585899
20
12.140697
42
0.063261
0
VERTEX
8
1
10
16.535599
20
11.687111
42
0.086956
0
VERTEX
8
1
10
16.586746
20
11.215574
42
-0.078072
0
VERTEX
8
1
10
16.617111
20
10.846773
42
-0.169449
0
VERTEX
8
1
10
16.404442
20
10.470879
42
-0.353908
0
VERTEX
8
1
10
16.352318
20
10.483969
42
-0.117919
0
VERTEX
8
1
10
16.247162
20
10.756025
42
-0.049142
0
VERTEX
8
1
10
16.192848
20
11.272951
0
VERTEX
8
1
10
16.171188
20
11.291451
0
VERTEX
8
1
10
16.129395
20
11.276262
42
0.170668
0
VERTEX
8
1
10
16.008568
20
11.126654
42
0.081036
0
VERTEX
8
1
10
15.920258
20
10.676069
42
-0.025554
0
VERTEX
8
1
10
15.858177
20
10.229174
42
-0.109906
0
VERTEX
8
1
10
15.812279
20
10.126320
42
-0.521250
0
VERTEX
8
1
10
15.726433
20
10.150797
42
-0.065924
0
VERTEX
8
1
10
15.689400
20
10.345804
42
0.013618
0
VERTEX
8
1
10
15.588287
20
10.724550
42
-0.102308
0
VERTEX
8
1
10
15.579781
20
11.021755
42
-0.100192
0
VERTEX
8
1
10
15.816399
20
11.412336
42
0.097514
0
VERTEX
8
1
10
16.283920
20
12.312405
42
0.035638
0
VERTEX
8
1
10
16.453522
20
13.040667
42
0.114530
0
VERTEX
8
1
10
16.443977
20
13.809654
42
0.014296
0
VERTEX
8
1
10
16.304077
20
14.359692
42
-0.131019
0
VERTEX
8
1
10
16.327324
20
14.789619
42
0.010655
0
VERTEX
8
1
10
16.395531
20
15.081417
42
-0.029086
0
VERTEX
8
1
10
16.457222
20
15.459555
42
0.069263
0
VERTEX
8
1
10
16.492935
20
15.604595
0
VERTEX
8
1
10
16.486023
20
15.890003
0
VERTEX
8
1
10
16.486900
20
15.901249
0
VERTEX
8
1
10
16.476555
20
15.912714
0
VERTEX
8
1
10
16.393768
20
15.963732
42
0.094041
0
VERTEX
8
1
10
16.136147
20
16.088682
0
VERTEX
8
1
10
16.113564
20
16.089813
42
0.245155
0
VERTEX
8
1
10
16.130821
20
15.977095
42
0.005811
0
VERTEX
8
1
10
16.260071
20
15.844723
42
-0.566108
0
VERTEX
8
1
10
16.194412
20
15.666481
42
-0.120647
0
VERTEX
8
1
10
16.017517
20
15.711760
0
VERTEX
8
1
10
15.320412
20
16.083755
42
0.093095
0
VERTEX
8
1
10
14.269409
20
16.474947
42
0.032414
0
VERTEX
8
1
10
13.871956
20
16.577963
42
0.013699
0
VERTEX
8
1
10
13.550240
20
16.678413
0
VERTEX
8
1
10
13.548752
20
16.670315
42
0.104750
0
VERTEX
8
1
10
13.690742
20
16.578964
42
-0.033836
0
VERTEX
8
1
10
14.014816
20
16.450506
42
-0.059571
0
VERTEX
8
1
10
15.024193
20
15.950851
0
VERTEX
8
1
10
15.060844
20
15.925180
42
-0.047618
0
VERTEX
8
1
10
15.462570
20
15.635393
42
-0.119385
0
VERTEX
8
1
10
15.546944
20
15.499615
42
-0.319245
0
VERTEX
8
1
10
15.469116
20
15.347321
42
-0.056346
0
VERTEX
8
1
10
15.192657
20
15.269657
42
-0.251588
0
VERTEX
8
1
10
15.130814
20
15.299931
42
0.156555
0
VERTEX
8
1
10
14.558426
20
15.851259
42
0.023043
0
VERTEX
8
1
10
14.352104
20
15.946489
0
VERTEX
8
1
10
13.667053
20
16.204687
42
0.049054
0
VERTEX
8
1
10
13.038010
20
16.403557
42
0.017787
0
VERTEX
8
1
10
11.930748
20
16.519981
42
0.003225
0
VERTEX
8
1
10
11.221008
20
16.601997
42
0.075168
0
VERTEX
8
1
10
10.304604
20
16.513453
42
0.047333
0
VERTEX
8
1
10
8.681786
20
15.953278
42
0.012609
0
VERTEX
8
1
10
8.196526
20
15.752312
42
-0.081534
0
VERTEX
8
1
10
8.004738
20
15.717993
42
0.093341
0
VERTEX
8
1
10
7.983459
20
15.877295
0
VERTEX
8
1
10
8.020988
20
15.879683
42
0.053817
0
VERTEX
8
1
10
8.335167
20
15.984081
42
0.005424
0
VERTEX
8
1
10
8.919739
20
16.263779
0
VERTEX
8
1
10
9.139008
20
16.354235
42
-0.001606
0
VERTEX
8
1
10
10.027390
20
16.708174
42
-0.067414
0
VERTEX
8
1
10
11.926460
20
17.159176
42
-0.005830
0
VERTEX
8
1
10
12.781311
20
17.190458
42
-0.081715
0
VERTEX
8
1
10
14.297035
20
17.090181
42
-0.024380
0
VERTEX
8
1
10
14.915634
20
16.919889
42
-0.015899
0
VERTEX
8
1
10
16.229034
20
16.469246
42
0.017660
0
VERTEX
8
1
10
16.831276
20
16.279182
42
-0.122281
0
VERTEX
8
1
10
17.078972
20
16.139420
0
VERTEX
8
1
10
17.094376
20
16.119209
42
-0.266598
0
VERTEX
8
1
10
17.126556
20
15.967447
42
-0.046614
0
VERTEX
8
1
10
17.127563
20
15.624561
42
0.022567
0
VERTEX
8
1
10
17.133827
20
15.080559
42
-0.088025
0
VERTEX
8
1
10
17.008919
20
14.328068
42
0.017918
0
VERTEX
8
1
10
16.653786
20
13.217146
42
0.068001
0
VERTEX
8
1
10
16.600632
20
12.736795
42
-0.044015
0
VERTEX
8
1
10
16.578293
20
12.560690
42
0.141310
0
VERTEX
8
1
10
16.601936
20
12.396822
42
-0.057186
0
VERTEX
8
1
10
16.641335
20
12.255129
0
SEQEND
0
POLYLINE
8
1
66
1
70
1
0
VERTEX
8
1
10
17.365814
20
13.317284
0
VERTEX
8
1
10
17.337967
20
13.214369
42
-0.031346
0
VERTEX
8
1
10
17.202240
20
12.816912
42
0.063080
0
VERTEX
8
1
10
17.138855
20
12.545746
42
-0.021698
0
VERTEX
8
1
10
17.082443
20
12.237720
42
0.051059
0
VERTEX
8
1
10
17.001579
20
11.881060
42
0.090276
0
VERTEX
8
1
10
17.091072
20
11.301632
42
-0.234319
0
VERTEX
8
1
10
17.063988
20
11.217260
42
-0.105047
0
VERTEX
8
1
10
16.876656
20
11.052868
0
VERTEX
8
1
10
16.848595
20
11.089199
42
-0.080433
0
VERTEX
8
1
10
16.752808
20
11.415543
42
-0.114587
0
VERTEX
8
1
10
16.740822
20
11.769962
42
0.014623
0
VERTEX
8
1
10
16.952713
20
12.734159
42
0.033524
0
VERTEX
8
1
10
17.022697
20
13.403992
42
-0.028579
0
VERTEX
8
1
10
17.077888
20
13.832916
42
-0.039806
0
VERTEX
8
1
10
17.385254
20
14.714357
42
-0.046196
0
VERTEX
8
1
10
17.520035
20
15.040279
42
-0.186039
0
VERTEX
8
1
10
17.660194
20
15.148083
42
-0.027249
0
VERTEX
8
1
10
17.839523
20
15.154076
42
-0.110275
0
VERTEX
8
1
10
18.005623
20
15.158369
0
VERTEX
8
1
10
18.016922
20
15.151859
0
VERTEX
8
1
10
18.025383
20
15.143042
42
-0.259442
0
VERTEX
8
1
10
18.009575
20
15.056692
0
VERTEX
8
1
10
18.019356
20
15.090105
42
0.100177
0
VERTEX
8
1
10
17.810226
20
14.599928
42
-0.090200
0
VERTEX
8
1
10
17.725281
20
14.173443
42
0.040482
0
SEQEND
0
POLYLINE
8
1
66
1
70
1
0
VERTEX
8
1
10
18.527496
20
14.093777
42
0.000796
0
VERTEX
8
1
10
18.212212
20
13.279219
0
VERTEX
8
1
10
18.186409
20
13.225346
42
-0.052366
0
VERTEX
8
1
10
17.859825
20
12.783514
42
0.075754
0
VERTEX
8
1
10
17.596779
20
12.346457
42
0.142541
0
VERTEX
8
1
10
17.581337
20
11.997478
42
-0.039521
0
VERTEX
8
1
10
17.639336
20
11.795162
42
0.341257
0
VERTEX
8
1
10
17.649414
20
11.765226
42
-0.034078
0
VERTEX
8
1
10
17.470657
20
11.444613
42
-0.165315
0
VERTEX
8
1
10
17.345757
20
11.708214
42
-0.124593
0
VERTEX
8
1
10
17.393211
20
12.287125
0
VERTEX
8
1
10
17.476395
20
12.501492
42
-0.073307
0
VERTEX
8
1
10
17.698730
20
13.010601
42
0.056614
0
VERTEX
8
1
10
17.892403
20
13.488228
0
VERTEX
8
1
10
17.912010
20
13.552958
0
VERTEX
8
1
10
17.931419
20
13.617638
42
-0.083618
0
VERTEX
8
1
10
18.259079
20
14.349024
42
0.031512
0
VERTEX
8
1
10
18.549706
20
14.889809
42
-0.055214
0
VERTEX
8
1
10
18.729935
20
15.165768
0
VERTEX
8
1
10
18.755440
20
15.190887
0
VERTEX
8
1
10
18.781715
20
15.212654
0
VERTEX
8
1
10
18.793297
20
15.203325
42
-0.216057
0
VERTEX
8
1
10
18.791046
20
15.106209
42
0.028767
0
VERTEX
8
1
10
18.768593
20
14.999239
0
VERTEX
8
1
10
18.772713
20
14.996168
42
0.082617
0
VERTEX
8
1
10
18.849579
20
15.045961
42
0.133684
0
VERTEX
8
1
10
18.891022
20
15.042725
42
-0.141818
0
VERTEX
8
1
10
18.874168
20
15.033287
0
VERTEX
8
1
10
18.911659
20
14.992407
42
0.084967
0
VERTEX
8
1
10
18.853951
20
14.912666
42
0.014719
0
VERTEX
8
1
10
18.736000
20
14.614113
42
0.050606
0
VERTEX
8
1
10
18.547859
20
14.152620
0
SEQEND
0
POLYLINE
8
1
66
1
70
1
0
VERTEX
8
1
10
19.379944
20
14.673780
0
VERTEX
8
1
10
19.404373
20
14.585381
42
-0.211520
0
VERTEX
8
1
10
19.389175
20
14.340036
42
0.014134
0
VERTEX
8
1
10
19.211342
20
13.939999
0
VERTEX
8
1
10
19.198166
20
13.914574
42
0.015477
0
VERTEX
8
1
10
18.935242
20
13.454378
42
0.092271
0
VERTEX
8
1
10
18.891220
20
13.271637
0
VERTEX
8
1
10
18.831123
20
13.271637
42
0.036485
0
VERTEX
8
1
10
18.802902
20
13.212481
42
0.036145
0
VERTEX
8
1
10
18.588608
20
13.170269
0
VERTEX
8
1
10
18.575668
20
13.175440
42
-0.123310
0
VERTEX
8
1
10
18.605774
20
13.290903
0
VERTEX
8
1
10
18.750336
20
13.540022
42
-0.023614
0
VERTEX
8
1
10
18.985382
20
14.075941
42
-0.035868
0
VERTEX
8
1
10
19.129562
20
14.400625
42
0.059105
0
VERTEX
8
1
10
19.352615
20
14.796997
0
VERTEX
8
1
10
19.359375
20
14.799568
0
SEQEND
0
POLYLINE
8
1
66
1
70
1
0
VERTEX
8
1
10
19.684120
20
15.963352
42
-0.133935
0
VERTEX
8
1
10
19.573311
20
15.757349
42
-0.278100
0
VERTEX
8
1
10
19.425995
20
15.736952
42
0.147800
0
VERTEX
8
1
10
19.275024
20
15.750143
42
0.057172
0
VERTEX
8
1
10
19.192253
20
15.679016
42
-0.110536
0
VERTEX
8
1
10
19.001472
20
15.616354
0
VERTEX
8
1
10
19.001549
20
15.624510
42
0.801483
0
VERTEX
8
1
10
18.864777
20
15.758389
42
0.175167
0
VERTEX
8
1
10
18.761246
20
15.648489
42
-0.333161
0
VERTEX
8
1
10
18.634140
20
15.606573
0
VERTEX
8
1
10
18.620621
20
15.622858
42
0.336739
0
VERTEX
8
1
10
18.573776
20
15.708244
42
0.146915
0
VERTEX
8
1
10
18.421951
20
15.737583
42
0.195611
0
VERTEX
8
1
10
18.263374
20
15.693243
42
-0.103058
0
VERTEX
8
1
10
18.147606
20
15.597475
42
-0.087186
0
VERTEX
8
1
10
17.947235
20
15.589434
42
0.129983
0
VERTEX
8
1
10
17.669838
20
15.534925
42
-0.036077
0
VERTEX
8
1
10
17.440361
20
15.462259
0
VERTEX
8
1
10
17.428680
20
15.481852
0
VERTEX
8
1
10
17.428131
20
15.525093
42
-0.082453
0
VERTEX
8
1
10
17.547928
20
15.962580
42
0.032955
0
VERTEX
8
1
10
17.624130
20
16.211231
42
-0.040973
0
VERTEX
8
1
10
17.711403
20
16.608583
42
0.072854
0
VERTEX
8
1
10
17.791405
20
16.857620
0
VERTEX
8
1
10
17.827141
20
16.825891
42
-0.117543
0
VERTEX
8
1
10
17.876686
20
16.634733
42
0.148170
0
VERTEX
8
1
10
17.922989
20
16.528828
0
VERTEX
8
1
10
17.936684
20
16.528870
0
VERTEX
8
1
10
17.966164
20
16.573002
42
0.023921
0
VERTEX
8
1
10
18.053345
20
16.830427
42
-0.050856
0
VERTEX
8
1
10
18.120300
20
17.082951
0
VERTEX
8
1
10
18.129288
20
17.097200
0
VERTEX
8
1
10
18.139122
20
17.107939
0
VERTEX
8
1
10
18.144699
20
17.104723
0
VERTEX
8
1
10
18.146507
20
17.012863
42
0.553842
0
VERTEX
8
1
10
18.230408
20
16.947514
0
VERTEX
8
1
10
18.236481
20
17.073786
42
0.099270
0
VERTEX
8
1
10
18.198563
20
17.494957
42
0.041524
0
VERTEX
8
1
10
18.072083
20
18.012833
42
-0.028721
0
VERTEX
8
1
10
17.935997
20
18.770748
42
0.086401
0
VERTEX
8
1
10
17.837692
20
19.026903
42
-0.019044
0
VERTEX
8
1
10
17.728584
20
19.265339
42
-0.012962
0
VERTEX
8
1
10
17.643112
20
19.628471
0
VERTEX
8
1
10
17.460846
20
20.132418
42
0.022315
0
VERTEX
8
1
10
17.164749
20
20.926998
42
-0.082801
0
VERTEX
8
1
10
17.129715
20
21.133583
0
VERTEX
8
1
10
17.133942
20
21.158369
42
-0.338213
0
VERTEX
8
1
10
17.176506
20
21.207220
42
-0.234113
0
VERTEX
8
1
10
17.249756
20
21.155090
42
-0.025643
0
VERTEX
8
1
10
17.376038
20
20.917021
42
-0.021914
0
VERTEX
8
1
10
18.079155
20
19.281799
42
-0.070010
0
VERTEX
8
1
10
18.284470
20
18.307880
0
VERTEX
8
1
10
18.290550
20
18.256786
42
0.005620
0
VERTEX
8
1
10
18.487427
20
17.091881
42
-0.015441
0
VERTEX
8
1
10
18.560669
20
16.568289
42
0.118067
0
VERTEX
8
1
10
18.677483
20
16.294605
42
0.369417
0
VERTEX
8
1
10
18.785172
20
16.291834
42
-0.320636
0
VERTEX
8
1
10
18.899742
20
16.288275
42
0.048359
0
VERTEX
8
1
10
18.961395
20
16.219582
42
0.174425
0
VERTEX
8
1
10
19.109482
20
16.238611
42
-0.068805
0
VERTEX
8
1
10
19.358421
20
16.315359
42
-0.249213
0
VERTEX
8
1
10
19.464729
20
16.267498
42
-0.079537
0
VERTEX
8
1
10
19.676727
20
16.365419
0
VERTEX
8
1
10
19.684898
20
16.365229
42
0.041967
0
VERTEX
8
1
10
19.867706
20
16.307476
42
0.164439
0
VERTEX
8
1
10
19.750610
20
16.157532
42
0.042007
0
SEQEND
0
POLYLINE
8
1
66
1
70
1
0
VERTEX
8
1
10
20.582382
20
16.417246
0
VERTEX
8
1
10
20.617188
20
16.392481
42
-0.192579
0
VERTEX
8
1
10
20.784042
20
16.031570
0
VERTEX
8
1
10
20.787727
20
15.979927
42
-0.175049
0
VERTEX
8
1
10
20.406677
20
14.897512
42
-0.043181
0
VERTEX
8
1
10
19.963249
20
14.490759
42
-0.106572
0
VERTEX
8
1
10
19.773582
20
14.415239
0
VERTEX
8
1
10
19.739090
20
14.417240
0
VERTEX
8
1
10
19.722038
20
14.430212
42
-0.087582
0
VERTEX
8
1
10
19.742332
20
14.685452
0
VERTEX
8
1
10
19.837006
20
14.708166
42
0.141119
0
VERTEX
8
1
10
20.066940
20
14.899233
42
0.050125
0
VERTEX
8
1
10
20.306206
20
15.348066
42
0.122856
0
VERTEX
8
1
10
20.495369
20
16.098141
42
0.061011
0
VERTEX
8
1
10
20.475708
20
16.236986
42
0.111887
0
VERTEX
8
1
10
20.433784
20
16.297728
0
VERTEX
8
1
10
20.409966
20
16.306280
42
0.172978
0
VERTEX
8
1
10
20.313934
20
16.264933
0
VERTEX
8
1
10
20.231667
20
16.326601
0
VERTEX
8
1
10
20.213936
20
16.313847
42
-0.302614
0
VERTEX
8
1
10
20.210045
20
16.364168
0
VERTEX
8
1
10
20.308716
20
16.414854
42
-0.287569
0
SEQEND
0
POLYLINE
8
1
66
1
0
VERTEX
8
1
10
26.277916
20
7.754272
0
VERTEX
8
1
10
26.324287
20
7.782722
42
-0.030355
0
VERTEX
8
1
10
26.113441
20
7.732330
42
-0.231165
0
VERTEX
8
1
10
25.968765
20
7.794006
0
VERTEX
8
1
10
25.900215
20
7.870499
0
SEQEND
0
POLYLINE
8
1
66
1
70
1
0
VERTEX
8
1
10
44.814003
20
20.441082
0
VERTEX
8
1
10
44.810196
20
20.370296
42
-0.099965
0
VERTEX
8
1
10
44.525757
20
19.515369
42
-0.080076
0
VERTEX
8
1
10
43.950638
20
18.773903
42
-0.040572
0
VERTEX
8
1
10
43.390549
20
18.450520
42
-0.026578
0
VERTEX
8
1
10
41.914536
20
17.808266
0
VERTEX
8
1
10
41.785553
20
17.757080
42
0.061965
0
VERTEX
8
1
10
40.305161
20
16.528969
0
VERTEX
8
1
10
40.166649
20
16.367798
0
VERTEX
8
1
10
40.131889
20
16.311539
42
-0.193187
0
VERTEX
8
1
10
40.452759
20
15.982891
0
VERTEX
8
1
10
40.492188
20
15.849804
0
VERTEX
8
1
10
40.508759
20
15.715000
0
VERTEX
8
1
10
40.504639
20
15.579357
42
-0.099091
0
VERTEX
8
1
10
40.325180
20
15.045856
0
VERTEX
8
1
10
40.250511
20
14.919117
0
VERTEX
8
1
10
40.168312
20
14.796780
42
-0.067306
0
VERTEX
8
1
10
39.386246
20
13.987305
0
VERTEX
8
1
10
39.113045
20
13.881893
42
-0.018391
0
VERTEX
8
1
10
38.545074
20
12.958984
0
VERTEX
8
1
10
38.563606
20
12.964497
42
0.045413
0
VERTEX
8
1
10
39.127022
20
13.276730
42
-0.007773
0
VERTEX
8
1
10
39.495369
20
13.497330
42
-0.254322
0
VERTEX
8
1
10
39.735954
20
13.489265
42
-0.060690
0
VERTEX
8
1
10
39.910927
20
13.287994
0
VERTEX
8
1
10
39.922188
20
13.275517
42
-0.007325
0
VERTEX
8
1
10
40.391861
20
12.843243
42
0.004727
0
VERTEX
8
1
10
40.664932
20
12.537575
42
0.059669
0
VERTEX
8
1
10
41.142448
20
12.158997
42
-0.095978
0
VERTEX
8
1
10
41.593903
20
11.639954
42
0.041781
0
VERTEX
8
1
10
41.860588
20
11.290184
0
VERTEX
8
1
10
41.989731
20
11.060646
42
0.222129
0
VERTEX
8
1
10
42.110580
20
10.963837
0
VERTEX
8
1
10
42.129333
20
10.963509
42
-0.271999
0
VERTEX
8
1
10
41.989639
20
10.864677
42
0.101514
0
VERTEX
8
1
10
41.673225
20
11.275398
42
-0.058013
0
VERTEX
8
1
10
41.198204
20
11.798599
42
0.208489
0
VERTEX
8
1
10
40.828949
20
12.088547
42
-0.129189
0
VERTEX
8
1
10
40.538628
20
12.255791
42
-0.062619
0
VERTEX
8
1
10
40.394424
20
12.491299
42
0.132399
0
VERTEX
8
1
10
40.042755
20
12.836941
42
-0.105293
0
VERTEX
8
1
10
39.776627
20
13.121262
0
VERTEX
8
1
10
39.761452
20
13.132858
42
0.121890
0
VERTEX
8
1
10
39.476318
20
12.937759
42
-0.061162
0
VERTEX
8
1
10
39.046310
20
12.578671
42
-0.054838
0
VERTEX
8
1
10
38.144371
20
12.037498
42
0.045268
0
VERTEX
8
1
10
37.625435
20
11.715424
0
VERTEX
8
1
10
37.552696
20
11.665390
42
-0.040833
0
VERTEX
8
1
10
37.713234
20
11.705482
42
-0.033231
0
VERTEX
8
1
10
38.287651
20
11.781731
42
0.052907
0
VERTEX
8
1
10
38.589966
20
11.865204
42
-0.142692
0
VERTEX
8
1
10
38.757095
20
11.863548
0
VERTEX
8
1
10
38.773277
20
11.863350
42
0.125581
0
VERTEX
8
1
10
39.212288
20
12.130341
42
-0.194627
0
VERTEX
8
1
10
39.342545
20
12.174171
42
-0.157711
0
VERTEX
8
1
10
39.487633
20
12.053192
42
-0.085369
0
VERTEX
8
1
10
39.667908
20
11.703094
42
0.055765
0
VERTEX
8
1
10
40.275368
20
10.429863
42
0.026155
0
VERTEX
8
1
10
40.657890
20
9.853340
42
0.000922
0
VERTEX
8
1
10
41.047043
20
9.414963
42
-0.052328
0
VERTEX
8
1
10
41.369476
20
8.936104
42
-0.117444
0
VERTEX
8
1
10
41.418701
20
8.692368
42
-0.104977
0
VERTEX
8
1
10
41.389015
20
8.615242
0
VERTEX
8
1
10
41.373138
20
8.619583
42
-0.073503
0
VERTEX
8
1
10
41.205612
20
8.874115
42
0.071504
0
VERTEX
8
1
10
40.834320
20
9.340599
0
VERTEX
8
1
10
40.815498
20
9.355843
42
-0.048048
0
VERTEX
8
1
10
40.537109
20
9.579208
42
-0.070420
0
VERTEX
8
1
10
40.085655
20
10.321297
42
0.034683
0
VERTEX
8
1
10
39.739929
20
10.920296
42
-0.025877
0
VERTEX
8
1
10
39.359612
20
11.699646
42
0.329696
0
VERTEX
8
1
10
39.250336
20
11.751801
42
0.095536
0
VERTEX
8
1
10
38.980881
20
11.600571
0
VERTEX
8
1
10
38.932533
20
11.570671
0
VERTEX
8
1
10
39.071335
20
11.182587
42
0.075963
0
VERTEX
8
1
10
39.291824
20
10.673248
42
-0.034454
0
VERTEX
8
1
10
39.544678
20
10.209389
42
0.041318
0
VERTEX
8
1
10
40.063568
20
9.090973
42
-0.081317
0
VERTEX
8
1
10
40.189034
20
8.696266
42
0.026340
0
VERTEX
8
1
10
40.380455
20
8.077454
42
-0.034281
0
VERTEX
8
1
10
40.426537
20
7.885223
0
VERTEX
8
1
10
40.411804
20
7.871506
42
-0.108795
0
VERTEX
8
1
10
40.255737
20
7.999153
42
-0.037487
0
VERTEX
8
1
10
40.127487
20
8.318573
42
0.015317
0
VERTEX
8
1
10
39.916901
20
8.809731
42
0.074801
0
VERTEX
8
1
10
39.706703
20
9.081779
42
-0.113418
0
VERTEX
8
1
10
39.526543
20
9.380775
42
0.044990
0
VERTEX
8
1
10
39.258461
20
9.930542
42
-0.063812
0
VERTEX
8
1
10
38.963760
20
10.634163
0
VERTEX
8
1
10
38.814804
20
10.965813
0
VERTEX
8
1
10
38.766457
20
11.168686
42
0.383833
0
VERTEX
8
1
10
38.594887
20
11.288300
42
0.110812
0
VERTEX
8
1
10
38.193985
20
11.171974
42
0.006105
0
VERTEX
8
1
10
37.737877
20
10.918152
42
-0.077593
0
VERTEX
8
1
10
37.327652
20
10.790451
0
VERTEX
8
1
10
37.309189
20
10.783699
42
-0.019999
0
VERTEX
8
1
10
37.620720
20
10.426460
42
0.095407
0
VERTEX
8
1
10
37.828285
20
10.307716
42
-0.231410
0
VERTEX
8
1
10
38.082260
20
10.013313
42
-0.072026
0
VERTEX
8
1
10
38.151070
20
9.612587
42
0.082615
0
VERTEX
8
1
10
38.334930
20
8.802315
42
-0.034513
0
VERTEX
8
1
10
38.587944
20
8.002747
0
VERTEX
8
1
10
38.636841
20
7.905731
42
-0.061904
0
VERTEX
8
1
10
38.696472
20
7.665977
42
-0.056444
0
VERTEX
8
1
10
38.722969
20
6.914940
0
VERTEX
8
1
10
38.715416
20
6.893707
42
-0.261490
0
VERTEX
8
1
10
38.606323
20
6.982727
42
-0.066920
0
VERTEX
8
1
10
38.558983
20
7.105431
42
-0.046675
0
VERTEX
8
1
10
38.470650
20
7.555664
0
VERTEX
8
1
10
38.459290
20
7.589600
42
-0.248522
0
VERTEX
8
1
10
38.272194
20
7.805923
42
-0.003281
0
VERTEX
8
1
10
38.083076
20
8.579216
42
0.026974
0
VERTEX
8
1
10
37.935959
20
9.024597
42
-0.066314
0
VERTEX
8
1
10
37.831902
20
9.571266
42
0.084695
0
VERTEX
8
1
10
37.774429
20
9.766518
42
0.100580
0
VERTEX
8
1
10
37.725525
20
9.807983
42
0.035797
0
VERTEX
8
1
10
37.442116
20
9.915421
42
-0.018309
0
VERTEX
8
1
10
37.050323
20
10.121536
42
-0.034643
0
VERTEX
8
1
10
36.826500
20
10.311157
0
VERTEX
8
1
10
36.823357
20
10.303314
42
0.028188
0
VERTEX
8
1
10
36.825066
20
9.796036
42
0.019171
0
VERTEX
8
1
10
36.966087
20
9.029549
0
VERTEX
8
1
10
36.972618
20
9.006546
42
-0.143359
0
VERTEX
8
1
10
37.019737
20
8.387657
42
0.036294
0
VERTEX
8
1
10
36.985687
20
7.548714
42
0.030488
0
VERTEX
8
1
10
37.010170
20
7.099686
42
-0.056736
0
VERTEX
8
1
10
36.992973
20
6.647614
42
-0.170674
0
VERTEX
8
1
10
36.913048
20
6.512344
42
-0.220455
0
VERTEX
8
1
10
36.823555
20
6.502884
0
VERTEX
8
1
10
36.816681
20
6.514748
42
-0.081738
0
VERTEX
8
1
10
36.834175
20
6.714592
42
0.050114
0
VERTEX
8
1
10
36.816956
20
6.976089
0
VERTEX
8
1
10
36.819977
20
7.453346
0
VERTEX
8
1
10
36.759666
20
8.140419
42
0.307931
0
VERTEX
8
1
10
36.682831
20
8.252754
42
-0.338684
0
VERTEX
8
1
10
36.579208
20
8.324265
0
VERTEX
8
1
10
36.571503
20
8.343582
42
-0.091393
0
VERTEX
8
1
10
36.552399
20
8.677666
42
0.089975
0
VERTEX
8
1
10
36.521317
20
9.147728
42
-0.056706
0
VERTEX
8
1
10
36.484978
20
9.610306
42
0.049334
0
VERTEX
8
1
10
36.421013
20
10.169762
0
VERTEX
8
1
10
36.406052
20
10.190826
42
-0.033720
0
VERTEX
8
1
10
36.015137
20
9.992455
0
VERTEX
8
1
10
35.978180
20
9.928619
0
VERTEX
8
1
10
35.884583
20
9.755569
42
-0.073911
0
VERTEX
8
1
10
35.039200
20
8.742188
42
-0.048474
0
VERTEX
8
1
10
33.739716
20
7.767609
42
0.116114
0
VERTEX
8
1
10
33.579391
20
7.514946
42
-0.101139
0
VERTEX
8
1
10
33.504181
20
7.418793
42
-0.032959
0
VERTEX
8
1
10
33.263077
20
7.200020
42
-0.008437
0
VERTEX
8
1
10
32.888832
20
6.864906
42
0.055454
0
VERTEX
8
1
10
32.797318
20
6.750320
0
VERTEX
8
1
10
32.779770
20
6.729401
0
VERTEX
8
1
10
32.758804
20
6.706230
42
-0.016319
0
VERTEX
8
1
10
32.323921
20
6.307564
42
0.072093
0
VERTEX
8
1
10
32.023109
20
5.927681
42
-0.154062
0
VERTEX
8
1
10
31.742386
20
5.768463
42
0.069446
0
VERTEX
8
1
10
31.653465
20
5.724937
42
-0.087267
0
VERTEX
8
1
10
31.558250
20
5.602005
42
-0.015559
0
VERTEX
8
1
10
31.124390
20
5.190514
42
-0.091965
0
VERTEX
8
1
10
30.414299
20
4.446297
42
-0.095760
0
VERTEX
8
1
10
30.188393
20
4.351334
0
VERTEX
8
1
10
30.145920
20
4.350700
42
-0.334651
0
VERTEX
8
1
10
30.003845
20
4.525589
42
-0.088442
0
VERTEX
8
1
10
30.011192
20
4.766251
0
VERTEX
8
1
10
30.026413
20
4.849670
0
VERTEX
8
1
10
30.190605
20
5.513184
42
0.062627
0
VERTEX
8
1
10
30.243416
20
5.973190
42
-0.146699
0
VERTEX
8
1
10
30.280251
20
6.594986
42
-0.017681
0
VERTEX
8
1
10
30.497887
20
7.116165
42
0.028964
0
VERTEX
8
1
10
30.600594
20
7.403290
0
VERTEX
8
1
10
30.547737
20
7.357475
42
0.034267
0
VERTEX
8
1
10
28.789177
20
5.137238
42
0.028785
0
VERTEX
8
1
10
28.542076
20
4.711716
0
VERTEX
8
1
10
28.501472
20
4.616852
42
-0.027788
0
VERTEX
8
1
10
27.878845
20
2.848335
42
-0.034310
0
VERTEX
8
1
10
27.451752
20
2.008224
42
-0.031519
0
VERTEX
8
1
10
27.199837
20
1.657494
42
-0.048144
0
VERTEX
8
1
10
26.970009
20
1.431038
42
-0.131323
0
VERTEX
8
1
10
26.513306
20
1.231262
0
VERTEX
8
1
10
26.471199
20
1.219749
0
VERTEX
8
1
10
26.436485
20
1.204681
42
-0.190600
0
VERTEX
8
1
10
26.211296
20
1.345276
0
VERTEX
8
1
10
26.172951
20
1.402443
42
-0.110424
0
VERTEX
8
1
10
26.062103
20
1.819389
42
-0.052758
0
VERTEX
8
1
10
26.071541
20
2.309799
42
0.138722
0
VERTEX
8
1
10
25.818153
20
2.233528
42
0.064092
0
VERTEX
8
1
10
25.564278
20
2.039932
42
-0.138459
0
VERTEX
8
1
10
25.209213
20
1.861679
42
-0.225225
0
VERTEX
8
1
10
25.104683
20
1.901680
42
-0.188810
0
VERTEX
8
1
10
25.090401
20
1.966316
42
0.111649
0
VERTEX
8
1
10
24.916985
20
3.179138
42
0.091347
0
VERTEX
8
1
10
24.756508
20
3.424957
42
0.228116
0
VERTEX
8
1
10
24.682800
20
3.437057
42
0.182676
0
VERTEX
8
1
10
24.527489
20
3.340691
42
0.041791
0
VERTEX
8
1
10
24.248573
20
2.932091
42
-0.102071
0
VERTEX
8
1
10
23.107483
20
1.746780
42
-0.070012
0
VERTEX
8
1
10
22.772232
20
1.592178
42
-0.104931
0
VERTEX
8
1
10
22.656929
20
1.590919
0
VERTEX
8
1
10
22.606407
20
1.617760
42
-0.328425
0
VERTEX
8
1
10
22.541298
20
1.822411
42
-0.111341
0
VERTEX
8
1
10
22.666412
20
2.086258
42
-0.106077
0
VERTEX
8
1
10
23.332977
20
2.708557
42
0.074156
0
VERTEX
8
1
10
24.124031
20
3.355385
42
0.032223
0
VERTEX
8
1
10
24.317352
20
3.612938
0
VERTEX
8
1
10
24.316605
20
3.639122
42
0.207191
0
VERTEX
8
1
10
23.903732
20
3.750824
42
0.077108
0
VERTEX
8
1
10
23.583961
20
3.671486
42
0.033769
0
VERTEX
8
1
10
23.775574
20
4.189919
42
0.239199
0
VERTEX
8
1
10
23.748619
20
4.274979
42
-0.066583
0
VERTEX
8
1
10
23.593063
20
4.275276
0
VERTEX
8
1
10
23.571953
20
4.269081
42
0.054016
0
VERTEX
8
1
10
23.036736
20
3.976791
42
0.014386
0
VERTEX
8
1
10
22.220703
20
3.403564
0
VERTEX
8
1
10
22.020378
20
3.231438
42
-0.023844
0
VERTEX
8
1
10
20.704544
20
2.148643
42
-0.038342
0
VERTEX
8
1
10
20.336372
20
1.929108
42
-0.167374
0
VERTEX
8
1
10
20.233444
20
1.920601
42
-0.364964
0
VERTEX
8
1
10
20.225632
20
1.952133
42
0.003081
0
VERTEX
8
1
10
22.338425
20
4.918861
0
VERTEX
8
1
10
22.323059
20
4.915550
42
-0.077775
0
VERTEX
8
1
10
22.588593
20
5.350304
42
0.029283
0
VERTEX
8
1
10
23.015663
20
5.988976
42
0.044589
0
VERTEX
8
1
10
23.417351
20
6.740829
42
0.136924
0
VERTEX
8
1
10
23.505463
20
7.086273
42
0.196585
0
VERTEX
8
1
10
23.414680
20
7.253830
42
0.198513
0
VERTEX
8
1
10
23.291443
20
7.261444
42
-0.107409
0
VERTEX
8
1
10
23.172440
20
7.263031
0
VERTEX
8
1
10
23.168327
20
7.295059
42
-0.126456
0
VERTEX
8
1
10
23.268219
20
7.603127
42
-0.011681
0
VERTEX
8
1
10
23.548370
20
8.035118
42
0.034477
0
VERTEX
8
1
10
24.082726
20
9.138832
42
0.093446
0
VERTEX
8
1
10
24.157593
20
9.613258
42
0.084986
0
VERTEX
8
1
10
23.990288
20
10.076912
0
VERTEX
8
1
10
23.960716
20
10.116264
42
0.058998
0
VERTEX
8
1
10
23.810158
20
10.050911
0
VERTEX
8
1
10
23.800850
20
10.055443
42
-0.124189
0
VERTEX
8
1
10
23.900917
20
10.667198
42
-0.045029
0
VERTEX
8
1
10
24.509811
20
11.818314
42
-0.023837
0
VERTEX
8
1
10
24.932533
20
12.467438
0
VERTEX
8
1
10
24.962631
20
12.513950
42
0.146135
0
VERTEX
8
1
10
25.193573
20
13.306019
42
0.047473
0
VERTEX
8
1
10
25.165436
20
13.585152
0
VERTEX
8
1
10
25.162926
20
13.613613
0
VERTEX
8
1
10
25.161911
20
13.639378
42
-0.303210
0
VERTEX
8
1
10
25.259659
20
13.816509
42
0.005828
0
VERTEX
8
1
10
26.007813
20
14.293903
0
VERTEX
8
1
10
26.071503
20
14.341843
42
0.038309
0
VERTEX
8
1
10
26.487411
20
14.700668
42
0.021761
0
VERTEX
8
1
10
27.239754
20
15.485455
0
VERTEX
8
1
10
27.244713
20
15.502792
42
-0.156724
0
VERTEX
8
1
10
27.018814
20
16.015469
42
0.105897
0
VERTEX
8
1
10
27.000839
20
16.206100
42
0.038658
0
VERTEX
8
1
10
26.888054
20
16.358265
42
0.000690
0
VERTEX
8
1
10
26.716667
20
16.691952
42
-0.103018
0
VERTEX
8
1
10
26.622879
20
17.389366
42
0.131418
0
VERTEX
8
1
10
26.553230
20
17.654068
42
-0.161539
0
VERTEX
8
1
10
26.529488
20
18.510433
42
0.112988
0
VERTEX
8
1
10
26.502365
20
18.835381
42
-0.087917
0
VERTEX
8
1
10
26.442390
20
19.342697
42
-0.026845
0
VERTEX
8
1
10
26.462624
20
19.617233
0
VERTEX
8
1
10
26.454544
20
19.816490
0
VERTEX
8
1
10
26.448906
20
19.832146
42
-0.100611
0
VERTEX
8
1
10
26.408371
20
20.547516
42
0.131736
0
VERTEX
8
1
10
26.355919
20
20.840870
42
-0.149995
0
VERTEX
8
1
10
26.300674
20
21.294628
42
-0.024459
0
VERTEX
8
1
10
26.376862
20
21.479324
42
0.163874
0
VERTEX
8
1
10
26.381126
20
21.657776
42
0.024523
0
VERTEX
8
1
10
26.258095
20
22.020130
42
-0.183960
0
VERTEX
8
1
10
26.272659
20
22.480869
42
0.115682
0
VERTEX
8
1
10
26.287849
20
22.801556
42
-0.020937
0
VERTEX
8
1
10
26.279526
20
23.067936
42
0.096088
0
VERTEX
8
1
10
26.213684
20
23.257393
42
-0.131159
0
VERTEX
8
1
10
26.078545
20
23.955006
42
-0.066156
0
VERTEX
8
1
10
26.137466
20
24.312035
42
-0.039969
0
VERTEX
8
1
10
26.254974
20
24.561466
42
-0.037317
0
VERTEX
8
1
10
26.096954
20
24.764294
42
-0.118837
0
VERTEX
8
1
10
26.009506
20
25.074730
42
-0.080035
0
VERTEX
8
1
10
26.087906
20
25.955902
42
0.200123
0
VERTEX
8
1
10
26.010017
20
26.279690
42
-0.147912
0
VERTEX
8
1
10
25.835518
20
26.851139
42
-0.093447
0
VERTEX
8
1
10
25.883316
20
27.169628
42
0.105117
0
VERTEX
8
1
10
25.889870
20
27.594875
42
-0.039741
0
VERTEX
8
1
10
25.855881
20
28.041996
42
-0.036679
0
VERTEX
8
1
10
25.847672
20
28.724472
42
-0.109349
0
VERTEX
8
1
10
25.956352
20
29.064754
42
-0.316035
0
VERTEX
8
1
10
26.302261
20
29.195103
42
-0.046606
0
VERTEX
8
1
10
26.770294
20
29.055435
0
VERTEX
8
1
10
26.891823
20
28.985691
42
-0.031049
0
VERTEX
8
1
10
27.627258
20
28.603539
0
VERTEX
8
1
10
27.651352
20
28.590755
42
-0.101164
0
VERTEX
8
1
10
28.771156
20
27.801819
0
VERTEX
8
1
10
28.815544
20
27.769623
42
-0.101359
0
VERTEX
8
1
10
28.869133
20
28.130974
42
-0.130249
0
VERTEX
8
1
10
29.328461
20
28.832458
0
VERTEX
8
1
10
29.366463
20
28.862400
0
VERTEX
8
1
10
29.440125
20
28.902016
42
-0.123804
0
VERTEX
8
1
10
30.484070
20
29.069057
42
-0.083000
0
VERTEX
8
1
10
31.630623
20
28.769218
0
VERTEX
8
1
10
31.985390
20
28.604008
0
VERTEX
8
1
10
32.099487
20
28.531357
0
VERTEX
8
1
10
32.290062
20
28.384521
42
-0.043969
0
VERTEX
8
1
10
33.579460
20
27.110748
42
-0.036991
0
VERTEX
8
1
10
35.577446
20
24.424461
0
VERTEX
8
1
10
35.718834
20
24.191456
0
VERTEX
8
1
10
35.857979
20
23.951324
42
-0.044135
0
VERTEX
8
1
10
37.441200
20
20.399773
42
-0.020185
0
VERTEX
8
1
10
37.666603
20
19.623634
42
-0.015545
0
VERTEX
8
1
10
38.360031
20
16.616402
0
VERTEX
8
1
10
38.393829
20
16.432156
0
VERTEX
8
1
10
38.425766
20
16.247581
0
VERTEX
8
1
10
38.472435
20
16.206875
42
-0.103581
0
VERTEX
8
1
10
39.593834
20
16.118843
0
VERTEX
8
1
10
39.607445
20
16.122555
42
-0.098669
0
VERTEX
8
1
10
39.787079
20
16.291050
42
-0.112703
0
VERTEX
8
1
10
41.194351
20
18.312973
0
VERTEX
8
1
10
41.336426
20
18.434410
42
0.017976
0
VERTEX
8
1
10
42.235657
20
19.197285
42
0.065442
0
VERTEX
8
1
10
42.555435
20
19.611198
0
VERTEX
8
1
10
42.592613
20
19.685799
42
0.077217
0
VERTEX
8
1
10
42.767273
20
20.399769
42
-0.068365
0
VERTEX
8
1
10
42.921165
20
21.041920
42
-0.129612
0
VERTEX
8
1
10
43.066437
20
21.214046
42
-0.143168
0
VERTEX
8
1
10
43.187119
20
21.243446
0
VERTEX
8
1
10
43.215416
20
21.235413
42
-0.164495
0
VERTEX
8
1
10
43.301903
20
21.096764
0
VERTEX
8
1
10
43.318657
20
21.038803
0
VERTEX
8
1
10
43.332573
20
20.972610
42
-0.115678
0
VERTEX
8
1
10
43.250740
20
20.075260
42
-0.069741
0
VERTEX
8
1
10
42.951515
20
19.437302
42
-0.045996
0
VERTEX
8
1
10
42.748955
20
19.228024
42
-0.036473
0
VERTEX
8
1
10
41.200890
20
18.046497
0
VERTEX
8
1
10
41.138710
20
17.993961
42
0.063247
0
VERTEX
8
1
10
40.080704
20
16.577290
42
0.016877
0
VERTEX
8
1
10
39.984650
20
16.382397
42
-0.086492
0
VERTEX
8
1
10
41.601540
20
17.886166
42
-0.035383
0
VERTEX
8
1
10
42.303444
20
18.264053
42
0.022343
0
VERTEX
8
1
10
43.197563
20
18.731953
0
VERTEX
8
1
10
43.288048
20
18.790379
42
0.137810
0
VERTEX
8
1
10
43.907318
20
19.493450
42
0.029315
0
VERTEX
8
1
10
44.116737
20
19.962513
42
-0.048751
0
VERTEX
8
1
10
44.399490
20
20.485447
42
-0.107018
0
VERTEX
8
1
10
44.591949
20
20.652821
42
-0.197136
0
VERTEX
8
1
10
44.757042
20
20.657223
0
VERTEX
8
1
10
44.780518
20
20.632805
42
-0.132416
0
SEQEND
0
POLYLINE
8
1
66
1
70
1
0
VERTEX
8
1
10
39.446716
20
15.459904
42
0.681466
0
VERTEX
8
1
10
39.616150
20
15.389782
42
-0.083896
0
VERTEX
8
1
10
39.703278
20
15.466343
42
-0.144664
0
VERTEX
8
1
10
39.735390
20
15.464581
0
VERTEX
8
1
10
39.766701
20
15.558449
42
0.054453
0
VERTEX
8
1
10
39.767426
20
15.798695
0
VERTEX
8
1
10
39.758987
20
15.824089
42
0.571957
0
VERTEX
8
1
10
39.633163
20
15.845188
0
VERTEX
8
1
10
39.617714
20
15.828499
42
0.077030
0
VERTEX
8
1
10
39.453667
20
15.512047
0
SEQEND
0
POLYLINE
8
1
66
1
70
1
0
VERTEX
8
1
10
35.968513
20
22.900658
42
0.042153
0
VERTEX
8
1
10
35.683975
20
23.379723
0
VERTEX
8
1
10
35.673698
20
23.384483
42
0.396666
0
VERTEX
8
1
10
35.540459
20
23.117355
42
0.070600
0
VERTEX
8
1
10
35.632027
20
22.849346
42
-0.088686
0
VERTEX
8
1
10
35.706741
20
22.585026
42
-0.309329
0
VERTEX
8
1
10
35.607941
20
22.442448
42
-0.249530
0
VERTEX
8
1
10
35.495201
20
22.476685
42
-0.085362
0
VERTEX
8
1
10
35.336624
20
22.683434
42
0.184370
0
VERTEX
8
1
10
35.184525
20
22.782742
0
VERTEX
8
1
10
35.162102
20
22.782532
0
VERTEX
8
1
10
35.153488
20
22.769901
42
-0.064991
0
VERTEX
8
1
10
35.105644
20
22.463867
42
-0.309811
0
VERTEX
8
1
10
34.879196
20
22.303371
0
VERTEX
8
1
10
34.873558
20
22.290947
42
-0.054932
0
VERTEX
8
1
10
35.078453
20
21.921551
42
-0.164584
0
VERTEX
8
1
10
35.073051
20
21.822350
0
VERTEX
8
1
10
35.053612
20
21.804859
0
VERTEX
8
1
10
35.023338
20
21.795685
0
VERTEX
8
1
10
34.981056
20
21.795952
0
VERTEX
8
1
10
34.931198
20
21.808159
42
0.058210
0
VERTEX
8
1
10
34.672791
20
22.259850
0
VERTEX
8
1
10
34.658363
20
22.269474
42
-0.063309
0
VERTEX
8
1
10
34.453865
20
22.208992
0
VERTEX
8
1
10
34.467514
20
22.175900
42
0.034864
0
VERTEX
8
1
10
34.788277
20
21.664867
42
-0.068323
0
VERTEX
8
1
10
34.969124
20
21.272484
42
0.054335
0
VERTEX
8
1
10
35.120384
20
20.969303
42
0.047546
0
VERTEX
8
1
10
35.182419
20
20.902996
0
VERTEX
8
1
10
35.214470
20
20.716763
42
0.146971
0
VERTEX
8
1
10
35.612694
20
20.867043
42
0.275539
0
VERTEX
8
1
10
35.650352
20
21.009716
0
VERTEX
8
1
10
35.593796
20
21.206875
42
-0.236598
0
VERTEX
8
1
10
35.631706
20
21.376125
0
VERTEX
8
1
10
35.650803
20
21.375294
42
-0.089648
0
VERTEX
8
1
10
35.840607
20
21.234306
0
VERTEX
8
1
10
35.901054
20
21.184456
0
VERTEX
8
1
10
35.920273
20
21.178272
42
0.013370
0
VERTEX
8
1
10
36.512741
20
21.364738
0
VERTEX
8
1
10
36.548645
20
21.382751
42
0.368067
0
VERTEX
8
1
10
36.625992
20
21.545471
42
0.054035
0
VERTEX
8
1
10
36.511803
20
21.795506
42
0.003663
0
SEQEND
0
POLYLINE
8
1
66
1
70
1
0
VERTEX
8
1
10
37.137802
20
16.807343
42
0.276866
0
VERTEX
8
1
10
37.213295
20
16.936638
42
0.094725
0
VERTEX
8
1
10
37.181396
20
17.150902
42
0.076698
0
VERTEX
8
1
10
36.914459
20
17.707184
42
-0.003926
0
VERTEX
8
1
10
36.337845
20
18.700634
42
-0.039054
0
VERTEX
8
1
10
36.083321
20
19.276138
0
VERTEX
8
1
10
36.083313
20
19.334251
0
VERTEX
8
1
10
36.076752
20
19.339680
0
VERTEX
8
1
10
36.067863
20
19.350353
0
VERTEX
8
1
10
35.956558
20
19.583786
42
0.171492
0
VERTEX
8
1
10
35.788406
20
19.756134
0
VERTEX
8
1
10
35.728088
20
19.770870
0
VERTEX
8
1
10
35.713852
20
19.748783
42
0.063202
0
VERTEX
8
1
10
35.900131
20
19.338848
42
-0.027074
0
VERTEX
8
1
10
36.265038
20
18.654839
42
-0.098698
0
VERTEX
8
1
10
36.338135
20
18.306499
42
-0.280810
0
VERTEX
8
1
10
36.122688
20
18.023457
0
VERTEX
8
1
10
36.062798
20
18.013027
42
-0.149672
0
VERTEX
8
1
10
35.806084
20
18.100731
42
-0.028967
0
VERTEX
8
1
10
35.356560
20
18.460018
42
0.059215
0
VERTEX
8
1
10
35.108719
20
18.616974
42
0.118870
0
VERTEX
8
1
10
34.950768
20
18.641190
0
VERTEX
8
1
10
34.894325
20
18.624535
0
VERTEX
8
1
10
34.895897
20
18.592457
42
0.005535
0
VERTEX
8
1
10
35.204422
20
18.084702
42
-0.081386
0
VERTEX
8
1
10
35.306572
20
17.805290
0
VERTEX
8
1
10
35.309265
20
17.769638
0
VERTEX
8
1
10
35.292633
20
17.747013
42
-0.259836
0
VERTEX
8
1
10
34.880775
20
17.841030
42
-0.032291
0
VERTEX
8
1
10
34.756332
20
17.951317
42
0.216752
0
VERTEX
8
1
10
34.353310
20
18.379169
42
0.188177
0
VERTEX
8
1
10
34.059761
20
18.367378
0
VERTEX
8
1
10
34.075035
20
18.332268
42
0.016146
0
VERTEX
8
1
10
34.726837
20
17.374741
42
0.041237
0
VERTEX
8
1
10
34.964645
20
17.117115
42
0.106242
0
VERTEX
8
1
10
35.055901
20
17.071709
0
VERTEX
8
1
10
35.064690
20
17.078770
42
-0.001964
0
VERTEX
8
1
10
34.970871
20
17.277534
42
0.078141
0
VERTEX
8
1
10
34.909439
20
17.350788
0
VERTEX
8
1
10
34.909698
20
17.367882
0
VERTEX
8
1
10
34.960197
20
17.396957
42
-0.277993
0
VERTEX
8
1
10
35.143463
20
17.371410
0
VERTEX
8
1
10
35.185715
20
17.336712
42
-0.062895
0
VERTEX
8
1
10
35.452034
20
16.955605
42
0.072621
0
VERTEX
8
1
10
35.694786
20
16.655605
42
0.200198
0
VERTEX
8
1
10
35.876915
20
16.604122
0
VERTEX
8
1
10
35.880379
20
16.626251
42
-0.018832
0
VERTEX
8
1
10
35.821320
20
16.999611
42
-0.081842
0
VERTEX
8
1
10
35.841827
20
17.158691
0
VERTEX
8
1
10
35.953300
20
17.199207
0
VERTEX
8
1
10
35.961899
20
17.195946
42
-0.117029
0
VERTEX
8
1
10
36.253502
20
16.833908
0
VERTEX
8
1
10
36.285011
20
16.735573
42
0.322212
0
VERTEX
8
1
10
36.580910
20
16.845421
0
VERTEX
8
1
10
36.579414
20
16.863941
42
-0.005896
0
VERTEX
8
1
10
36.443222
20
17.269066
0
VERTEX
8
1
10
36.416252
20
17.333958
0
VERTEX
8
1
10
36.420647
20
17.346333
42
-0.164143
0
VERTEX
8
1
10
36.784172
20
17.113941
42
-0.071368
0
VERTEX
8
1
10
36.985893
20
16.797951
42
0.146639
0
SEQEND
0
POLYLINE
8
1
66
1
70
1
0
VERTEX
8
1
10
34.264015
20
16.962204
0
VERTEX
8
1
10
34.555489
20
16.876160
0
VERTEX
8
1
10
34.579155
20
16.911633
0
VERTEX
8
1
10
34.576347
20
16.916782
42
0.111355
0
VERTEX
8
1
10
33.937714
20
18.111519
42
0.105166
0
VERTEX
8
1
10
33.647758
20
18.308334
42
0.157919
0
VERTEX
8
1
10
33.307213
20
18.303825
42
-0.023871
0
VERTEX
8
1
10
32.965691
20
18.205441
42
0.012286
0
VERTEX
8
1
10
31.832626
20
18.069599
42
-0.111066
0
VERTEX
8
1
10
31.828781
20
17.935741
42
-0.008666
0
VERTEX
8
1
10
31.757584
20
17.363506
0
VERTEX
8
1
10
31.744484
20
17.297417
42
-0.020094
0
VERTEX
8
1
10
32.470833
20
17.193150
42
0.021089
0
VERTEX
8
1
10
33.436806
20
17.129349
42
-0.065266
0
VERTEX
8
1
10
34.158539
20
16.993942
0
SEQEND
0
POLYLINE
8
1
66
1
70
1
0
VERTEX
8
1
10
31.574890
20
17.497940
42
0.102083
0
VERTEX
8
1
10
31.648453
20
17.959820
42
0.087527
0
VERTEX
8
1
10
31.578568
20
18.409321
42
0.032513
0
VERTEX
8
1
10
31.402275
20
18.699764
42
-0.184286
0
VERTEX
8
1
10
31.345024
20
19.018700
42
0.061942
0
VERTEX
8
1
10
31.366982
20
19.352001
42
0.127922
0
VERTEX
8
1
10
31.260727
20
19.597183
42
-0.073225
0
VERTEX
8
1
10
31.120667
20
19.852634
0
VERTEX
8
1
10
31.115944
20
19.876141
42
-0.139191
0
VERTEX
8
1
10
31.173050
20
20.100819
42
0.034590
0
VERTEX
8
1
10
31.293221
20
20.368633
42
0.105504
0
VERTEX
8
1
10
31.288185
20
20.792828
42
-0.010228
0
VERTEX
8
1
10
31.164619
20
21.375805
42
-0.050997
0
VERTEX
8
1
10
31.159309
20
21.596706
0
VERTEX
8
1
10
31.184494
20
21.616638
0
VERTEX
8
1
10
31.214462
20
21.620289
42
-0.170301
0
VERTEX
8
1
10
31.448975
20
21.523830
0
VERTEX
8
1
10
31.669250
20
21.345772
42
-0.043455
0
VERTEX
8
1
10
31.520561
20
21.691826
42
0.070820
0
VERTEX
8
1
10
31.221733
20
21.889183
42
0.197180
0
VERTEX
8
1
10
30.913864
20
21.884048
42
0.338174
0
VERTEX
8
1
10
30.879448
20
21.786671
42
-0.008710
0
VERTEX
8
1
10
30.969109
20
21.390835
42
-0.115734
0
VERTEX
8
1
10
30.898621
20
20.490822
42
-0.072364
0
VERTEX
8
1
10
30.676384
20
20.066460
0
VERTEX
8
1
10
30.660637
20
20.034176
42
0.051899
0
VERTEX
8
1
10
30.767693
20
19.969139
42
-0.148064
0
VERTEX
8
1
10
30.847870
20
19.823364
42
0.062542
0
VERTEX
8
1
10
30.878571
20
19.765427
42
-0.099785
0
VERTEX
8
1
10
31.002167
20
19.376045
42
-0.090142
0
VERTEX
8
1
10
31.004509
20
18.995598
0
VERTEX
8
1
10
30.985252
20
18.941605
42
-0.140472
0
VERTEX
8
1
10
30.843216
20
19.141613
42
0.046405
0
VERTEX
8
1
10
30.710861
20
19.434391
42
0.178657
0
VERTEX
8
1
10
30.385139
20
19.664150
42
0.181193
0
VERTEX
8
1
10
30.223373
20
19.635693
0
VERTEX
8
1
10
30.199997
20
19.610310
0
VERTEX
8
1
10
30.179695
20
19.572380
42
0.027169
0
VERTEX
8
1
10
30.072624
20
19.160374
42
-0.083438
0
VERTEX
8
1
10
29.973259
20
18.940472
42
-0.360316
0
VERTEX
8
1
10
29.759979
20
18.890984
42
-0.073961
0
VERTEX
8
1
10
29.707245
20
18.923958
42
0.229633
0
VERTEX
8
1
10
29.840332
20
19.156311
42
0.265691
0
VERTEX
8
1
10
29.759041
20
19.281155
0
VERTEX
8
1
10
29.744286
20
19.281574
42
0.231649
0
VERTEX
8
1
10
29.675323
20
19.192337
42
0.030133
0
VERTEX
8
1
10
29.607956
20
18.920921
42
-0.015342
0
VERTEX
8
1
10
29.375153
20
18.199913
42
-0.168314
0
VERTEX
8
1
10
30.394127
20
18.800495
42
-0.322773
0
VERTEX
8
1
10
31.187057
20
18.393047
0
VERTEX
8
1
10
31.207565
20
18.353592
42
-0.144631
0
VERTEX
8
1
10
31.300842
20
17.866512
42
-0.109233
0
VERTEX
8
1
10
31.170341
20
17.430683
42
-0.220194
0
VERTEX
8
1
10
30.755394
20
17.155216
42
-0.170803
0
VERTEX
8
1
10
30.415726
20
17.246296
0
VERTEX
8
1
10
30.378914
20
17.278011
42
-0.380273
0
VERTEX
8
1
10
30.360748
20
17.892048
42
-0.295490
0
VERTEX
8
1
10
30.724602
20
17.983864
0
VERTEX
8
1
10
30.746849
20
17.973721
42
-0.205353
0
VERTEX
8
1
10
30.848534
20
17.865490
0
VERTEX
8
1
10
30.852806
20
17.847633
42
-0.194012
0
VERTEX
8
1
10
30.807076
20
17.681843
0
VERTEX
8
1
10
30.794304
20
17.665073
0
VERTEX
8
1
10
30.786926
20
17.671410
0
VERTEX
8
1
10
30.781158
20
17.681522
42
0.064833
0
VERTEX
8
1
10
30.734810
20
17.821682
42
0.279063
0
VERTEX
8
1
10
30.631836
20
17.865944
42
0.371594
0
VERTEX
8
1
10
30.431496
20
17.687939
42
0.317807
0
VERTEX
8
1
10
30.563240
20
17.376991
0
VERTEX
8
1
10
30.593529
20
17.363995
42
0.407307
0
VERTEX
8
1
10
31.138733
20
17.693253
42
0.083072
0
VERTEX
8
1
10
31.168327
20
17.912842
42
0.157810
0
VERTEX
8
1
10
30.855614
20
18.532772
42
0.231275
0
VERTEX
8
1
10
30.407433
20
18.665180
42
0.130198
0
VERTEX
8
1
10
29.813057
20
18.413040
42
0.100191
0
VERTEX
8
1
10
29.260963
20
17.801296
42
-0.096831
0
VERTEX
8
1
10
29.038795
20
17.186901
42
-0.066189
0
VERTEX
8
1
10
28.495079
20
16.474384
42
0.008515
0
VERTEX
8
1
10
28.270874
20
16.231915
42
0.020853
0
VERTEX
8
1
10
28.648857
20
16.366047
0
VERTEX
8
1
10
28.681404
20
16.383251
42
2.642930
0
VERTEX
8
1
10
28.676559
20
16.383541
0
VERTEX
8
1
10
28.633324
20
16.361919
42
0.047353
0
VERTEX
8
1
10
29.191528
20
16.880493
42
0.070074
0
VERTEX
8
1
10
29.435104
20
17.327282
42
-0.031453
0
VERTEX
8
1
10
29.683922
20
17.846470
42
-0.194232
0
VERTEX
8
1
10
29.900101
20
17.999920
42
-0.643128
0
VERTEX
8
1
10
29.960030
20
17.958633
0
VERTEX
8
1
10
29.959724
20
17.939964
42
0.114791
0
VERTEX
8
1
10
29.987442
20
17.369507
42
0.161882
0
VERTEX
8
1
10
30.201225
20
17.091110
0
VERTEX
8
1
10
30.340546
20
16.999187
0
VERTEX
8
1
10
30.383446
20
16.999435
42
-0.022276
0
VERTEX
8
1
10
31.269173
20
17.173958
0
VERTEX
8
1
10
31.535881
20
17.194916
42
-0.126218
0
SEQEND
0
POLYLINE
8
1
66
1
70
1
0
VERTEX
8
1
10
27.889252
20
16.584202
42
-0.082001
0
VERTEX
8
1
10
27.930664
20
16.734226
42
0.016313
0
VERTEX
8
1
10
28.056252
20
17.095741
42
0.054222
0
VERTEX
8
1
10
28.085838
20
17.372086
42
0.082786
0
VERTEX
8
1
10
28.021187
20
18.000763
42
0.085228
0
VERTEX
8
1
10
27.950668
20
18.124802
0
VERTEX
8
1
10
27.933182
20
18.112858
42
-0.033845
0
VERTEX
8
1
10
27.859924
20
17.662033
42
-0.049010
0
VERTEX
8
1
10
27.694771
20
17.308071
42
0.151310
0
VERTEX
8
1
10
27.626816
20
16.869652
42
0.033755
0
VERTEX
8
1
10
27.729111
20
16.364277
0
VERTEX
8
1
10
27.761620
20
16.223572
0
VERTEX
8
1
10
27.869926
20
16.356651
42
-0.056838
0
SEQEND
0
POLYLINE
8
1
66
1
70
1
0
VERTEX
8
1
10
28.023079
20
16.538116
42
-0.007025
0
VERTEX
8
1
10
28.667244
20
17.258438
42
0.022219
0
VERTEX
8
1
10
28.931595
20
17.614540
0
VERTEX
8
1
10
29.040649
20
17.916489
42
0.109442
0
VERTEX
8
1
10
29.093102
20
18.678715
42
-0.029031
0
VERTEX
8
1
10
29.078156
20
19.187347
42
0.090371
0
VERTEX
8
1
10
29.009041
20
19.530544
42
0.130510
0
VERTEX
8
1
10
28.849121
20
19.721298
42
0.286079
0
VERTEX
8
1
10
28.657242
20
19.713520
0
VERTEX
8
1
10
28.616959
20
19.684147
42
0.123836
0
VERTEX
8
1
10
28.404221
20
19.341480
0
VERTEX
8
1
10
28.393867
20
19.293045
42
0.189429
0
VERTEX
8
1
10
28.580032
20
19.129135
42
-0.067269
0
VERTEX
8
1
10
28.717773
20
19.034309
42
-0.253416
0
VERTEX
8
1
10
28.732193
20
18.944122
42
-0.461967
0
VERTEX
8
1
10
28.406372
20
18.762970
42
-0.154001
0
VERTEX
8
1
10
28.231834
20
18.883038
42
-0.365205
0
VERTEX
8
1
10
28.215027
20
19.777096
0
VERTEX
8
1
10
28.191780
20
19.782650
42
0.132252
0
VERTEX
8
1
10
27.584709
20
19.378246
42
0.077157
0
VERTEX
8
1
10
27.429626
20
19.114529
0
VERTEX
8
1
10
27.403358
20
19.121723
42
-0.210276
0
VERTEX
8
1
10
27.386963
20
19.343895
42
-0.129977
0
VERTEX
8
1
10
27.639511
20
19.797047
42
-0.147765
0
VERTEX
8
1
10
28.064606
20
19.981621
0
VERTEX
8
1
10
28.350990
20
20.008152
0
VERTEX
8
1
10
27.962341
20
20.393311
42
-0.171832
0
VERTEX
8
1
10
27.642487
20
21.052826
0
VERTEX
8
1
10
27.592751
20
21.680523
42
0.260966
0
VERTEX
8
1
10
27.021965
20
22.507179
42
-0.092395
0
VERTEX
8
1
10
26.881111
20
22.619171
0
VERTEX
8
1
10
26.889206
20
22.650021
42
-0.226633
0
VERTEX
8
1
10
27.082817
20
22.765171
42
-0.029332
0
VERTEX
8
1
10
27.403008
20
22.765247
0
VERTEX
8
1
10
27.439461
20
22.767471
0
VERTEX
8
1
10
27.452942
20
22.789444
0
VERTEX
8
1
10
27.460762
20
22.819321
42
-0.063933
0
VERTEX
8
1
10
27.652473
20
23.170700
42
-0.027973
0
VERTEX
8
1
10
27.972435
20
23.649101
42
-0.096733
0
VERTEX
8
1
10
28.112617
20
23.822151
42
-0.213036
0
VERTEX
8
1
10
28.318581
20
23.845184
42
-0.122647
0
VERTEX
8
1
10
28.735931
20
23.642246
42
0.031065
0
VERTEX
8
1
10
29.000816
20
23.451420
42
0.214231
0
VERTEX
8
1
10
29.159683
20
23.451290
0
VERTEX
8
1
10
29.187386
20
23.461033
42
-0.055488
0
VERTEX
8
1
10
29.764359
20
23.636196
42
-0.073220
0
VERTEX
8
1
10
30.065704
20
23.679214
42
-0.268749
0
VERTEX
8
1
10
30.222969
20
23.569992
42
-0.072229
0
VERTEX
8
1
10
30.304283
20
23.352089
42
-0.017176
0
VERTEX
8
1
10
30.396820
20
22.966969
0
VERTEX
8
1
10
30.420082
20
22.892002
42
-0.191206
0
VERTEX
8
1
10
30.901573
20
22.715023
42
-0.059167
0
VERTEX
8
1
10
31.221886
20
22.385593
0
VERTEX
8
1
10
31.280800
20
22.313770
42
-0.157891
0
VERTEX
8
1
10
31.279533
20
22.508793
42
0.265194
0
VERTEX
8
1
10
31.237877
20
22.659184
42
0.036352
0
VERTEX
8
1
10
31.013077
20
22.837337
42
-0.242148
0
VERTEX
8
1
10
30.996384
20
22.905331
0
VERTEX
8
1
10
30.995796
20
22.989517
42
0.080411
0
VERTEX
8
1
10
30.828438
20
23.086609
42
-0.163783
0
VERTEX
8
1
10
30.632568
20
23.286480
42
-0.100827
0
VERTEX
8
1
10
30.432129
20
24.043461
0
VERTEX
8
1
10
30.433052
20
24.107613
42
-0.113601
0
VERTEX
8
1
10
30.195587
20
24.021820
42
0.025205
0
VERTEX
8
1
10
29.730362
20
23.877865
42
-0.027490
0
VERTEX
8
1
10
29.133987
20
23.721760
42
-0.255453
0
VERTEX
8
1
10
28.880997
20
23.759365
42
0.053278
0
VERTEX
8
1
10
28.801422
20
23.796539
0
VERTEX
8
1
10
28.795921
20
23.819489
42
-0.057764
0
VERTEX
8
1
10
28.604866
20
23.993370
0
VERTEX
8
1
10
28.525978
20
24.058544
0
VERTEX
8
1
10
28.521721
20
24.078541
42
-0.067636
0
VERTEX
8
1
10
28.413864
20
24.102482
0
VERTEX
8
1
10
28.408562
20
24.143787
42
-0.117069
0
VERTEX
8
1
10
28.307251
20
24.174007
42
0.211597
0
VERTEX
8
1
10
28.135101
20
24.136185
42
0.072381
0
VERTEX
8
1
10
27.930397
20
23.945091
42
0.070719
0
VERTEX
8
1
10
27.499306
20
23.378700
42
-0.049795
0
VERTEX
8
1
10
27.235344
20
23.004971
42
-0.067500
0
VERTEX
8
1
10
26.994720
20
22.871151
42
-0.091657
0
VERTEX
8
1
10
26.910889
20
22.862919
0
VERTEX
8
1
10
26.898254
20
22.867970
0
VERTEX
8
1
10
26.873482
20
22.841248
42
0.258442
0
VERTEX
8
1
10
26.819580
20
22.846069
42
0.235751
0
VERTEX
8
1
10
26.641998
20
22.694576
0
VERTEX
8
1
10
26.638947
20
22.681664
42
0.227957
0
VERTEX
8
1
10
26.800156
20
22.307312
42
-0.047161
0
VERTEX
8
1
10
27.145988
20
21.940586
42
-0.110920
0
VERTEX
8
1
10
27.253517
20
21.681076
42
-0.131143
0
VERTEX
8
1
10
27.231049
20
21.562225
0
VERTEX
8
1
10
27.228661
20
21.507355
0
VERTEX
8
1
10
27.350052
20
20.972252
42
0.102610
0
VERTEX
8
1
10
27.636932
20
20.371849
42
-0.055481
0
VERTEX
8
1
10
27.707077
20
20.239330
42
-0.248122
0
VERTEX
8
1
10
27.682076
20
20.154224
42
-0.054336
0
VERTEX
8
1
10
27.577988
20
20.053593
42
0.050666
0
VERTEX
8
1
10
27.224190
20
19.659580
42
0.070122
0
VERTEX
8
1
10
27.163765
20
19.436764
42
0.099404
0
VERTEX
8
1
10
27.148796
20
18.938187
42
-0.049492
0
VERTEX
8
1
10
27.191406
20
18.276566
42
-0.173464
0
VERTEX
8
1
10
26.956985
20
17.742710
0
VERTEX
8
1
10
26.951561
20
17.729446
0
VERTEX
8
1
10
27.056236
20
17.544262
42
-0.066518
0
VERTEX
8
1
10
27.095924
20
17.296497
42
0.082031
0
VERTEX
8
1
10
27.326813
20
16.732395
0
VERTEX
8
1
10
27.561310
20
16.308899
42
10.777437
0
VERTEX
8
1
10
27.557846
20
16.319946
42
-0.108887
0
VERTEX
8
1
10
27.400703
20
16.834732
42
-0.118027
0
VERTEX
8
1
10
27.458183
20
17.500946
42
-0.016664
0
VERTEX
8
1
10
27.671867
20
17.949577
42
0.165009
0
VERTEX
8
1
10
27.735451
20
18.671509
42
-0.016073
0
VERTEX
8
1
10
27.650909
20
19.074493
0
VERTEX
8
1
10
27.660240
20
19.086658
42
-0.127600
0
VERTEX
8
1
10
27.922104
20
18.737873
0
VERTEX
8
1
10
27.928513
20
18.713573
42
-0.160692
0
VERTEX
8
1
10
28.154617
20
18.464901
42
-0.079348
0
VERTEX
8
1
10
28.279976
20
17.989826
42
-0.078902
0
VERTEX
8
1
10
28.256775
20
17.323502
42
-0.063185
0
VERTEX
8
1
10
28.026466
20
16.715378
0
SEQEND
0
POLYLINE
8
1
66
1
70
1
0
VERTEX
8
1
10
27.155281
20
23.786026
0
VERTEX
8
1
10
27.189438
20
23.364201
0
VERTEX
8
1
10
27.195641
20
23.153973
0
VERTEX
8
1
10
27.206078
20
23.161808
0
VERTEX
8
1
10
27.217926
20
23.175285
42
0.025611
0
VERTEX
8
1
10
27.607941
20
23.765766
42
-0.198784
0
VERTEX
8
1
10
27.689575
20
23.879986
0
VERTEX
8
1
10
27.810448
20
24.041164
42
0.201161
0
VERTEX
8
1
10
27.598770
20
24.217411
42
0.193764
0
VERTEX
8
1
10
27.303368
20
24.226814
42
0.108409
0
VERTEX
8
1
10
27.252251
20
24.184898
0
VERTEX
8
1
10
27.221283
20
24.091942
0
VERTEX
8
1
10
27.191635
20
24.045872
42
0.115244
0
SEQEND
0
POLYLINE
8
1
66
1
70
1
0
VERTEX
8
1
10
27.778023
20
25.000092
42
0.188723
0
VERTEX
8
1
10
27.549042
20
25.569511
42
0.171690
0
VERTEX
8
1
10
27.368492
20
25.646698
42
0.189391
0
VERTEX
8
1
10
27.187859
20
25.555832
0
VERTEX
8
1
10
27.125786
20
25.524796
42
0.416692
0
VERTEX
8
1
10
27.098618
20
25.545208
42
0.211949
0
VERTEX
8
1
10
27.089478
20
25.512230
42
0.092837
0
VERTEX
8
1
10
27.116104
20
24.690346
42
0.144849
0
VERTEX
8
1
10
27.271652
20
24.426865
42
0.343816
0
VERTEX
8
1
10
27.534531
20
24.430416
42
0.229609
0
VERTEX
8
1
10
27.777496
20
24.910557
0
SEQEND
0
POLYLINE
8
1
66
1
70
1
0
VERTEX
8
1
10
28.762329
20
25.626476
0
VERTEX
8
1
10
28.717957
20
25.493191
42
0.109547
0
VERTEX
8
1
10
28.851234
20
24.840054
42
0.190743
0
VERTEX
8
1
10
29.088112
20
24.645180
42
-0.042073
0
VERTEX
8
1
10
29.598831
20
24.419060
42
0.021357
0
VERTEX
8
1
10
30.101295
20
24.212254
42
0.078566
0
VERTEX
8
1
10
30.266533
20
24.192440
0
VERTEX
8
1
10
30.299385
20
24.249298
42
0.225752
0
VERTEX
8
1
10
30.266251
20
24.753315
42
0.150096
0
VERTEX
8
1
10
29.838608
20
25.202236
42
0.056927
0
VERTEX
8
1
10
29.072380
20
25.580822
42
0.070921
0
VERTEX
8
1
10
28.763046
20
25.628620
0
VERTEX
8
1
10
28.780693
20
25.683403
42
0.122126
0
VERTEX
8
1
10
28.729591
20
25.625332
0
SEQEND
0
POLYLINE
8
1
66
1
70
1
0
VERTEX
8
1
10
29.668289
20
26.912308
42
-0.023183
0
VERTEX
8
1
10
29.927155
20
26.722565
42
0.016811
0
VERTEX
8
1
10
30.198105
20
26.432266
42
0.138498
0
VERTEX
8
1
10
30.357681
20
26.357327
0
VERTEX
8
1
10
30.371277
20
26.393669
42
0.027435
0
VERTEX
8
1
10
30.411385
20
26.863205
0
VERTEX
8
1
10
30.409073
20
26.922054
0
VERTEX
8
1
10
30.403435
20
26.980171
42
0.219840
0
VERTEX
8
1
10
30.166679
20
27.396130
42
0.209689
0
VERTEX
8
1
10
29.971603
20
27.413441
42
0.086493
0
VERTEX
8
1
10
29.684189
20
27.294682
42
-0.076356
0
VERTEX
8
1
10
29.530853
20
27.240780
0
VERTEX
8
1
10
29.517601
20
27.242775
0
VERTEX
8
1
10
29.513725
20
27.243629
0
VERTEX
8
1
10
29.481979
20
27.116859
42
0.137286
0
SEQEND
0
POLYLINE
8
1
66
1
70
1
0
VERTEX
8
1
10
29.264931
20
24.207920
42
0.102486
0
VERTEX
8
1
10
29.000015
20
24.171700
0
VERTEX
8
1
10
28.972549
20
24.110790
0
VERTEX
8
1
10
28.972549
20
23.915401
42
0.200141
0
VERTEX
8
1
10
29.236191
20
23.880650
42
0.076295
0
VERTEX
8
1
10
29.433640
20
23.919449
42
0.007091
0
VERTEX
8
1
10
29.858185
20
24.076359
42
0.072549
0
SEQEND
0
POLYLINE
8
1
66
1
70
1
0
VERTEX
8
1
10
30.491112
20
20.501408
42
-0.081892
0
VERTEX
8
1
10
30.481705
20
20.309212
0
VERTEX
8
1
10
30.482765
20
20.290020
42
0.172234
0
VERTEX
8
1
10
30.552437
20
20.352169
42
0.153837
0
VERTEX
8
1
10
30.698547
20
20.784485
42
0.044011
0
VERTEX
8
1
10
30.640396
20
21.777225
0
VERTEX
8
1
10
30.629585
20
21.819744
0
VERTEX
8
1
10
30.616554
20
21.857822
42
0.375754
0
VERTEX
8
1
10
30.377136
20
22.005077
42
0.151469
0
VERTEX
8
1
10
29.991348
20
21.854698
0
VERTEX
8
1
10
29.671638
20
21.630138
42
-0.123067
0
VERTEX
8
1
10
29.571869
20
21.589420
42
0.071162
0
VERTEX
8
1
10
29.589882
20
21.621506
42
0.346219
0
VERTEX
8
1
10
29.569939
20
21.587521
0
VERTEX
8
1
10
29.518562
20
21.503929
42
0.207352
0
VERTEX
8
1
10
29.472694
20
21.349609
0
VERTEX
8
1
10
29.475929
20
21.294254
42
0.055469
0
VERTEX
8
1
10
29.620720
20
20.765816
42
0.019725
0
VERTEX
8
1
10
29.787865
20
20.282280
42
0.085752
0
VERTEX
8
1
10
29.947868
20
20.042183
0
VERTEX
8
1
10
29.983139
20
20.056686
42
0.152344
0
VERTEX
8
1
10
30.127808
20
20.369392
42
0.027711
0
VERTEX
8
1
10
30.172531
20
20.895660
42
-0.036434
0
VERTEX
8
1
10
30.171852
20
21.321507
42
-0.040349
0
VERTEX
8
1
10
30.193123
20
21.409973
0
VERTEX
8
1
10
30.214195
20
21.414120
42
-0.148907
0
VERTEX
8
1
10
30.351379
20
21.147655
0
VERTEX
8
1
10
30.361160
20
21.107689
42
0.019074
0
VERTEX
8
1
10
30.472336
20
20.619755
0
SEQEND
0
POLYLINE
8
1
66
1
70
1
0
VERTEX
8
1
10
27.666534
20
22.047291
42
0.106118
0
VERTEX
8
1
10
27.665962
20
21.997543
42
0.007485
0
VERTEX
8
1
10
27.746872
20
21.627506
42
0.025152
0
VERTEX
8
1
10
27.807709
20
21.104065
42
0.139207
0
VERTEX
8
1
10
28.191704
20
20.377953
42
0.083598
0
VERTEX
8
1
10
28.445442
20
20.204388
0
VERTEX
8
1
10
28.469688
20
20.206650
42
-0.101372
0
VERTEX
8
1
10
28.366676
20
20.865482
42
0.093717
0
VERTEX
8
1
10
28.356873
20
21.155899
0
VERTEX
8
1
10
28.346893
20
21.182400
42
-0.026555
0
VERTEX
8
1
10
28.064339
20
21.720600
42
0.093187
0
VERTEX
8
1
10
27.816742
20
21.988098
42
0.003343
0
VERTEX
8
1
10
27.646172
20
22.126690
0
SEQEND
0
POLYLINE
8
1
66
1
70
1
0
VERTEX
8
1
10
28.298141
20
21.552200
42
0.072841
0
VERTEX
8
1
10
28.553101
20
21.271023
0
VERTEX
8
1
10
28.581871
20
21.293610
0
VERTEX
8
1
10
28.598785
20
21.333893
42
0.120647
0
VERTEX
8
1
10
28.581528
20
21.569389
42
0.085683
0
VERTEX
8
1
10
28.319046
20
22.121101
0
VERTEX
8
1
10
28.294106
20
22.148952
42
0.068080
0
VERTEX
8
1
10
27.908989
20
22.382130
42
0.073690
0
VERTEX
8
1
10
27.644745
20
22.477760
42
-0.076033
0
VERTEX
8
1
10
27.423180
20
22.564796
42
-0.096452
0
VERTEX
8
1
10
27.401566
20
22.591557
0
VERTEX
8
1
10
27.401848
20
22.561176
42
0.095074
0
VERTEX
8
1
10
27.330994
20
22.566463
0
VERTEX
8
1
10
27.328293
20
22.560997
0
VERTEX
8
1
10
27.335373
20
22.541534
42
0.126966
0
VERTEX
8
1
10
27.504776
20
22.398975
42
-0.079679
0
VERTEX
8
1
10
27.787010
20
22.193405
42
-0.078290
0
VERTEX
8
1
10
28.175636
20
21.735226
0
SEQEND
0
POLYLINE
8
1
66
1
70
1
0
VERTEX
8
1
10
29.928345
20
23.120060
0
VERTEX
8
1
10
29.961487
20
22.998623
0
VERTEX
8
1
10
29.945442
20
22.968876
0
VERTEX
8
1
10
29.952393
20
22.962280
0
VERTEX
8
1
10
29.970528
20
22.953991
42
0.125801
0
VERTEX
8
1
10
30.130814
20
22.967419
0
VERTEX
8
1
10
30.172791
20
22.972633
0
VERTEX
8
1
10
30.176132
20
23.007442
42
0.076961
0
VERTEX
8
1
10
30.060410
20
23.510944
0
VERTEX
8
1
10
30.038498
20
23.556572
0
VERTEX
8
1
10
30.013161
20
23.564079
42
0.130722
0
VERTEX
8
1
10
29.824585
20
23.528385
42
-0.029273
0
VERTEX
8
1
10
29.559258
20
23.469181
42
0.074990
0
VERTEX
8
1
10
29.478455
20
23.431484
0
VERTEX
8
1
10
29.432381
20
23.347679
42
-0.044393
0
VERTEX
8
1
10
29.415833
20
23.339527
42
-0.075037
0
VERTEX
8
1
10
29.766968
20
23.305019
42
-0.248013
0
SEQEND
0
POLYLINE
8
1
66
1
70
1
0
VERTEX
8
1
10
29.332695
20
23.191086
42
-0.039166
0
VERTEX
8
1
10
29.197159
20
23.178329
42
0.048523
0
VERTEX
8
1
10
28.527725
20
23.066887
42
0.088692
0
VERTEX
8
1
10
28.242088
20
22.920055
0
VERTEX
8
1
10
28.194267
20
22.873848
0
VERTEX
8
1
10
28.158936
20
22.826508
42
0.337260
0
VERTEX
8
1
10
28.176720
20
22.553894
0
VERTEX
8
1
10
28.212524
20
22.516243
42
0.190801
0
VERTEX
8
1
10
28.631233
20
22.394886
42
-0.034754
0
VERTEX
8
1
10
28.781059
20
22.383373
42
0.045335
0
VERTEX
8
1
10
28.951439
20
22.333519
42
0.195801
0
VERTEX
8
1
10
29.017754
20
22.360565
42
0.179860
0
VERTEX
8
1
10
29.197922
20
22.671249
42
0.265330
0
VERTEX
8
1
10
29.159515
20
22.747784
0
VERTEX
8
1
10
29.143692
20
22.739346
42
-0.011711
0
VERTEX
8
1
10
28.867989
20
22.634769
42
-0.266348
0
VERTEX
8
1
10
28.814224
20
22.609417
42
-0.102209
0
VERTEX
8
1
10
28.454453
20
22.597191
42
-0.122890
0
VERTEX
8
1
10
28.369614
20
22.643703
0
VERTEX
8
1
10
28.370880
20
22.666538
42
-0.154381
0
VERTEX
8
1
10
28.570816
20
22.764465
42
-0.013129
0
VERTEX
8
1
10
28.965157
20
22.816814
42
-0.049913
0
VERTEX
8
1
10
29.347832
20
22.878948
42
-0.134029
0
VERTEX
8
1
10
29.479843
20
22.840321
0
VERTEX
8
1
10
29.494652
20
22.822029
42
0.059233
0
VERTEX
8
1
10
29.352646
20
22.599113
42
0.072353
0
VERTEX
8
1
10
29.210464
20
22.313187
0
VERTEX
8
1
10
29.218781
20
22.301750
42
0.111210
0
VERTEX
8
1
10
29.405960
20
22.231663
0
VERTEX
8
1
10
29.454041
20
22.218052
0
VERTEX
8
1
10
29.462692
20
22.234814
0
VERTEX
8
1
10
29.471786
20
22.263329
0
VERTEX
8
1
10
29.484955
20
22.292538
42
-0.171678
0
VERTEX
8
1
10
29.889809
20
22.629738
42
-0.045169
0
VERTEX
8
1
10
30.234474
20
22.675274
0
VERTEX
8
1
10
30.327377
20
22.689762
0
VERTEX
8
1
10
30.334518
20
22.707863
0
VERTEX
8
1
10
30.296494
20
22.742252
42
0.250083
0
VERTEX
8
1
10
30.059280
20
22.796181
42
-0.060745
0
VERTEX
8
1
10
29.849472
20
22.763313
0
VERTEX
8
1
10
29.809723
20
22.766991
0
VERTEX
8
1
10
29.777122
20
22.778114
42
0.218536
0
VERTEX
8
1
10
29.797394
20
23.108173
42
0.325275
0
VERTEX
8
1
10
29.584732
20
23.225296
42
0.033267
0
SEQEND
0
POLYLINE
8
1
66
1
70
1
0
VERTEX
8
1
10
28.864967
20
23.230717
42
0.130579
0
VERTEX
8
1
10
28.780304
20
23.349579
42
0.102753
0
VERTEX
8
1
10
28.388115
20
23.602482
42
0.330958
0
VERTEX
8
1
10
28.034760
20
23.502155
42
0.063465
0
VERTEX
8
1
10
27.810707
20
23.091244
42
-0.057980
0
VERTEX
8
1
10
27.643211
20
22.823105
0
VERTEX
8
1
10
27.609009
20
22.788433
42
0.055656
0
VERTEX
8
1
10
27.901077
20
22.563549
42
-0.363257
0
VERTEX
8
1
10
28.584114
20
23.278797
42
-0.074003
0
VERTEX
8
1
10
28.814331
20
23.275402
0
SEQEND
0
POLYLINE
8
1
66
1
70
1
0
VERTEX
8
1
10
30.819016
20
22.169739
42
-0.135362
0
VERTEX
8
1
10
31.256363
20
22.101830
0
VERTEX
8
1
10
31.289536
20
22.105042
42
0.129032
0
VERTEX
8
1
10
31.197556
20
22.267235
42
0.132052
0
VERTEX
8
1
10
30.802773
20
22.525909
42
0.106297
0
VERTEX
8
1
10
30.405907
20
22.527637
42
0.117592
0
VERTEX
8
1
10
29.869919
20
22.331799
42
0.045298
0
VERTEX
8
1
10
29.586990
20
22.143795
42
0.062284
0
VERTEX
8
1
10
29.437233
20
21.939957
42
-0.093353
0
VERTEX
8
1
10
29.375343
20
21.880974
42
-0.528396
0
VERTEX
8
1
10
29.364265
20
21.905041
42
0.114464
0
VERTEX
8
1
10
29.360313
20
21.919136
42
0.358474
0
VERTEX
8
1
10
29.364479
20
21.884983
0
VERTEX
8
1
10
29.398903
20
21.689045
42
0.173989
0
VERTEX
8
1
10
29.383926
20
21.655666
0
VERTEX
8
1
10
29.411324
20
21.630470
0
VERTEX
8
1
10
29.400726
20
21.690971
42
-0.116648
0
VERTEX
8
1
10
29.550964
20
21.780312
0
VERTEX
8
1
10
29.773544
20
21.923531
42
-0.068426
0
VERTEX
8
1
10
30.357727
20
22.093983
42
-0.020453
0
SEQEND
0
POLYLINE
8
1
66
1
70
1
0
VERTEX
8
1
10
32.335182
20
22.965370
0
VERTEX
8
1
10
32.343544
20
22.919659
42
-0.049226
0
VERTEX
8
1
10
32.081703
20
22.954445
42
0.208408
0
VERTEX
8
1
10
31.902695
20
22.896812
0
VERTEX
8
1
10
31.870041
20
22.868176
42
0.102054
0
VERTEX
8
1
10
31.604424
20
22.438541
42
0.035640
0
VERTEX
8
1
10
31.504158
20
22.186356
42
0.235199
0
VERTEX
8
1
10
31.548111
20
22.018692
0
VERTEX
8
1
10
31.565460
20
21.993580
42
-0.134398
0
VERTEX
8
1
10
31.759544
20
21.544052
0
VERTEX
8
1
10
31.778442
20
21.401791
0
VERTEX
8
1
10
31.783020
20
21.389332
42
0.133418
0
VERTEX
8
1
10
31.867889
20
21.387653
0
VERTEX
8
1
10
31.838356
20
21.417187
42
0.301931
0
VERTEX
8
1
10
32.076950
20
21.737209
42
0.187662
0
VERTEX
8
1
10
31.954918
20
22.173290
42
-0.072467
0
VERTEX
8
1
10
31.895721
20
22.320282
42
-0.549168
0
VERTEX
8
1
10
32.026123
20
22.390110
42
0.065468
0
VERTEX
8
1
10
32.177231
20
22.342140
42
0.174622
0
VERTEX
8
1
10
32.247215
20
22.364174
0
VERTEX
8
1
10
32.457428
20
22.564552
42
-0.146651
0
VERTEX
8
1
10
32.972702
20
22.765911
42
-0.084695
0
VERTEX
8
1
10
33.542770
20
22.737053
0
VERTEX
8
1
10
33.585548
20
22.732662
42
0.210745
0
VERTEX
8
1
10
33.520599
20
22.999046
42
0.168700
0
VERTEX
8
1
10
33.178192
20
23.258198
0
VERTEX
8
1
10
33.139984
20
23.264439
42
0.078354
0
VERTEX
8
1
10
32.659111
20
23.217316
42
-0.041930
0
VERTEX
8
1
10
32.289009
20
23.163834
42
0.066324
0
SEQEND
0
POLYLINE
8
1
66
1
70
1
0
VERTEX
8
1
10
34.103043
20
22.175373
42
-0.117354
0
VERTEX
8
1
10
34.156525
20
22.184563
0
VERTEX
8
1
10
34.035385
20
22.245098
42
0.228092
0
VERTEX
8
1
10
33.992050
20
22.308449
0
VERTEX
8
1
10
33.968674
20
22.324257
42
0.116287
0
VERTEX
8
1
10
33.549744
20
22.433880
0
VERTEX
8
1
10
33.530655
20
22.431362
42
0.161536
0
VERTEX
8
1
10
33.571518
20
22.229309
42
0.055298
0
VERTEX
8
1
10
33.832901
20
21.867329
42
-0.035937
0
VERTEX
8
1
10
34.108429
20
21.487221
42
-0.146655
0
VERTEX
8
1
10
34.160820
20
21.217003
0
VERTEX
8
1
10
34.138474
20
21.200962
42
-0.148308
0
VERTEX
8
1
10
33.931267
20
21.325130
42
-0.011979
0
VERTEX
8
1
10
33.656281
20
21.638458
42
0.044274
0
VERTEX
8
1
10
33.563103
20
21.718788
0
VERTEX
8
1
10
33.569473
20
21.673809
42
-0.168215
0
VERTEX
8
1
10
33.542961
20
21.224979
42
-0.257046
0
VERTEX
8
1
10
33.191811
20
20.971016
42
-0.063875
0
VERTEX
8
1
10
33.019577
20
20.965034
42
-0.081302
0
VERTEX
8
1
10
33.138901
20
20.658245
0
VERTEX
8
1
10
33.049622
20
20.635525
42
-0.090529
0
VERTEX
8
1
10
32.757927
20
20.788368
42
0.029977
0
VERTEX
8
1
10
32.329544
20
21.072975
42
0.114310
0
VERTEX
8
1
10
32.072281
20
21.136646
0
VERTEX
8
1
10
32.016197
20
21.129250
0
VERTEX
8
1
10
31.999176
20
21.106693
42
0.128019
0
VERTEX
8
1
10
32.067230
20
20.897758
0
VERTEX
8
1
10
32.090012
20
20.857174
42
0.012606
0
VERTEX
8
1
10
32.463364
20
20.312683
42
-0.054853
0
VERTEX
8
1
10
32.644264
20
19.961254
0
VERTEX
8
1
10
32.673378
20
19.861656
42
0.095373
0
VERTEX
8
1
10
32.821915
20
19.934963
0
VERTEX
8
1
10
32.847359
20
19.924202
0
VERTEX
8
1
10
32.890930
20
19.893890
0
VERTEX
8
1
10
32.933800
20
19.860569
42
-0.115671
0
VERTEX
8
1
10
33.464180
20
19.109135
0
VERTEX
8
1
10
33.492607
20
19.114902
42
-0.013127
0
VERTEX
8
1
10
33.771271
20
19.272865
42
0.368617
0
VERTEX
8
1
10
33.838478
20
19.504967
42
0.099557
0
VERTEX
8
1
10
33.730103
20
19.700916
42
-0.040951
0
VERTEX
8
1
10
33.493065
20
20.060219
42
-0.124606
0
VERTEX
8
1
10
33.461517
20
20.241478
0
VERTEX
8
1
10
33.475876
20
20.265308
0
VERTEX
8
1
10
33.509209
20
20.255611
42
-0.100307
0
VERTEX
8
1
10
33.798409
20
20.040943
42
-0.014244
0
VERTEX
8
1
10
34.086029
20
19.724632
0
VERTEX
8
1
10
34.109406
20
19.714447
42
0.089856
0
VERTEX
8
1
10
34.330116
20
19.855801
42
-0.086532
0
VERTEX
8
1
10
34.469780
20
19.924828
0
VERTEX
8
1
10
34.484688
20
19.948502
42
0.169785
0
VERTEX
8
1
10
34.466774
20
20.146038
0
VERTEX
8
1
10
34.319885
20
20.459053
0
VERTEX
8
1
10
34.294006
20
20.553532
42
-0.160294
0
VERTEX
8
1
10
34.474449
20
20.423260
0
VERTEX
8
1
10
34.493645
20
20.399647
0
VERTEX
8
1
10
34.528191
20
20.350544
42
0.081192
0
VERTEX
8
1
10
34.820267
20
20.046490
42
0.322725
0
VERTEX
8
1
10
34.992218
20
20.038322
42
-0.082900
0
VERTEX
8
1
10
35.171928
20
20.116779
0
VERTEX
8
1
10
35.189301
20
20.142838
42
0.163177
0
VERTEX
8
1
10
35.177856
20
20.329952
0
VERTEX
8
1
10
35.157539
20
20.386620
42
0.048637
0
VERTEX
8
1
10
34.844315
20
20.926762
42
-0.032104
0
VERTEX
8
1
10
34.667168
20
21.225296
42
0.013899
0
SEQEND
0
POLYLINE
8
1
66
1
70
1
0
VERTEX
8
1
10
31.508331
20
20.613487
42
-0.140636
0
VERTEX
8
1
10
31.436234
20
20.272266
42
0.061786
0
VERTEX
8
1
10
31.342972
20
20.013687
0
VERTEX
8
1
10
31.340698
20
19.982433
0
VERTEX
8
1
10
31.352608
20
19.974911
42
-0.118759
0
VERTEX
8
1
10
32.024857
20
19.856617
42
0.060366
0
VERTEX
8
1
10
32.292198
20
19.798744
0
VERTEX
8
1
10
32.312546
20
19.826389
42
0.133143
0
VERTEX
8
1
10
32.189339
20
20.250835
42
0.029969
0
VERTEX
8
1
10
31.854660
20
20.751312
42
0.166169
0
VERTEX
8
1
10
31.396202
20
21.019527
42
-0.098561
0
VERTEX
8
1
10
31.455879
20
20.841022
42
-0.030281
0
SEQEND
0
POLYLINE
8
1
66
1
70
1
0
VERTEX
8
1
10
31.718330
20
18.635803
42
-0.035244
0
VERTEX
8
1
10
31.817894
20
18.494652
0
VERTEX
8
1
10
31.852013
20
18.489021
42
-0.073570
0
VERTEX
8
1
10
32.434769
20
18.554779
42
-0.080852
0
VERTEX
8
1
10
32.678635
20
18.493954
0
VERTEX
8
1
10
32.719231
20
18.514046
42
0.127024
0
VERTEX
8
1
10
33.220955
20
18.474709
0
VERTEX
8
1
10
33.265564
20
18.493416
42
0.200552
0
VERTEX
8
1
10
33.220215
20
18.759327
42
0.038640
0
VERTEX
8
1
10
33.002602
20
19.053288
42
0.030157
0
VERTEX
8
1
10
32.789268
20
19.344311
42
0.130760
0
VERTEX
8
1
10
32.513474
20
19.506268
42
0.091217
0
VERTEX
8
1
10
31.478561
20
19.709164
0
VERTEX
8
1
10
31.444382
20
19.705128
42
-0.128040
0
VERTEX
8
1
10
31.556297
20
19.336117
42
-0.032503
0
VERTEX
8
1
10
31.563805
20
18.980015
42
0.172369
0
VERTEX
8
1
10
31.665306
20
18.705418
0
SEQEND
0
POLYLINE
8
1
66
1
70
1
0
VERTEX
8
1
10
34.700272
20
24.275196
42
0.064886
0
VERTEX
8
1
10
34.122841
20
24.044781
42
0.076296
0
VERTEX
8
1
10
33.716881
20
23.695099
42
-0.120135
0
VERTEX
8
1
10
33.417099
20
23.501675
42
-0.037689
0
VERTEX
8
1
10
33.335999
20
23.486000
0
VERTEX
8
1
10
33.505280
20
23.346916
42
0.013963
0
VERTEX
8
1
10
33.621216
20
23.125122
42
0.177315
0
VERTEX
8
1
10
33.854721
20
22.965485
42
-0.076661
0
VERTEX
8
1
10
34.162643
20
22.829098
42
-0.082941
0
VERTEX
8
1
10
34.309753
20
22.661255
42
0.153765
0
VERTEX
8
1
10
34.415749
20
22.593983
0
VERTEX
8
1
10
34.483276
20
22.588833
0
VERTEX
8
1
10
34.532921
20
22.596363
42
0.341145
0
VERTEX
8
1
10
34.594437
20
22.678967
0
VERTEX
8
1
10
34.592445
20
22.721157
42
0.053937
0
VERTEX
8
1
10
34.483795
20
23.015789
0
VERTEX
8
1
10
34.468178
20
23.056828
42
-0.371910
0
VERTEX
8
1
10
34.533958
20
23.248283
42
-0.124773
0
VERTEX
8
1
10
34.766602
20
23.339256
42
-0.037113
0
VERTEX
8
1
10
34.999199
20
23.363773
0
VERTEX
8
1
10
35.016800
20
23.375778
42
-0.225445
0
VERTEX
8
1
10
35.080322
20
23.588806
0
VERTEX
8
1
10
35.075233
20
23.602043
42
-0.154981
0
VERTEX
8
1
10
35.015427
20
23.744595
42
-0.174908
0
VERTEX
8
1
10
35.037880
20
23.793663
42
-0.167105
0
VERTEX
8
1
10
35.193222
20
23.678253
42
0.074608
0
VERTEX
8
1
10
35.244011
20
23.638168
0
VERTEX
8
1
10
35.313095
20
23.630272
42
0.174876
0
VERTEX
8
1
10
35.122826
20
24.065220
42
-0.035858
0
VERTEX
8
1
10
34.965569
20
24.264694
42
0.177683
0
SEQEND
0
POLYLINE
8
1
66
1
70
1
0
VERTEX
8
1
10
32.776108
20
26.299713
42
0.062910
0
VERTEX
8
1
10
32.837708
20
26.089211
42
-0.044050
0
VERTEX
8
1
10
33.097290
20
25.303646
0
VERTEX
8
1
10
33.107727
20
25.272015
42
0.231632
0
VERTEX
8
1
10
33.397926
20
24.948658
42
0.070657
0
VERTEX
8
1
10
33.796165
20
24.798389
42
0.213285
0
VERTEX
8
1
10
34.130875
20
24.887348
42
0.193006
0
VERTEX
8
1
10
34.236076
20
25.145279
42
0.156536
0
VERTEX
8
1
10
34.081200
20
25.798512
42
0.034588
0
VERTEX
8
1
10
33.618347
20
26.448204
0
VERTEX
8
1
10
33.559151
20
26.448208
42
0.285686
0
VERTEX
8
1
10
33.274712
20
26.664948
42
0.226731
0
VERTEX
8
1
10
32.841164
20
26.535683
42
0.240685
0
SEQEND
0
POLYLINE
8
1
66
1
70
1
0
VERTEX
8
1
10
32.734146
20
25.123917
0
VERTEX
8
1
10
32.652817
20
25.164185
0
VERTEX
8
1
10
32.662903
20
25.186649
42
-0.043316
0
VERTEX
8
1
10
32.316002
20
25.264408
42
-0.014952
0
VERTEX
8
1
10
31.524292
20
25.517426
42
0.133163
0
VERTEX
8
1
10
31.551682
20
25.464348
42
0.084853
0
VERTEX
8
1
10
31.807503
20
25.268639
0
VERTEX
8
1
10
31.901947
20
25.142704
42
-0.088176
0
VERTEX
8
1
10
32.696236
20
24.324310
42
0.164384
0
VERTEX
8
1
10
33.144409
20
24.026321
42
0.042619
0
VERTEX
8
1
10
33.421303
20
23.938568
42
0.460601
0
VERTEX
8
1
10
33.524887
20
24.068668
42
0.097075
0
VERTEX
8
1
10
33.329872
20
24.612316
42
0.145229
0
SEQEND
0
POLYLINE
8
1
66
1
70
1
0
VERTEX
8
1
10
31.691895
20
25.763233
42
0.009050
0
VERTEX
8
1
10
32.473686
20
25.518929
42
-0.028143
0
VERTEX
8
1
10
32.693779
20
25.431007
0
VERTEX
8
1
10
32.710724
20
25.448547
42
0.136491
0
VERTEX
8
1
10
32.480225
20
26.055435
42
0.058469
0
VERTEX
8
1
10
32.113739
20
26.472973
42
0.055697
0
VERTEX
8
1
10
31.470192
20
26.988235
42
0.102086
0
VERTEX
8
1
10
31.176903
20
27.090218
42
0.065075
0
VERTEX
8
1
10
31.105492
20
27.084370
0
VERTEX
8
1
10
30.978798
20
26.894352
42
-0.035304
0
VERTEX
8
1
10
31.086700
20
26.336731
42
0.051129
0
VERTEX
8
1
10
31.174522
20
26.027725
42
0.078194
0
SEQEND
0
POLYLINE
8
1
66
1
70
1
0
VERTEX
8
1
10
30.883430
20
27.656940
0
VERTEX
8
1
10
30.914818
20
27.562836
42
-0.162880
0
VERTEX
8
1
10
31.131416
20
27.476376
42
0.037512
0
VERTEX
8
1
10
31.399193
20
27.284714
42
-0.012907
0
VERTEX
8
1
10
31.743538
20
27.106243
0
VERTEX
8
1
10
31.775978
20
27.083088
0
VERTEX
8
1
10
32.112457
20
26.800419
42
0.110510
0
VERTEX
8
1
10
32.343964
20
26.679024
0
VERTEX
8
1
10
32.380211
20
26.674995
0
VERTEX
8
1
10
32.407951
20
26.695541
42
0.103872
0
VERTEX
8
1
10
32.291351
20
27.287243
42
0.109144
0
VERTEX
8
1
10
31.567459
20
28.386189
42
0.063173
0
VERTEX
8
1
10
31.353134
20
28.534382
0
VERTEX
8
1
10
31.317657
20
28.547894
42
0.458362
0
VERTEX
8
1
10
31.106628
20
28.445427
42
0.040568
0
VERTEX
8
1
10
31.062103
20
28.125526
0
VERTEX
8
1
10
31.058487
20
28.103756
42
-0.044639
0
SEQEND
0
POLYLINE
8
1
66
1
70
1
0
VERTEX
8
1
10
31.081078
20
25.456936
42
0.086412
0
VERTEX
8
1
10
30.814819
20
25.556870
0
VERTEX
8
1
10
30.816032
20
25.529160
42
-0.072655
0
VERTEX
8
1
10
30.954117
20
25.061779
0
VERTEX
8
1
10
30.963760
20
25.013760
0
VERTEX
8
1
10
30.973793
20
24.966084
42
0.147397
0
VERTEX
8
1
10
31.252678
20
24.414719
42
0.114317
0
VERTEX
8
1
10
31.863525
20
23.941105
42
0.003210
0
VERTEX
8
1
10
32.151978
20
23.797813
42
0.344166
0
VERTEX
8
1
10
32.282043
20
23.841820
42
0.229819
0
VERTEX
8
1
10
32.350098
20
24.086979
42
0.036942
0
VERTEX
8
1
10
32.310669
20
24.293488
0
VERTEX
8
1
10
32.284096
20
24.346661
42
-1.207792
0
VERTEX
8
1
10
32.266197
20
24.340801
0
VERTEX
8
1
10
32.258995
20
24.348595
42
0.048426
0
VERTEX
8
1
10
31.917229
20
24.764263
42
-0.014292
0
VERTEX
8
1
10
31.439415
20
25.194492
42
0.049553
0
SEQEND
0
POLYLINE
8
1
66
1
70
1
0
VERTEX
8
1
10
29.450340
20
28.104103
42
0.050631
0
VERTEX
8
1
10
29.759315
20
27.749355
42
0.124934
0
VERTEX
8
1
10
29.926331
20
27.677086
42
0.073461
0
VERTEX
8
1
10
30.093567
20
27.717556
42
-0.290344
0
VERTEX
8
1
10
30.287910
20
27.664982
0
VERTEX
8
1
10
30.396057
20
27.571632
0
VERTEX
8
1
10
30.415016
20
27.578098
42
0.094328
0
VERTEX
8
1
10
30.730583
20
28.187553
42
0.129405
0
VERTEX
8
1
10
30.728500
20
28.444252
42
0.236669
0
VERTEX
8
1
10
30.543121
20
28.622448
42
0.225428
0
VERTEX
8
1
10
30.049667
20
28.591259
42
0.057495
0
VERTEX
8
1
10
29.853783
20
28.461723
42
0.020986
0
VERTEX
8
1
10
29.542381
20
28.197811
0
SEQEND
0
POLYLINE
8
1
66
1
70
1
0
VERTEX
8
1
10
28.749893
20
26.758194
42
0.054428
0
VERTEX
8
1
10
28.419785
20
26.762436
0
VERTEX
8
1
10
28.403679
20
26.757153
42
-0.100064
0
VERTEX
8
1
10
28.369461
20
26.664680
0
VERTEX
8
1
10
28.369049
20
26.664780
0
VERTEX
8
1
10
28.463081
20
26.480053
0
VERTEX
8
1
10
28.454597
20
26.414604
42
0.262827
0
VERTEX
8
1
10
28.644783
20
25.945381
0
VERTEX
8
1
10
28.690010
20
25.909973
42
0.093032
0
VERTEX
8
1
10
29.314896
20
25.648224
42
-0.053638
0
VERTEX
8
1
10
29.626221
20
25.517097
42
0.127033
0
VERTEX
8
1
10
29.759125
20
25.501068
42
0.275445
0
VERTEX
8
1
10
29.826859
20
25.587921
42
0.146678
0
VERTEX
8
1
10
29.811745
20
25.777721
0
VERTEX
8
1
10
29.791504
20
25.832447
0
VERTEX
8
1
10
29.766167
20
25.888874
42
0.067092
0
VERTEX
8
1
10
29.330833
20
26.490406
42
0.166339
0
SEQEND
0
POLYLINE
8
1
66
1
70
1
0
VERTEX
8
1
10
27.683746
20
27.585987
42
0.134750
0
VERTEX
8
1
10
28.114006
20
27.184479
42
0.068605
0
VERTEX
8
1
10
28.275642
20
27.132290
42
0.030011
0
VERTEX
8
1
10
28.672485
20
27.069736
42
-0.091284
0
VERTEX
8
1
10
28.914215
20
26.986214
42
0.055900
0
VERTEX
8
1
10
29.222603
20
26.864750
42
0.204714
0
VERTEX
8
1
10
29.286697
20
26.880295
0
VERTEX
8
1
10
29.295998
20
26.897533
0
VERTEX
8
1
10
29.301758
20
26.934898
42
0.162332
0
VERTEX
8
1
10
29.218765
20
27.107857
42
0.057713
0
VERTEX
8
1
10
28.989403
20
27.321033
42
0.019602
0
VERTEX
8
1
10
28.529877
20
27.655735
42
0.021635
0
VERTEX
8
1
10
27.962234
20
28.101711
42
0.058322
0
VERTEX
8
1
10
27.656677
20
28.257042
0
VERTEX
8
1
10
27.600906
20
28.227604
0
VERTEX
8
1
10
27.539703
20
28.135792
0
VERTEX
8
1
10
27.533516
20
28.076260
42
0.150440
0
SEQEND
0
POLYLINE
8
1
66
1
70
1
0
VERTEX
8
1
10
27.284859
20
27.028980
42
0.246959
0
VERTEX
8
1
10
27.161331
20
27.059540
0
VERTEX
8
1
10
27.136971
20
27.042980
42
0.115849
0
VERTEX
8
1
10
27.093597
20
26.943214
0
VERTEX
8
1
10
27.092331
20
26.987114
0
VERTEX
8
1
10
27.030228
20
26.893978
42
0.213476
0
VERTEX
8
1
10
26.948242
20
26.785461
0
VERTEX
8
1
10
26.937775
20
26.744774
0
VERTEX
8
1
10
26.930679
20
26.700333
42
0.098447
0
VERTEX
8
1
10
26.994644
20
26.175053
42
0.187568
0
VERTEX
8
1
10
27.269516
20
25.874561
42
0.358176
0
VERTEX
8
1
10
27.503632
20
25.957394
42
0.130656
0
VERTEX
8
1
10
27.579582
20
26.180637
42
0.096149
0
VERTEX
8
1
10
27.530861
20
26.728310
42
0.115758
0
SEQEND
0
POLYLINE
8
1
66
1
70
1
0
VERTEX
8
1
10
26.523697
20
27.459358
42
0.241985
0
VERTEX
8
1
10
26.784309
20
27.149448
42
0.303734
0
VERTEX
8
1
10
27.055145
20
27.228920
42
0.162982
0
VERTEX
8
1
10
27.183685
20
27.498379
42
0.122843
0
VERTEX
8
1
10
27.089447
20
28.322330
42
0.207497
0
VERTEX
8
1
10
26.889122
20
28.498997
42
0.181416
0
VERTEX
8
1
10
26.754242
20
28.467007
0
VERTEX
8
1
10
26.646248
20
28.418587
42
0.109264
0
VERTEX
8
1
10
26.497597
20
27.930687
42
0.085376
0
SEQEND
0
POLYLINE
8
1
66
1
70
1
0
VERTEX
8
1
10
26.076591
20
27.620689
42
0.142390
0
VERTEX
8
1
10
26.164703
20
27.364594
42
0.167913
0
VERTEX
8
1
10
26.260338
20
27.314095
0
VERTEX
8
1
10
26.293655
20
27.326160
42
0.001826
0
VERTEX
8
1
10
26.319130
20
27.865166
42
-0.073874
0
VERTEX
8
1
10
26.424294
20
28.301975
42
0.071635
0
VERTEX
8
1
10
26.488922
20
28.645252
0
VERTEX
8
1
10
26.425552
20
28.581867
42
0.100843
0
VERTEX
8
1
10
26.242989
20
28.557789
42
0.242888
0
VERTEX
8
1
10
26.086014
20
28.300751
42
0.029708
0
VERTEX
8
1
10
26.073097
20
27.956787
42
0.033396
0
SEQEND
0
POLYLINE
8
1
66
1
70
1
0
VERTEX
8
1
10
26.315506
20
26.062904
42
0.215549
0
VERTEX
8
1
10
26.466354
20
25.923176
42
0.166516
0
VERTEX
8
1
10
26.607262
20
25.942791
0
VERTEX
8
1
10
26.664902
20
25.972389
0
VERTEX
8
1
10
26.662117
20
25.995018
42
-0.141421
0
VERTEX
8
1
10
26.470413
20
26.496899
42
-0.074542
0
VERTEX
8
1
10
26.462769
20
26.895763
0
VERTEX
8
1
10
26.466537
20
26.909580
0
VERTEX
8
1
10
26.471596
20
26.922974
0
VERTEX
8
1
10
26.457199
20
26.894203
42
0.328078
0
VERTEX
8
1
10
26.314461
20
26.968380
42
0.296380
0
VERTEX
8
1
10
26.127411
20
26.838421
42
0.121596
0
VERTEX
8
1
10
26.128845
20
26.700680
42
0.043456
0
VERTEX
8
1
10
26.201447
20
26.417099
42
0.045537
0
SEQEND
0
POLYLINE
8
1
66
1
70
1
0
VERTEX
8
1
10
26.489853
20
24.653408
42
0.251408
0
VERTEX
8
1
10
26.726334
20
24.596794
0
VERTEX
8
1
10
26.897202
20
24.614540
42
0.069404
0
VERTEX
8
1
10
26.775894
20
24.871548
42
-0.142946
0
VERTEX
8
1
10
26.699692
20
25.164181
42
-0.041335
0
VERTEX
8
1
10
26.741898
20
25.621197
0
VERTEX
8
1
10
26.679977
20
25.652161
42
-0.394862
0
VERTEX
8
1
10
26.588814
20
25.568039
42
0.060894
0
VERTEX
8
1
10
26.396553
20
25.553848
42
0.271741
0
VERTEX
8
1
10
26.278351
20
25.407715
42
0.157247
0
VERTEX
8
1
10
26.317444
20
24.879066
42
0.112725
0
SEQEND
0
POLYLINE
8
1
66
1
70
1
0
VERTEX
8
1
10
26.591141
20
23.079403
42
0.218672
0
VERTEX
8
1
10
26.778419
20
23.002846
0
VERTEX
8
1
10
26.854965
20
23.013287
42
0.453457
0
VERTEX
8
1
10
26.951332
20
23.152275
42
0.079506
0
VERTEX
8
1
10
26.892426
20
23.340443
42
-0.098023
0
VERTEX
8
1
10
26.832100
20
23.591511
42
-0.064659
0
VERTEX
8
1
10
26.843262
20
24.246700
42
-0.022574
0
VERTEX
8
1
10
26.869370
20
24.346664
0
VERTEX
8
1
10
26.839264
20
24.346668
0
VERTEX
8
1
10
26.822151
20
24.357456
42
0.205198
0
VERTEX
8
1
10
26.603233
20
24.353909
0
VERTEX
8
1
10
26.445251
20
24.284309
0
VERTEX
8
1
10
26.426674
20
24.255344
42
0.056228
0
VERTEX
8
1
10
26.349861
20
23.739712
42
0.144804
0
VERTEX
8
1
10
26.536606
20
23.140388
0
SEQEND
0
POLYLINE
8
1
66
1
70
1
0
VERTEX
8
1
10
26.547852
20
21.751755
42
0.312977
0
VERTEX
8
1
10
26.812798
20
21.550716
42
0.067562
0
VERTEX
8
1
10
26.993599
20
21.551575
0
VERTEX
8
1
10
26.993553
20
21.567017
42
0.032497
0
VERTEX
8
1
10
26.905991
20
21.986198
0
VERTEX
8
1
10
26.666985
20
22.169197
42
-0.051766
0
VERTEX
8
1
10
26.532898
20
22.313148
0
VERTEX
8
1
10
26.491447
20
22.336140
42
0.095770
0
SEQEND
0
POLYLINE
8
1
66
1
70
1
0
VERTEX
8
1
10
26.610840
20
20.677509
42
-0.077860
0
VERTEX
8
1
10
26.680809
20
20.021622
42
0.083229
0
VERTEX
8
1
10
26.738670
20
19.711243
42
0.328831
0
VERTEX
8
1
10
26.918167
20
19.611401
42
0.116937
0
VERTEX
8
1
10
27.066963
20
19.660110
0
VERTEX
8
1
10
27.090912
20
19.700020
42
0.099640
0
VERTEX
8
1
10
26.965843
20
20.660465
42
-0.078326
0
VERTEX
8
1
10
26.918076
20
21.040558
42
-0.122094
0
VERTEX
8
1
10
26.964790
20
21.163857
0
VERTEX
8
1
10
26.837517
20
21.256626
0
VERTEX
8
1
10
26.826645
20
21.248901
42
-0.096652
0
VERTEX
8
1
10
26.650688
20
21.215698
42
0.092600
0
VERTEX
8
1
10
26.558182
20
21.188831
42
0.081307
0
SEQEND
0
POLYLINE
8
1
66
1
70
1
0
VERTEX
8
1
10
26.935555
20
18.024879
42
0.089793
0
VERTEX
8
1
10
26.999458
20
18.372227
0
VERTEX
8
1
10
27.001778
20
18.441845
0
VERTEX
8
1
10
26.985909
20
19.187843
0
VERTEX
8
1
10
26.993134
20
19.311527
42
-0.115376
0
VERTEX
8
1
10
26.817032
20
19.247639
0
VERTEX
8
1
10
26.797302
20
19.211456
0
VERTEX
8
1
10
26.778175
20
19.157051
42
0.090481
0
VERTEX
8
1
10
26.748878
20
18.675610
42
-0.016451
0
VERTEX
8
1
10
26.780540
20
18.157124
42
0.036393
0
VERTEX
8
1
10
26.815971
20
17.903881
42
0.199772
0
SEQEND
0
POLYLINE
8
1
66
1
70
1
0
VERTEX
8
1
10
27.306793
20
15.972607
42
0.133171
0
VERTEX
8
1
10
27.411934
20
15.826618
42
0.250010
0
VERTEX
8
1
10
27.490814
20
15.835712
42
0.097294
0
VERTEX
8
1
10
27.187286
20
16.597885
42
-0.078379
0
VERTEX
8
1
10
26.938416
20
17.164356
0
VERTEX
8
1
10
26.910759
20
17.145439
42
0.233137
0
VERTEX
8
1
10
26.895439
20
16.833698
42
0.074800
0
VERTEX
8
1
10
27.074631
20
16.497025
42
-0.066886
0
VERTEX
8
1
10
27.207535
20
16.212463
0
SEQEND
0
POLYLINE
8
1
66
1
70
1
0
VERTEX
8
1
10
26.696152
20
14.582935
42
0.112938
0
VERTEX
8
1
10
26.595810
20
14.462006
0
VERTEX
8
1
10
26.589790
20
14.434399
0
VERTEX
8
1
10
26.611122
20
14.418961
42
0.089416
0
VERTEX
8
1
10
26.981956
20
14.483559
42
-0.022512
0
VERTEX
8
1
10
27.842674
20
14.710144
42
0.088889
0
VERTEX
8
1
10
27.998161
20
14.788498
42
0.094291
0
VERTEX
8
1
10
27.856201
20
15.026352
42
-0.040742
0
VERTEX
8
1
10
27.673965
20
15.215683
42
0.095790
0
VERTEX
8
1
10
27.556526
20
15.291397
0
VERTEX
8
1
10
27.540794
20
15.327030
42
0.102395
0
VERTEX
8
1
10
27.299530
20
15.112370
42
-0.035053
0
VERTEX
8
1
10
26.923393
20
14.753380
42
0.019408
0
SEQEND
0
POLYLINE
8
1
66
1
70
1
0
VERTEX
8
1
10
28.041222
20
13.948719
0
VERTEX
8
1
10
28.041389
20
14.174351
0
VERTEX
8
1
10
28.031204
20
14.175850
42
0.075961
0
VERTEX
8
1
10
27.717316
20
14.073055
42
0.261348
0
VERTEX
8
1
10
27.650208
20
13.951942
42
0.048011
0
VERTEX
8
1
10
27.682594
20
13.399136
42
-0.003066
0
VERTEX
8
1
10
27.717812
20
12.934799
42
0.074446
0
VERTEX
8
1
10
27.792885
20
12.674496
0
VERTEX
8
1
10
27.822914
20
12.627155
0
VERTEX
8
1
10
27.842361
20
12.610920
42
0.159655
0
VERTEX
8
1
10
28.147293
20
12.724644
0
VERTEX
8
1
10
28.228661
20
12.780167
42
-0.075853
0
VERTEX
8
1
10
28.288925
20
12.938324
42
-0.068941
0
VERTEX
8
1
10
28.160004
20
13.228378
42
-0.086155
0
VERTEX
8
1
10
28.045303
20
13.822048
0
SEQEND
0
POLYLINE
8
1
66
1
70
1
0
VERTEX
8
1
10
25.736877
20
12.633446
42
0.033165
0
VERTEX
8
1
10
26.037880
20
12.623806
42
0.135902
0
VERTEX
8
1
10
26.208382
20
12.734501
42
0.007659
0
VERTEX
8
1
10
26.378441
20
12.894199
42
-0.105235
0
VERTEX
8
1
10
26.723473
20
13.041489
42
-0.093375
0
VERTEX
8
1
10
27.022598
20
13.016045
42
0.022350
0
VERTEX
8
1
10
27.227852
20
12.975281
42
-0.160066
0
VERTEX
8
1
10
27.280678
20
12.935013
0
VERTEX
8
1
10
27.324181
20
12.914654
0
VERTEX
8
1
10
27.327507
20
12.916622
42
0.012540
0
VERTEX
8
1
10
27.229477
20
13.474277
42
-0.101248
0
VERTEX
8
1
10
27.256866
20
13.952847
42
0.078503
0
VERTEX
8
1
10
27.254921
20
14.050518
42
0.246554
0
VERTEX
8
1
10
27.168442
20
14.127674
42
0.121430
0
VERTEX
8
1
10
26.721413
20
14.124508
0
VERTEX
8
1
10
26.546280
20
14.142021
42
-0.065237
0
VERTEX
8
1
10
26.321152
20
13.886856
42
-0.029231
0
VERTEX
8
1
10
26.079002
20
13.745316
42
0.194820
0
VERTEX
8
1
10
25.975929
20
13.591202
42
-0.042567
0
SEQEND
0
POLYLINE
8
1
66
1
0
VERTEX
8
1
10
27.310791
20
12.832970
0
VERTEX
8
1
10
27.331352
20
12.821548
0
VERTEX
8
1
10
27.310791
20
12.832970
0
SEQEND
0
POLYLINE
8
1
66
1
70
1
0
VERTEX
8
1
10
25.976898
20
12.486042
0
VERTEX
8
1
10
25.937248
20
12.496124
42
0.297025
0
VERTEX
8
1
10
26.127892
20
12.525921
42
-0.115356
0
SEQEND
0
POLYLINE
8
1
66
1
70
1
0
VERTEX
8
1
10
25.537750
20
12.102348
42
-0.157876
0
VERTEX
8
1
10
26.231773
20
11.912895
0
VERTEX
8
1
10
26.262199
20
11.953583
42
-0.036816
0
VERTEX
8
1
10
26.464577
20
12.287167
42
-0.261045
0
VERTEX
8
1
10
26.781815
20
12.414032
0
VERTEX
8
1
10
26.836952
20
12.407547
42
-0.051897
0
VERTEX
8
1
10
27.529510
20
12.194893
42
-0.096284
0
VERTEX
8
1
10
27.727966
20
12.043083
42
-0.198012
0
VERTEX
8
1
10
27.770782
20
11.876175
0
VERTEX
8
1
10
27.755730
20
11.635643
42
0.365111
0
VERTEX
8
1
10
27.892242
20
11.339783
42
0.086223
0
VERTEX
8
1
10
28.079842
20
11.271591
0
VERTEX
8
1
10
28.157883
20
11.258133
0
VERTEX
8
1
10
28.237526
20
11.242340
42
-0.542512
0
VERTEX
8
1
10
28.516602
20
10.049835
42
-0.087255
0
VERTEX
8
1
10
27.764313
20
9.428978
42
-0.110890
0
VERTEX
8
1
10
27.620934
20
8.904427
42
-0.038133
0
VERTEX
8
1
10
27.477966
20
8.664406
42
-0.063727
0
VERTEX
8
1
10
28.160652
20
9.058800
42
0.022611
0
VERTEX
8
1
10
28.998535
20
9.744606
42
0.057203
0
VERTEX
8
1
10
29.263321
20
10.124077
42
0.117067
0
VERTEX
8
1
10
29.505554
20
10.858925
42
-0.034621
0
VERTEX
8
1
10
29.604630
20
11.446709
42
0.106898
0
VERTEX
8
1
10
29.593483
20
11.818947
42
0.129737
0
VERTEX
8
1
10
29.472000
20
12.010017
42
0.276123
0
VERTEX
8
1
10
29.289833
20
12.028351
0
VERTEX
8
1
10
29.252045
20
12.010727
42
0.127687
0
VERTEX
8
1
10
28.959579
20
11.695572
0
VERTEX
8
1
10
28.955757
20
11.662239
42
0.170609
0
VERTEX
8
1
10
29.121536
20
11.458191
42
-0.082319
0
VERTEX
8
1
10
29.219887
20
11.347855
42
-0.243911
0
VERTEX
8
1
10
29.211098
20
11.258186
42
-0.453996
0
VERTEX
8
1
10
28.859322
20
11.151070
42
-0.163990
0
VERTEX
8
1
10
28.703613
20
11.317032
42
-0.355375
0
VERTEX
8
1
10
28.871193
20
12.178886
0
VERTEX
8
1
10
28.875557
20
12.196877
42
0.129313
0
VERTEX
8
1
10
28.195168
20
11.935371
42
0.076640
0
VERTEX
8
1
10
27.985748
20
11.714790
0
VERTEX
8
1
10
27.957077
20
11.689514
0
VERTEX
8
1
10
27.944160
20
11.722740
42
-0.183058
0
VERTEX
8
1
10
27.988861
20
11.955185
42
-0.124445
0
VERTEX
8
1
10
28.330002
20
12.327785
42
-0.144758
0
VERTEX
8
1
10
28.786209
20
12.414013
0
VERTEX
8
1
10
29.023727
20
12.387161
0
VERTEX
8
1
10
29.055573
20
12.386688
42
-0.011578
0
VERTEX
8
1
10
28.712952
20
12.912128
42
-0.160825
0
VERTEX
8
1
10
28.580696
20
13.586346
42
-0.004659
0
VERTEX
8
1
10
28.658577
20
14.184029
42
0.260477
0
VERTEX
8
1
10
28.258209
20
15.109356
42
-0.098453
0
VERTEX
8
1
10
28.151825
20
15.241692
0
VERTEX
8
1
10
28.166565
20
15.266361
42
-0.242646
0
VERTEX
8
1
10
28.405037
20
15.338310
42
-0.020522
0
VERTEX
8
1
10
28.698029
20
15.274185
0
VERTEX
8
1
10
28.728050
20
15.269840
0
VERTEX
8
1
10
28.745102
20
15.282211
0
VERTEX
8
1
10
28.755760
20
15.305084
42
-0.070567
0
VERTEX
8
1
10
29.006599
20
15.605934
42
-0.027308
0
VERTEX
8
1
10
29.433731
20
16.025326
0
VERTEX
8
1
10
29.433975
20
16.033043
42
0.011693
0
VERTEX
8
1
10
28.972214
20
15.907017
0
VERTEX
8
1
10
28.948311
20
15.896423
42
0.023576
0
VERTEX
8
1
10
28.681023
20
15.581722
0
VERTEX
8
1
10
28.667068
20
15.572872
42
0.089069
0
VERTEX
8
1
10
28.452461
20
15.620438
42
-0.053332
0
VERTEX
8
1
10
28.325912
20
15.650555
0
VERTEX
8
1
10
28.294037
20
15.640305
42
0.011399
0
VERTEX
8
1
10
27.747429
20
15.418243
0
VERTEX
8
1
10
27.724182
20
15.403839
0
VERTEX
8
1
10
27.786552
20
15.324818
42
-0.132279
0
VERTEX
8
1
10
28.011803
20
15.115788
42
-0.169719
0
VERTEX
8
1
10
28.211166
20
14.758827
42
-0.055621
0
VERTEX
8
1
10
28.247559
20
14.214005
42
0.077872
0
VERTEX
8
1
10
28.403198
20
13.133366
0
VERTEX
8
1
10
28.482094
20
12.857922
0
VERTEX
8
1
10
28.485085
20
12.817196
42
-0.046971
0
VERTEX
8
1
10
27.949417
20
12.393322
42
-0.208583
0
VERTEX
8
1
10
27.823059
20
12.387470
42
-0.070495
0
VERTEX
8
1
10
27.497574
20
12.601414
42
0.034636
0
VERTEX
8
1
10
27.189651
20
12.831173
42
0.160849
0
VERTEX
8
1
10
26.789452
20
12.906586
42
0.120107
0
VERTEX
8
1
10
26.471382
20
12.750309
42
0.058614
0
VERTEX
8
1
10
26.200798
20
12.488914
42
-0.379150
0
VERTEX
8
1
10
25.840408
20
12.472878
42
0.074123
0
VERTEX
8
1
10
25.675949
20
12.541672
0
VERTEX
8
1
10
25.634865
20
12.541927
42
-0.067532
0
SEQEND
0
POLYLINE
8
1
66
1
70
1
0
VERTEX
8
1
10
31.238441
20
15.105469
0
VERTEX
8
1
10
31.246048
20
14.979820
0
VERTEX
8
1
10
31.224243
20
14.953991
0
VERTEX
8
1
10
31.229691
20
14.946114
0
VERTEX
8
1
10
31.245750
20
14.934288
42
0.125727
0
VERTEX
8
1
10
31.405403
20
14.914627
0
VERTEX
8
1
10
31.447571
20
14.911144
0
VERTEX
8
1
10
31.457954
20
14.944534
42
0.076942
0
VERTEX
8
1
10
31.447678
20
15.461067
0
VERTEX
8
1
10
31.435570
20
15.510208
0
VERTEX
8
1
10
31.412300
20
15.522739
42
0.130711
0
VERTEX
8
1
10
31.220436
20
15.526390
42
-0.029270
0
VERTEX
8
1
10
30.948593
20
15.522732
42
0.075018
0
VERTEX
8
1
10
30.861801
20
15.502350
0
VERTEX
8
1
10
30.799538
20
15.429745
42
-0.046699
0
VERTEX
8
1
10
30.781693
20
15.425152
42
-0.075125
0
VERTEX
8
1
10
31.118324
20
15.319530
42
-0.248043
0
SEQEND
0
POLYLINE
8
1
66
1
70
1
0
VERTEX
8
1
10
30.669930
20
15.296871
42
-0.039265
0
VERTEX
8
1
10
30.534668
20
15.312115
42
0.048525
0
VERTEX
8
1
10
29.856583
20
15.340012
42
0.088658
0
VERTEX
8
1
10
29.546936
20
15.254730
0
VERTEX
8
1
10
29.490669
20
15.219288
0
VERTEX
8
1
10
29.446404
20
15.180176
42
0.337184
0
VERTEX
8
1
10
29.408012
20
14.909695
0
VERTEX
8
1
10
29.435364
20
14.865520
42
0.190786
0
VERTEX
8
1
10
29.820396
20
14.661049
42
-0.034761
0
VERTEX
8
1
10
29.964691
20
14.619122
42
0.045306
0
VERTEX
8
1
10
30.121239
20
14.535469
42
0.195353
0
VERTEX
8
1
10
30.191689
20
14.548382
42
0.179880
0
VERTEX
8
1
10
30.431641
20
14.815617
42
0.265434
0
VERTEX
8
1
10
30.409706
20
14.898388
0
VERTEX
8
1
10
30.392494
20
14.893364
42
-0.011738
0
VERTEX
8
1
10
30.101273
20
14.847404
42
-0.265482
0
VERTEX
8
1
10
30.043419
20
14.833595
42
-0.102201
0
VERTEX
8
1
10
29.688751
20
14.895241
42
-0.122753
0
VERTEX
8
1
10
29.615211
20
14.958130
0
VERTEX
8
1
10
29.621132
20
14.980221
42
-0.154387
0
VERTEX
8
1
10
29.836891
20
15.035168
42
-0.013098
0
VERTEX
8
1
10
30.233597
20
15.005726
42
-0.049935
0
VERTEX
8
1
10
30.620888
20
14.988243
42
-0.133994
0
VERTEX
8
1
10
30.742180
20
14.923420
0
VERTEX
8
1
10
30.752930
20
14.902481
42
0.059242
0
VERTEX
8
1
10
30.568344
20
14.713341
42
0.072436
0
VERTEX
8
1
10
30.370636
20
14.462563
0
VERTEX
8
1
10
30.376450
20
14.449669
42
0.111172
0
VERTEX
8
1
10
30.545296
20
14.342766
0
VERTEX
8
1
10
30.589561
20
14.319611
0
VERTEX
8
1
10
30.601456
20
14.334244
0
VERTEX
8
1
10
30.616203
20
14.360294
0
VERTEX
8
1
10
30.635078
20
14.386189
42
-0.171651
0
VERTEX
8
1
10
31.100403
20
14.633404
42
-0.045181
0
VERTEX
8
1
10
31.447075
20
14.607456
0
VERTEX
8
1
10
31.540977
20
14.602627
0
VERTEX
8
1
10
31.551674
20
14.618881
0
VERTEX
8
1
10
31.521492
20
14.660320
42
0.250112
0
VERTEX
8
1
10
31.300339
20
14.761654
42
-0.060749
0
VERTEX
8
1
10
31.088249
20
14.772419
0
VERTEX
8
1
10
31.050087
20
14.784149
0
VERTEX
8
1
10
31.020454
20
14.801704
42
0.218566
0
VERTEX
8
1
10
31.107826
20
15.120636
42
0.325249
0
VERTEX
8
1
10
30.923622
20
15.278790
42
0.033259
0
SEQEND
0
POLYLINE
8
1
66
1
70
1
0
VERTEX
8
1
10
31.253487
20
12.427074
42
-0.081911
0
VERTEX
8
1
10
31.204941
20
12.240875
0
VERTEX
8
1
10
31.202057
20
12.221870
42
0.172205
0
VERTEX
8
1
10
31.282982
20
12.268436
42
0.153797
0
VERTEX
8
1
10
31.514473
20
12.661720
42
0.043962
0
VERTEX
8
1
10
31.660667
20
13.645351
0
VERTEX
8
1
10
31.658783
20
13.689182
0
VERTEX
8
1
10
31.653824
20
13.729122
42
0.375794
0
VERTEX
8
1
10
31.449608
20
13.922241
42
0.151443
0
VERTEX
8
1
10
31.041199
20
13.853989
0
VERTEX
8
1
10
30.682350
20
13.699612
42
-0.123118
0
VERTEX
8
1
10
30.576401
20
13.680168
42
0.071557
0
VERTEX
8
1
10
30.600510
20
13.707878
42
0.330914
0
VERTEX
8
1
10
30.573875
20
13.678707
0
VERTEX
8
1
10
30.506638
20
13.607388
42
0.207275
0
VERTEX
8
1
10
30.430168
20
13.465714
0
VERTEX
8
1
10
30.422005
20
13.410870
42
0.055482
0
VERTEX
8
1
10
30.455612
20
12.863991
42
0.019752
0
VERTEX
8
1
10
30.520287
20
12.356480
42
0.085716
0
VERTEX
8
1
10
30.627777
20
12.088722
0
VERTEX
8
1
10
30.665283
20
12.095695
42
0.152391
0
VERTEX
8
1
10
30.870872
20
12.372185
42
0.027724
0
VERTEX
8
1
10
31.022324
20
12.878174
42
-0.036438
0
VERTEX
8
1
10
31.108818
20
13.295158
42
-0.040324
0
VERTEX
8
1
10
31.147751
20
13.377392
0
VERTEX
8
1
10
31.169228
20
13.377140
42
-0.148863
0
VERTEX
8
1
10
31.248962
20
13.088242
0
VERTEX
8
1
10
31.250351
20
13.047119
42
0.019243
0
VERTEX
8
1
10
31.259323
20
12.546761
0
SEQEND
0
POLYLINE
8
1
66
1
70
1
0
VERTEX
8
1
10
31.915817
20
13.993015
42
-0.135352
0
VERTEX
8
1
10
32.330025
20
13.837055
0
VERTEX
8
1
10
32.363144
20
13.833408
42
0.128991
0
VERTEX
8
1
10
32.306290
20
14.010994
42
0.132056
0
VERTEX
8
1
10
31.972755
20
14.344982
42
0.106346
0
VERTEX
8
1
10
31.584679
20
14.427864
42
0.117623
0
VERTEX
8
1
10
31.019974
20
14.345840
42
0.045384
0
VERTEX
8
1
10
30.704552
20
14.219711
42
0.062286
0
VERTEX
8
1
10
30.516243
20
14.050831
42
-0.093267
0
VERTEX
8
1
10
30.443604
20
14.005756
42
-0.529315
0
VERTEX
8
1
10
30.437675
20
14.031574
42
0.113839
0
VERTEX
8
1
10
30.436714
20
14.046185
42
0.357965
0
VERTEX
8
1
10
30.433777
20
14.011890
0
VERTEX
8
1
10
30.427414
20
13.813068
42
0.173472
0
VERTEX
8
1
10
30.405907
20
13.783455
0
VERTEX
8
1
10
30.427567
20
13.753178
0
VERTEX
8
1
10
30.429596
20
13.814583
42
-0.116775
0
VERTEX
8
1
10
30.594925
20
13.871288
0
VERTEX
8
1
10
30.612961
20
13.875656
42
-0.000055
0
VERTEX
8
1
10
30.842094
20
13.965939
42
-0.068406
0
VERTEX
8
1
10
31.448761
20
14.013256
42
-0.020435
0
SEQEND
0
POLYLINE
8
1
66
1
70
1
0
VERTEX
8
1
10
29.269333
20
13.291096
0
VERTEX
8
1
10
29.277176
20
13.319981
42
0.192787
0
VERTEX
8
1
10
29.260544
20
13.638805
42
-0.025301
0
VERTEX
8
1
10
29.122475
20
14.133179
42
0.084974
0
VERTEX
8
1
10
28.927917
20
14.444466
0
VERTEX
8
1
10
28.801216
20
14.601482
0
VERTEX
8
1
10
28.805649
20
14.519512
42
0.113557
0
VERTEX
8
1
10
28.795357
20
14.480118
42
0.015052
0
VERTEX
8
1
10
28.798309
20
14.102509
42
0.019937
0
VERTEX
8
1
10
28.750145
20
13.582756
42
0.138817
0
VERTEX
8
1
10
28.971527
20
12.785755
42
0.098408
0
VERTEX
8
1
10
29.217751
20
12.535877
42
-0.114798
0
SEQEND
0
POLYLINE
8
1
66
1
70
1
0
VERTEX
8
1
10
29.321915
20
13.904346
42
0.072824
0
VERTEX
8
1
10
29.513977
20
13.576939
0
VERTEX
8
1
10
29.546745
20
13.593163
0
VERTEX
8
1
10
29.571541
20
13.629135
42
0.120674
0
VERTEX
8
1
10
29.602821
20
13.863186
42
0.085668
0
VERTEX
8
1
10
29.458786
20
14.456940
0
VERTEX
8
1
10
29.440094
20
14.489304
42
0.068062
0
VERTEX
8
1
10
29.110832
20
14.796345
42
0.073686
0
VERTEX
8
1
10
28.871719
20
14.944027
42
-0.076100
0
VERTEX
8
1
10
28.672699
20
15.074554
42
-0.095901
0
VERTEX
8
1
10
28.657021
20
15.105164
0
VERTEX
8
1
10
28.650986
20
15.075386
42
0.095381
0
VERTEX
8
1
10
28.582771
20
15.095039
0
VERTEX
8
1
10
28.579018
20
15.090248
0
VERTEX
8
1
10
28.581963
20
15.069748
42
0.126972
0
VERTEX
8
1
10
28.718613
20
14.895542
42
-0.079680
0
VERTEX
8
1
10
28.952812
20
14.636574
42
-0.078344
0
VERTEX
8
1
10
29.239433
20
14.108574
0
SEQEND
0
POLYLINE
8
1
66
1
70
1
0
VERTEX
8
1
10
30.220215
20
15.431374
42
0.130527
0
VERTEX
8
1
10
30.161636
20
15.565044
42
0.102768
0
VERTEX
8
1
10
29.829514
20
15.892838
42
0.330929
0
VERTEX
8
1
10
29.463097
20
15.866940
42
0.063453
0
VERTEX
8
1
10
29.159698
20
15.510567
42
-0.057991
0
VERTEX
8
1
10
28.940895
20
15.282383
0
VERTEX
8
1
10
28.900330
20
15.255444
42
0.055712
0
VERTEX
8
1
10
29.140259
20
14.975536
42
-0.363293
0
VERTEX
8
1
10
29.955116
20
15.535908
42
-0.074027
0
VERTEX
8
1
10
30.179756
20
15.485481
0
SEQEND
0
POLYLINE
8
1
66
1
70
1
0
VERTEX
8
1
10
28.987434
20
9.253777
0
VERTEX
8
1
10
28.988701
20
9.250290
42
-0.005516
0
VERTEX
8
1
10
29.521049
20
9.375664
0
VERTEX
8
1
10
29.565071
20
9.388115
42
0.117788
0
VERTEX
8
1
10
29.941055
20
9.579681
42
0.038193
0
VERTEX
8
1
10
30.165558
20
9.853668
42
-0.090688
0
VERTEX
8
1
10
30.498863
20
10.134155
0
VERTEX
8
1
10
30.661369
20
10.238480
0
VERTEX
8
1
10
30.647339
20
10.252869
42
0.128703
0
VERTEX
8
1
10
30.364731
20
10.233185
42
0.078367
0
VERTEX
8
1
10
29.687515
20
9.911003
42
0.021715
0
VERTEX
8
1
10
29.333496
20
9.574448
42
-0.070364
0
VERTEX
8
1
10
29.114548
20
9.427467
42
-0.061328
0
SEQEND
0
POLYLINE
8
1
66
1
70
1
0
VERTEX
8
1
10
25.956055
20
9.546692
42
0.069906
0
VERTEX
8
1
10
25.963943
20
9.315315
42
0.275738
0
VERTEX
8
1
10
26.075684
20
9.213760
42
0.253043
0
VERTEX
8
1
10
26.111000
20
9.238335
42
0.075481
0
VERTEX
8
1
10
26.158592
20
9.426003
42
-0.098592
0
VERTEX
8
1
10
26.347206
20
9.769806
42
0.080979
0
VERTEX
8
1
10
26.488617
20
10.053757
0
VERTEX
8
1
10
26.495964
20
10.096703
42
0.144393
0
VERTEX
8
1
10
26.319061
20
10.811691
42
0.066041
0
VERTEX
8
1
10
26.146027
20
11.017807
42
0.147001
0
VERTEX
8
1
10
25.906174
20
11.090347
42
0.590259
0
VERTEX
8
1
10
25.887604
20
11.034325
42
0.019743
0
VERTEX
8
1
10
25.912224
20
10.986206
42
-0.035839
0
VERTEX
8
1
10
25.897514
20
10.848663
0
VERTEX
8
1
10
25.896294
20
10.814758
42
0.009788
0
VERTEX
8
1
10
25.923630
20
10.374298
42
-0.095572
0
VERTEX
8
1
10
25.823387
20
9.865067
42
0.029501
0
VERTEX
8
1
10
25.641876
20
9.328949
42
0.095492
0
VERTEX
8
1
10
25.632088
20
8.878807
42
0.086472
0
VERTEX
8
1
10
25.739937
20
8.455307
42
0.111392
0
VERTEX
8
1
10
25.813530
20
8.373611
42
0.215352
0
VERTEX
8
1
10
25.886490
20
8.562965
42
0.057248
0
VERTEX
8
1
10
25.835258
20
8.863747
42
-0.203229
0
SEQEND
0
POLYLINE
8
1
66
1
70
1
0
VERTEX
8
1
10
25.741211
20
5.541183
42
0.126933
0
VERTEX
8
1
10
26.137085
20
5.745560
42
0.029204
0
VERTEX
8
1
10
26.365974
20
6.028084
42
-0.083977
0
VERTEX
8
1
10
26.716606
20
6.310463
0
VERTEX
8
1
10
26.855743
20
6.400314
0
VERTEX
8
1
10
26.819405
20
6.412155
42
0.119309
0
VERTEX
8
1
10
26.521240
20
6.380852
42
0.071885
0
VERTEX
8
1
10
25.883751
20
6.074989
42
0.034233
0
VERTEX
8
1
10
25.586670
20
5.794846
42
-0.050949
0
VERTEX
8
1
10
25.376350
20
5.621376
0
VERTEX
8
1
10
25.245796
20
5.425850
42
0.007528
0
SEQEND
0
POLYLINE
8
1
66
1
70
1
0
VERTEX
8
1
10
25.150078
20
5.292595
0
VERTEX
8
1
10
25.043900
20
5.154587
42
-0.025451
0
VERTEX
8
1
10
25.289780
20
5.281555
0
SEQEND
0
POLYLINE
8
1
66
1
70
1
0
VERTEX
8
1
10
25.831245
20
7.430573
0
VERTEX
8
1
10
25.892342
20
7.665482
0
VERTEX
8
1
10
25.838280
20
7.621384
42
-0.013573
0
VERTEX
8
1
10
25.434570
20
7.176895
0
VERTEX
8
1
10
25.396538
20
7.142487
42
-0.242218
0
VERTEX
8
1
10
25.031227
20
7.031662
0
VERTEX
8
1
10
24.960335
20
7.041138
42
-0.086146
0
VERTEX
8
1
10
25.018501
20
6.482132
42
-0.020284
0
VERTEX
8
1
10
24.946854
20
5.832428
0
VERTEX
8
1
10
25.011169
20
5.812279
0
VERTEX
8
1
10
25.014313
20
5.785095
42
0.097706
0
SEQEND
0
POLYLINE
8
1
66
1
70
1
0
VERTEX
8
1
10
26.095985
20
8.727707
42
0.043514
0
VERTEX
8
1
10
26.062035
20
8.595139
0
VERTEX
8
1
10
26.069824
20
8.576462
42
0.004303
0
VERTEX
8
1
10
26.544350
20
9.054108
42
-0.072595
0
VERTEX
8
1
10
26.983116
20
9.357506
42
-0.028257
0
VERTEX
8
1
10
27.863983
20
9.749664
42
0.083433
0
VERTEX
8
1
10
28.321159
20
10.043663
42
0.252808
0
VERTEX
8
1
10
28.520607
20
10.682411
42
0.190127
0
VERTEX
8
1
10
28.364723
20
10.889381
42
-0.062122
0
VERTEX
8
1
10
28.204536
20
11.016075
0
VERTEX
8
1
10
28.210045
20
10.910912
0
VERTEX
8
1
10
28.176689
20
10.554375
42
-0.212537
0
VERTEX
8
1
10
27.782555
20
9.993340
42
-0.060617
0
VERTEX
8
1
10
27.364700
20
9.850441
42
0.087225
0
VERTEX
8
1
10
26.674072
20
9.546883
42
0.097549
0
VERTEX
8
1
10
26.327766
20
9.172478
42
0.060616
0
SEQEND
0
POLYLINE
8
1
66
1
70
1
0
VERTEX
8
1
10
27.278755
20
11.557220
42
-0.301477
0
VERTEX
8
1
10
26.941193
20
11.656456
42
-0.099559
0
VERTEX
8
1
10
26.791222
20
11.897461
42
0.021701
0
VERTEX
8
1
10
26.689751
20
12.118851
0
VERTEX
8
1
10
26.670258
20
12.141556
42
0.095209
0
VERTEX
8
1
10
26.519516
20
11.805458
42
0.229665
0
VERTEX
8
1
10
26.590256
20
11.562981
42
0.006629
0
VERTEX
8
1
10
26.823494
20
11.312897
42
-0.113126
0
VERTEX
8
1
10
26.966965
20
11.034172
0
VERTEX
8
1
10
26.982399
20
10.978638
42
-0.009628
0
VERTEX
8
1
10
27.091553
20
10.409798
42
0.047092
0
VERTEX
8
1
10
27.164673
20
10.194016
0
VERTEX
8
1
10
27.189346
20
10.188210
42
0.072715
0
VERTEX
8
1
10
27.376785
20
10.692101
0
VERTEX
8
1
10
27.513603
20
11.275192
42
0.084922
0
VERTEX
8
1
10
27.539223
20
11.902275
0
VERTEX
8
1
10
27.591988
20
11.937416
42
0.154430
0
VERTEX
8
1
10
27.020210
20
12.101814
42
0.138912
0
VERTEX
8
1
10
26.971794
20
12.075844
0
VERTEX
8
1
10
26.968002
20
12.063484
42
0.268396
0
VERTEX
8
1
10
27.058090
20
11.957924
42
-0.078444
0
VERTEX
8
1
10
27.344589
20
11.764473
42
-0.535127
0
SEQEND
0
POLYLINE
8
1
66
1
70
1
0
VERTEX
8
1
10
27.725014
20
11.091072
42
-0.134499
0
VERTEX
8
1
10
27.753677
20
11.108002
42
0.111669
0
VERTEX
8
1
10
27.707176
20
10.981964
42
-0.038978
0
VERTEX
8
1
10
27.613388
20
10.571915
42
-0.127126
0
VERTEX
8
1
10
27.500305
20
10.421944
42
0.241776
0
VERTEX
8
1
10
27.758789
20
10.461060
42
0.157654
0
VERTEX
8
1
10
28.020767
20
10.765373
42
0.242529
0
VERTEX
8
1
10
27.955421
20
11.112511
42
0.314880
0
VERTEX
8
1
10
27.773369
20
11.146317
0
VERTEX
8
1
10
27.725609
20
11.123322
42
0.274427
0
SEQEND
0
POLYLINE
8
1
66
1
70
1
0
VERTEX
8
1
10
26.268341
20
8.569466
0
VERTEX
8
1
10
26.238205
20
8.528564
42
0.267796
0
VERTEX
8
1
10
26.182564
20
8.091675
0
VERTEX
8
1
10
26.213715
20
8.060059
42
0.022951
0
VERTEX
8
1
10
27.029541
20
8.458405
42
0.165253
0
VERTEX
8
1
10
27.331970
20
8.834740
42
0.010134
0
VERTEX
8
1
10
27.483643
20
9.289574
0
VERTEX
8
1
10
27.497551
20
9.313904
42
-0.099242
0
VERTEX
8
1
10
27.188210
20
9.217850
42
0.109877
0
VERTEX
8
1
10
26.846069
20
9.065430
42
0.039909
0
VERTEX
8
1
10
26.337189
20
8.647766
0
SEQEND
0
POLYLINE
8
1
66
1
70
1
0
VERTEX
8
1
10
25.522423
20
11.713547
42
0.169803
0
VERTEX
8
1
10
25.500481
20
11.666107
42
-0.026739
0
VERTEX
8
1
10
25.897949
20
11.320030
42
0.067042
0
VERTEX
8
1
10
26.233284
20
11.094841
42
-0.063022
0
VERTEX
8
1
10
26.460381
20
10.921715
42
-0.126900
0
VERTEX
8
1
10
26.627579
20
10.508362
42
-0.018835
0
VERTEX
8
1
10
26.686340
20
9.949432
0
VERTEX
8
1
10
26.693626
20
9.891914
0
VERTEX
8
1
10
26.702789
20
9.857582
42
0.022526
0
VERTEX
8
1
10
26.825607
20
10.291565
42
0.165453
0
VERTEX
8
1
10
26.737961
20
10.834938
42
-0.020227
0
VERTEX
8
1
10
26.491821
20
11.365776
42
0.079124
0
VERTEX
8
1
10
26.239601
20
11.732315
42
0.126763
0
VERTEX
8
1
10
26.032570
20
11.837936
42
0.110764
0
VERTEX
8
1
10
25.613815
20
11.869423
42
0.168495
0
VERTEX
8
1
10
25.501831
20
11.793884
0
SEQEND
0
POLYLINE
8
1
66
1
70
1
0
VERTEX
8
1
10
24.575874
20
11.313271
42
0.141329
0
VERTEX
8
1
10
24.551865
20
11.245644
0
VERTEX
8
1
10
24.572243
20
11.232895
42
0.188696
0
VERTEX
8
1
10
24.754295
20
11.285271
0
VERTEX
8
1
10
24.798546
20
11.318352
0
VERTEX
8
1
10
24.841805
20
11.356987
42
0.051619
0
VERTEX
8
1
10
25.145470
20
11.754959
42
0.100820
0
VERTEX
8
1
10
25.375847
20
12.277740
42
0.126403
0
VERTEX
8
1
10
25.352646
20
12.466431
0
VERTEX
8
1
10
25.335434
20
12.492264
42
-0.066544
0
VERTEX
8
1
10
25.217232
20
12.315765
0
VERTEX
8
1
10
25.200821
20
12.280174
42
-0.030384
0
VERTEX
8
1
10
24.995850
20
11.825218
42
-0.048682
0
VERTEX
8
1
10
24.881683
20
11.669846
42
-0.015831
0
VERTEX
8
1
10
24.601982
20
11.349533
0
SEQEND
0
POLYLINE
8
1
66
1
70
1
0
VERTEX
8
1
10
22.850235
20
5.358917
0
VERTEX
8
1
10
22.649673
20
5.132355
0
VERTEX
8
1
10
22.654716
20
5.130013
42
0.010411
0
VERTEX
8
1
10
22.866951
20
5.216873
0
VERTEX
8
1
10
22.882256
20
5.226669
42
0.061965
0
VERTEX
8
1
10
23.466179
20
5.822342
42
0.055597
0
VERTEX
8
1
10
23.793114
20
6.508575
42
0.103862
0
VERTEX
8
1
10
23.826431
20
6.842651
42
0.104406
0
VERTEX
8
1
10
23.784180
20
6.937149
0
VERTEX
8
1
10
23.772842
20
6.938751
42
0.293591
0
VERTEX
8
1
10
23.722031
20
6.803062
0
VERTEX
8
1
10
23.720879
20
6.798561
42
0.139459
0
VERTEX
8
1
10
23.650742
20
6.699234
42
0.010106
0
VERTEX
8
1
10
23.533607
20
6.354256
42
-0.047857
0
VERTEX
8
1
10
23.168999
20
5.723282
42
-0.023325
0
SEQEND
0
POLYLINE
8
1
66
1
70
1
0
VERTEX
8
1
10
24.190460
20
4.337982
42
0.258637
0
VERTEX
8
1
10
23.742546
20
4.953011
0
VERTEX
8
1
10
23.669739
20
4.977974
42
0.155361
0
VERTEX
8
1
10
23.322395
20
4.952171
42
0.147044
0
VERTEX
8
1
10
22.947121
20
4.673515
42
0.022961
0
VERTEX
8
1
10
22.596985
20
4.284279
42
0.086768
0
VERTEX
8
1
10
22.533913
20
4.142250
0
VERTEX
8
1
10
22.575027
20
4.101128
42
-0.142275
0
VERTEX
8
1
10
23.171051
20
4.569420
42
-0.214726
0
VERTEX
8
1
10
23.784744
20
4.513367
42
-0.119039
0
VERTEX
8
1
10
23.982407
20
4.314941
42
-0.105744
0
VERTEX
8
1
10
24.036995
20
4.058586
0
VERTEX
8
1
10
24.044380
20
3.976746
42
0.099916
0
VERTEX
8
1
10
24.099968
20
3.977417
42
0.191726
0
SEQEND
0
POLYLINE
8
1
66
1
70
1
0
VERTEX
8
1
10
24.684441
20
5.409302
0
VERTEX
8
1
10
24.694229
20
5.423882
42
-0.143259
0
VERTEX
8
1
10
24.421684
20
5.742256
42
-0.171815
0
VERTEX
8
1
10
24.291626
20
6.598679
42
0.038567
0
VERTEX
8
1
10
24.341629
20
7.086884
42
0.153206
0
VERTEX
8
1
10
24.146294
20
7.660004
42
-0.027874
0
VERTEX
8
1
10
24.013809
20
7.877594
0
VERTEX
8
1
10
24.009628
20
7.895485
42
-0.180262
0
VERTEX
8
1
10
24.336502
20
7.759148
0
VERTEX
8
1
10
24.352638
20
7.737274
0
VERTEX
8
1
10
24.375755
20
7.736839
42
-0.242692
0
VERTEX
8
1
10
24.660126
20
7.622307
42
-0.102775
0
VERTEX
8
1
10
24.916496
20
7.176811
42
-0.059432
0
VERTEX
8
1
10
25.184265
20
7.498589
42
0.021548
0
VERTEX
8
1
10
25.600990
20
7.988747
42
0.135555
0
VERTEX
8
1
10
24.942902
20
8.140129
42
0.190602
0
VERTEX
8
1
10
24.491287
20
7.911125
0
VERTEX
8
1
10
24.503304
20
7.949539
42
-0.083311
0
VERTEX
8
1
10
24.786819
20
8.380104
0
VERTEX
8
1
10
24.822868
20
8.412987
42
-0.280966
0
VERTEX
8
1
10
25.257416
20
8.497726
42
-0.053493
0
VERTEX
8
1
10
25.443207
20
8.413643
42
0.274562
0
VERTEX
8
1
10
25.461372
20
8.503822
0
VERTEX
8
1
10
25.453583
20
8.535606
42
-0.013186
0
VERTEX
8
1
10
25.304634
20
8.952980
42
-0.209247
0
VERTEX
8
1
10
25.426529
20
9.789406
42
0.136850
0
VERTEX
8
1
10
25.664322
20
10.671516
42
0.173395
0
VERTEX
8
1
10
25.308228
20
11.538620
0
VERTEX
8
1
10
25.277657
20
11.561188
42
-0.084688
0
VERTEX
8
1
10
24.965256
20
11.191391
42
0.047271
0
VERTEX
8
1
10
24.631645
20
10.803818
0
VERTEX
8
1
10
24.353416
20
10.430222
0
VERTEX
8
1
10
24.334740
20
10.394974
42
0.397374
0
VERTEX
8
1
10
24.370216
20
10.258583
42
-0.243222
0
VERTEX
8
1
10
24.582634
20
9.850876
42
-0.067159
0
VERTEX
8
1
10
24.557907
20
9.536903
42
-0.061927
0
VERTEX
8
1
10
24.363281
20
8.911682
42
0.001047
0
VERTEX
8
1
10
23.860359
20
7.881645
42
0.035998
0
VERTEX
8
1
10
23.759682
20
7.606285
0
VERTEX
8
1
10
23.754089
20
7.566727
0
VERTEX
8
1
10
23.756721
20
7.538300
0
VERTEX
8
1
10
23.768333
20
7.522018
0
VERTEX
8
1
10
23.789658
20
7.518898
0
VERTEX
8
1
10
23.821457
20
7.529999
0
VERTEX
8
1
10
23.850449
20
7.545532
42
-0.392246
0
VERTEX
8
1
10
23.980171
20
7.516006
42
-0.119045
0
VERTEX
8
1
10
24.064644
20
7.267708
42
-0.054724
0
VERTEX
8
1
10
24.083641
20
6.621933
42
-0.101672
0
VERTEX
8
1
10
23.883209
20
6.063484
42
-0.029222
0
VERTEX
8
1
10
23.640373
20
5.668800
42
-0.095001
0
VERTEX
8
1
10
23.422501
20
5.491165
42
0.037339
0
VERTEX
8
1
10
22.967484
20
5.166084
42
0.094443
0
VERTEX
8
1
10
22.584785
20
4.660728
42
0.097395
0
VERTEX
8
1
10
22.527931
20
4.416245
0
VERTEX
8
1
10
22.564522
20
4.438278
0
VERTEX
8
1
10
22.616829
20
4.489532
0
VERTEX
8
1
10
23.047623
20
4.970688
42
-0.088784
0
VERTEX
8
1
10
23.514008
20
5.342850
42
-0.175492
0
VERTEX
8
1
10
23.874802
20
5.379921
0
VERTEX
8
1
10
23.954330
20
5.348862
0
VERTEX
8
1
10
24.034065
20
5.301025
0
VERTEX
8
1
10
24.113831
20
5.235184
0
VERTEX
8
1
10
24.193550
20
5.150101
0
VERTEX
8
1
10
24.273064
20
5.044510
42
0.032692
0
SEQEND
0
POLYLINE
8
1
66
1
70
1
0
VERTEX
8
1
10
24.576714
20
6.796730
42
-0.040775
0
VERTEX
8
1
10
24.526390
20
6.362320
42
0.168946
0
VERTEX
8
1
10
24.621841
20
5.884819
42
0.023781
0
VERTEX
8
1
10
24.817535
20
5.574257
0
VERTEX
8
1
10
24.829384
20
5.563583
0
VERTEX
8
1
10
24.928940
20
5.678978
42
-0.087299
0
VERTEX
8
1
10
24.896698
20
6.072601
0
VERTEX
8
1
10
24.898758
20
6.120628
0
VERTEX
8
1
10
24.900909
20
6.168770
42
0.104024
0
VERTEX
8
1
10
24.835838
20
6.730690
42
0.088260
0
VERTEX
8
1
10
24.635857
20
7.166878
42
0.100630
0
VERTEX
8
1
10
24.546646
20
7.236038
0
VERTEX
8
1
10
24.515358
20
7.244164
42
-0.030540
0
SEQEND
0
POLYLINE
8
1
66
1
70
1
0
VERTEX
8
1
10
25.699379
20
3.435036
42
0.169413
0
VERTEX
8
1
10
25.255127
20
3.959839
0
VERTEX
8
1
10
25.198601
20
3.985672
42
0.375961
0
VERTEX
8
1
10
24.853683
20
3.882774
0
VERTEX
8
1
10
24.838440
20
3.859512
0
VERTEX
8
1
10
24.824928
20
3.835205
42
0.064129
0
VERTEX
8
1
10
24.804741
20
3.905884
0
VERTEX
8
1
10
24.825287
20
3.762291
42
-0.099660
0
VERTEX
8
1
10
25.120644
20
3.427528
42
-0.048945
0
VERTEX
8
1
10
25.309799
20
3.055412
42
-0.076552
0
VERTEX
8
1
10
25.369164
20
2.613815
0
VERTEX
8
1
10
25.379379
20
2.334770
0
VERTEX
8
1
10
25.399452
20
2.316559
42
0.243862
0
VERTEX
8
1
10
25.494408
20
2.357910
42
0.079486
0
VERTEX
8
1
10
25.570503
20
2.476997
42
0.056261
0
VERTEX
8
1
10
25.732239
20
3.048683
42
0.101318
0
SEQEND
0
POLYLINE
8
1
66
1
70
1
0
VERTEX
8
1
10
26.160889
20
4.448975
42
-0.582972
0
VERTEX
8
1
10
26.627686
20
4.181046
42
-0.241600
0
VERTEX
8
1
10
26.524246
20
4.023796
0
VERTEX
8
1
10
26.456169
20
3.986565
0
VERTEX
8
1
10
26.452499
20
3.994507
42
-0.080638
0
VERTEX
8
1
10
26.497070
20
4.127167
42
0.385506
0
VERTEX
8
1
10
26.423843
20
4.298355
42
0.350125
0
VERTEX
8
1
10
26.210960
20
4.273178
42
0.334205
0
VERTEX
8
1
10
26.112167
20
3.858307
42
0.436468
0
VERTEX
8
1
10
26.696220
20
3.756203
42
0.107275
0
VERTEX
8
1
10
26.901291
20
3.977142
42
0.126761
0
VERTEX
8
1
10
27.033203
20
4.693375
0
VERTEX
8
1
10
27.025406
20
4.748810
0
VERTEX
8
1
10
27.014183
20
4.802429
42
0.265939
0
VERTEX
8
1
10
26.672829
20
5.191856
42
0.115018
0
VERTEX
8
1
10
26.027061
20
5.272614
42
0.088331
0
VERTEX
8
1
10
25.235832
20
5.068031
42
0.055722
0
VERTEX
8
1
10
24.650757
20
4.732582
0
VERTEX
8
1
10
24.502289
20
4.608742
0
VERTEX
8
1
10
24.588287
20
4.387909
0
VERTEX
8
1
10
24.604263
20
4.394524
42
-0.187384
0
VERTEX
8
1
10
24.930145
20
4.529625
42
-0.168775
0
VERTEX
8
1
10
25.737465
20
4.274704
42
-0.080969
0
VERTEX
8
1
10
25.905991
20
4.079224
42
-0.208735
0
SEQEND
0
POLYLINE
8
1
66
1
70
1
0
VERTEX
8
1
10
26.707588
20
1.733063
42
0.182748
0
VERTEX
8
1
10
26.865974
20
2.265175
42
0.189152
0
VERTEX
8
1
10
26.645325
20
2.621330
42
0.085128
0
VERTEX
8
1
10
26.349724
20
2.794350
0
VERTEX
8
1
10
26.322411
20
2.800568
42
-0.023977
0
VERTEX
8
1
10
26.160797
20
2.771439
42
0.123273
0
VERTEX
8
1
10
26.027901
20
2.679962
42
-0.794865
0
VERTEX
8
1
10
26.035454
20
2.669685
0
VERTEX
8
1
10
26.035439
20
2.615135
42
-0.285253
0
VERTEX
8
1
10
26.133194
20
2.632233
0
VERTEX
8
1
10
26.164795
20
2.619606
0
VERTEX
8
1
10
26.197350
20
2.601128
42
-0.118593
0
VERTEX
8
1
10
26.499138
20
2.244469
0
VERTEX
8
1
10
26.513641
20
2.205711
42
-0.142630
0
VERTEX
8
1
10
26.505028
20
1.621094
42
0.215977
0
SEQEND
0
POLYLINE
8
1
66
1
70
1
0
VERTEX
8
1
10
28.455818
20
5.100433
0
VERTEX
8
1
10
28.485580
20
5.136238
42
0.165265
0
VERTEX
8
1
10
28.541313
20
5.249054
0
VERTEX
8
1
10
28.625290
20
5.396011
0
VERTEX
8
1
10
28.621597
20
5.540840
42
0.359940
0
VERTEX
8
1
10
27.912163
20
5.418129
0
VERTEX
8
1
10
27.882179
20
5.374748
0
VERTEX
8
1
10
27.608429
20
4.889961
0
VERTEX
8
1
10
27.607437
20
4.828873
42
0.017725
0
VERTEX
8
1
10
27.608704
20
4.525711
42
-0.051673
0
VERTEX
8
1
10
27.568596
20
4.108391
42
-0.120111
0
VERTEX
8
1
10
27.425186
20
3.705345
42
-0.148457
0
VERTEX
8
1
10
26.973778
20
3.138275
42
0.061689
0
VERTEX
8
1
10
26.951897
20
2.937149
42
0.304238
0
VERTEX
8
1
10
27.090652
20
2.930618
42
0.112223
0
VERTEX
8
1
10
27.222984
20
3.053612
42
0.092048
0
VERTEX
8
1
10
27.444618
20
3.496880
42
-0.068830
0
VERTEX
8
1
10
27.848152
20
4.364777
42
-0.021630
0
VERTEX
8
1
10
28.096741
20
4.735542
42
0.003035
0
SEQEND
0
POLYLINE
8
1
66
1
70
1
0
VERTEX
8
1
10
27.502884
20
4.660362
42
0.051968
0
VERTEX
8
1
10
27.503464
20
4.730537
42
0.342408
0
VERTEX
8
1
10
27.498741
20
4.695999
0
SEQEND
0
POLYLINE
8
1
66
1
70
1
0
VERTEX
8
1
10
29.232384
20
6.344185
0
VERTEX
8
1
10
29.237396
20
6.355568
42
-0.053883
0
VERTEX
8
1
10
29.012779
20
6.337563
0
VERTEX
8
1
10
28.974625
20
6.328529
42
0.076996
0
VERTEX
8
1
10
28.789589
20
6.362831
42
-0.197173
0
VERTEX
8
1
10
28.551109
20
6.499626
42
-0.066466
0
VERTEX
8
1
10
28.325935
20
6.763092
0
VERTEX
8
1
10
28.311722
20
6.742882
0
VERTEX
8
1
10
28.317535
20
6.722870
42
-0.019953
0
VERTEX
8
1
10
28.376472
20
6.315659
0
VERTEX
8
1
10
28.377899
20
6.250099
42
-0.163582
0
VERTEX
8
1
10
28.620972
20
6.240761
42
-0.195935
0
VERTEX
8
1
10
28.724548
20
6.119385
0
VERTEX
8
1
10
28.781250
20
5.933411
0
VERTEX
8
1
10
28.793907
20
5.909569
42
0.532446
0
VERTEX
8
1
10
28.856979
20
5.901711
0
VERTEX
8
1
10
28.877975
20
5.919426
0
SEQEND
0
POLYLINE
8
1
66
1
70
1
0
VERTEX
8
1
10
30.343216
20
9.126297
42
-0.271408
0
VERTEX
8
1
10
30.363472
20
9.196259
42
-0.056174
0
VERTEX
8
1
10
30.644020
20
9.495758
42
0.031119
0
VERTEX
8
1
10
30.909180
20
9.784782
0
VERTEX
8
1
10
30.940659
20
9.819183
42
-0.145132
0
VERTEX
8
1
10
31.474304
20
10.165154
42
0.018668
0
VERTEX
8
1
10
32.200279
20
10.427498
0
VERTEX
8
1
10
32.226044
20
10.447121
42
0.048590
0
VERTEX
8
1
10
31.883453
20
10.740952
42
0.093559
0
VERTEX
8
1
10
31.742371
20
10.792000
0
VERTEX
8
1
10
31.740181
20
10.805496
42
0.152511
0
VERTEX
8
1
10
31.930092
20
11.372795
0
VERTEX
8
1
10
31.926582
20
11.404541
42
0.036303
0
VERTEX
8
1
10
31.802483
20
11.806549
42
-0.070581
0
VERTEX
8
1
10
31.775665
20
11.961075
0
VERTEX
8
1
10
31.778847
20
11.982300
42
-0.107240
0
VERTEX
8
1
10
31.918587
20
12.190781
0
VERTEX
8
1
10
31.938393
20
12.212891
0
VERTEX
8
1
10
31.958336
20
12.234962
42
0.116988
0
VERTEX
8
1
10
32.172020
20
12.562897
42
0.109731
0
VERTEX
8
1
10
32.278641
20
13.087139
0
VERTEX
8
1
10
32.590729
20
12.852032
0
VERTEX
8
1
10
32.783089
20
12.718475
42
0.344370
0
VERTEX
8
1
10
32.805939
20
12.741833
42
0.097492
0
VERTEX
8
1
10
32.867607
20
12.912994
42
0.086542
0
VERTEX
8
1
10
32.913200
20
13.190544
42
0.092585
0
VERTEX
8
1
10
32.791817
20
14.065033
42
0.122245
0
VERTEX
8
1
10
32.138939
20
14.986465
42
-0.073900
0
VERTEX
8
1
10
31.950653
20
15.218849
42
-0.145729
0
VERTEX
8
1
10
31.922493
20
15.401314
42
0.118885
0
VERTEX
8
1
10
31.886864
20
15.729630
0
VERTEX
8
1
10
31.875587
20
15.752140
42
0.187633
0
VERTEX
8
1
10
31.740265
20
15.874882
42
0.110219
0
VERTEX
8
1
10
31.572441
20
15.907631
0
VERTEX
8
1
10
31.170639
20
15.901672
42
-0.052811
0
VERTEX
8
1
10
31.029625
20
15.922821
0
VERTEX
8
1
10
30.993980
20
15.924648
42
-0.159239
0
VERTEX
8
1
10
30.452736
20
15.935715
0
VERTEX
8
1
10
30.429855
20
15.947369
42
-0.071066
0
VERTEX
8
1
10
30.232162
20
16.139969
0
VERTEX
8
1
10
30.197067
20
16.174534
42
0.024404
0
VERTEX
8
1
10
29.858322
20
16.122116
42
-0.110698
0
VERTEX
8
1
10
30.171608
20
15.868015
42
0.022641
0
VERTEX
8
1
10
30.383347
20
15.631760
42
0.249692
0
VERTEX
8
1
10
30.568985
20
15.588863
42
-0.055564
0
VERTEX
8
1
10
31.201698
20
15.644848
42
-0.097218
0
VERTEX
8
1
10
31.511940
20
15.614483
42
-0.231611
0
VERTEX
8
1
10
31.616425
20
15.492920
42
-0.071855
0
VERTEX
8
1
10
31.650208
20
15.301487
42
-0.025279
0
VERTEX
8
1
10
31.664497
20
14.885323
0
VERTEX
8
1
10
31.672493
20
14.786266
0
VERTEX
8
1
10
31.699844
20
14.774376
42
-0.187332
0
VERTEX
8
1
10
32.116013
20
14.501450
42
-0.063781
0
VERTEX
8
1
10
32.374786
20
14.082050
42
-0.076296
0
VERTEX
8
1
10
32.580208
20
13.542526
42
-0.063240
0
VERTEX
8
1
10
32.585312
20
13.339542
0
VERTEX
8
1
10
32.575714
20
13.300201
42
0.029356
0
VERTEX
8
1
10
32.301468
20
13.601536
42
0.227740
0
VERTEX
8
1
10
31.950333
20
13.693985
42
0.330950
0
VERTEX
8
1
10
31.897049
20
13.611500
42
-0.009467
0
VERTEX
8
1
10
31.902679
20
13.189198
42
-0.115898
0
VERTEX
8
1
10
31.648354
20
12.330185
42
-0.069322
0
VERTEX
8
1
10
31.358917
20
11.975677
0
VERTEX
8
1
10
31.322327
20
11.937386
42
0.062284
0
VERTEX
8
1
10
31.415840
20
11.848877
42
-0.150535
0
VERTEX
8
1
10
31.461334
20
11.706924
0
VERTEX
8
1
10
31.516319
20
11.481316
42
-0.100622
0
VERTEX
8
1
10
31.465355
20
10.888458
42
-0.048923
0
VERTEX
8
1
10
31.425774
20
10.808464
0
VERTEX
8
1
10
31.408401
20
10.809753
0
VERTEX
8
1
10
31.391144
20
10.832169
42
-0.105650
0
VERTEX
8
1
10
31.302277
20
11.123032
0
VERTEX
8
1
10
31.296997
20
11.154549
42
0.240126
0
VERTEX
8
1
10
31.002419
20
11.618629
42
0.193832
0
VERTEX
8
1
10
30.817749
20
11.635925
0
VERTEX
8
1
10
30.790810
20
11.618668
0
VERTEX
8
1
10
30.764320
20
11.589264
42
0.036323
0
VERTEX
8
1
10
30.582069
20
11.225121
42
-0.054201
0
VERTEX
8
1
10
30.466919
20
11.044434
0
VERTEX
8
1
10
30.428192
20
11.006569
42
-0.316044
0
VERTEX
8
1
10
30.243927
20
10.980095
0
VERTEX
8
1
10
30.189217
20
11.014206
0
VERTEX
8
1
10
30.164261
20
11.043724
42
0.243022
0
VERTEX
8
1
10
30.342224
20
11.251701
42
0.255260
0
VERTEX
8
1
10
30.285812
20
11.383057
0
VERTEX
8
1
10
30.272064
20
11.385887
42
0.226227
0
VERTEX
8
1
10
30.189842
20
11.316833
42
0.036546
0
VERTEX
8
1
10
30.077759
20
11.086143
42
-0.019789
0
VERTEX
8
1
10
29.701256
20
10.421783
42
-0.021601
0
VERTEX
8
1
10
29.288857
20
9.745667
0
VERTEX
8
1
10
29.183334
20
9.545532
0
VERTEX
8
1
10
29.210907
20
9.536964
42
-0.039790
0
VERTEX
8
1
10
29.669014
20
10.073227
42
-0.149342
0
VERTEX
8
1
10
30.740379
20
10.574982
42
-0.095456
0
VERTEX
8
1
10
31.051544
20
10.555756
42
-0.082822
0
VERTEX
8
1
10
31.182030
20
10.487854
0
VERTEX
8
1
10
31.205284
20
10.487244
42
-0.134387
0
VERTEX
8
1
10
31.644127
20
10.403915
0
VERTEX
8
1
10
31.650505
20
10.393181
42
-0.015255
0
VERTEX
8
1
10
31.180283
20
10.277939
42
0.174742
0
VERTEX
8
1
10
30.542549
20
9.836067
42
-0.033931
0
VERTEX
8
1
10
30.266502
20
9.503975
42
-0.126857
0
VERTEX
8
1
10
29.564995
20
9.153793
0
VERTEX
8
1
10
29.529228
20
9.144257
0
VERTEX
8
1
10
29.493530
20
9.134453
42
-0.238725
0
VERTEX
8
1
10
30.148674
20
8.509087
42
-0.118348
0
VERTEX
8
1
10
30.205360
20
7.833275
0
VERTEX
8
1
10
30.180809
20
7.686211
42
-0.134541
0
VERTEX
8
1
10
29.742027
20
6.970558
42
-0.156230
0
VERTEX
8
1
10
29.322441
20
6.784554
42
-0.146576
0
VERTEX
8
1
10
28.988640
20
6.855446
42
-0.218943
0
VERTEX
8
1
10
28.678383
20
7.317589
42
-0.270464
0
VERTEX
8
1
10
28.951759
20
7.963928
42
-0.561815
0
VERTEX
8
1
10
29.549133
20
7.690628
42
-0.222078
0
VERTEX
8
1
10
29.460487
20
7.495338
42
-0.069024
0
VERTEX
8
1
10
29.368698
20
7.427719
0
VERTEX
8
1
10
29.363266
20
7.438721
0
VERTEX
8
1
10
29.361794
20
7.453064
0
VERTEX
8
1
10
29.395676
20
7.614288
42
0.349546
0
VERTEX
8
1
10
29.295891
20
7.798149
42
0.346355
0
VERTEX
8
1
10
29.030563
20
7.749382
42
0.320249
0
VERTEX
8
1
10
28.949104
20
7.237038
0
VERTEX
8
1
10
28.972900
20
7.202225
42
0.432123
0
VERTEX
8
1
10
29.708290
20
7.184967
42
0.085254
0
VERTEX
8
1
10
29.876083
20
7.402245
0
VERTEX
8
1
10
29.923622
20
7.499023
42
0.127156
0
VERTEX
8
1
10
29.957817
20
8.416496
42
0.129323
0
VERTEX
8
1
10
29.746101
20
8.791092
0
VERTEX
8
1
10
29.692505
20
8.835762
42
0.128005
0
VERTEX
8
1
10
29.141571
20
9.025703
42
0.106161
0
VERTEX
8
1
10
28.422050
20
8.943382
42
0.072335
0
VERTEX
8
1
10
27.757156
20
8.620461
42
0.046891
0
VERTEX
8
1
10
27.180305
20
8.161339
0
VERTEX
8
1
10
27.163071
20
8.080833
42
-0.043643
0
VERTEX
8
1
10
27.509720
20
7.833870
42
-0.225860
0
VERTEX
8
1
10
27.640457
20
7.465767
42
-0.043998
0
VERTEX
8
1
10
27.619476
20
7.303116
0
VERTEX
8
1
10
27.609528
20
7.311569
0
VERTEX
8
1
10
27.595779
20
7.327003
42
0.204576
0
VERTEX
8
1
10
26.686241
20
7.871094
0
VERTEX
8
1
10
26.617546
20
7.862694
42
-0.064905
0
VERTEX
8
1
10
26.773361
20
7.359619
42
-0.191480
0
VERTEX
8
1
10
26.622856
20
6.810593
0
VERTEX
8
1
10
26.568909
20
6.739998
0
VERTEX
8
1
10
26.529198
20
6.728485
42
-0.135076
0
VERTEX
8
1
10
26.386971
20
6.993965
42
0.042210
0
VERTEX
8
1
10
26.245476
20
7.348900
0
VERTEX
8
1
10
26.215408
20
7.286163
42
-0.034319
0
VERTEX
8
1
10
25.519730
20
5.851997
42
-0.088686
0
VERTEX
8
1
10
26.117744
20
6.433159
42
-0.103286
0
VERTEX
8
1
10
26.959908
20
6.735512
42
-0.101399
0
VERTEX
8
1
10
27.264481
20
6.701530
0
VERTEX
8
1
10
27.317184
20
6.677032
0
VERTEX
8
1
10
27.365295
20
6.645332
0
VERTEX
8
1
10
27.389702
20
6.642838
42
-0.134608
0
VERTEX
8
1
10
27.828705
20
6.560158
0
VERTEX
8
1
10
27.838058
20
6.549652
42
-0.015971
0
VERTEX
8
1
10
27.367599
20
6.434296
42
0.174745
0
VERTEX
8
1
10
26.729095
20
5.993332
42
-0.042721
0
VERTEX
8
1
10
26.436325
20
5.645500
42
-0.059761
0
VERTEX
8
1
10
26.179970
20
5.469460
42
-0.123153
0
VERTEX
8
1
10
26.850624
20
5.271507
42
-0.262046
0
VERTEX
8
1
10
27.213364
20
4.547180
42
-0.133383
0
VERTEX
8
1
10
27.042206
20
3.938988
42
-0.101919
0
VERTEX
8
1
10
26.698837
20
3.578323
42
-0.288088
0
VERTEX
8
1
10
26.136360
20
3.555534
0
VERTEX
8
1
10
26.083916
20
3.596214
0
VERTEX
8
1
10
26.080711
20
3.593300
42
-0.051940
0
VERTEX
8
1
10
26.112312
20
3.109741
0
VERTEX
8
1
10
26.115372
20
3.100090
42
-0.068375
0
VERTEX
8
1
10
26.237213
20
3.133141
0
VERTEX
8
1
10
26.219048
20
3.153748
0
VERTEX
8
1
10
26.225266
20
3.154350
42
0.193258
0
VERTEX
8
1
10
26.993660
20
3.395607
42
0.031884
0
VERTEX
8
1
10
27.268005
20
3.703766
42
0.118249
0
VERTEX
8
1
10
27.432663
20
4.234894
42
0.112630
0
VERTEX
8
1
10
27.336639
20
5.093407
42
0.018849
0
VERTEX
8
1
10
27.104935
20
5.688301
0
VERTEX
8
1
10
27.106079
20
5.733459
42
-0.077473
0
VERTEX
8
1
10
27.587288
20
6.099442
42
-0.080941
0
VERTEX
8
1
10
27.959595
20
6.181427
42
0.032165
0
VERTEX
8
1
10
28.166893
20
6.216354
0
VERTEX
8
1
10
28.193024
20
6.239311
42
0.075904
0
VERTEX
8
1
10
28.124542
20
6.890640
42
-0.017717
0
VERTEX
8
1
10
27.985771
20
7.590332
42
-0.099262
0
VERTEX
8
1
10
28.004509
20
7.811104
42
-0.319779
0
VERTEX
8
1
10
28.108246
20
7.873566
0
VERTEX
8
1
10
28.155396
20
7.866104
0
VERTEX
8
1
10
28.211983
20
7.845612
0
VERTEX
8
1
10
28.278709
20
7.810898
0
VERTEX
8
1
10
28.293320
20
7.746231
42
0.049340
0
VERTEX
8
1
10
28.400223
20
7.103653
42
0.160540
0
VERTEX
8
1
10
28.771797
20
6.590645
42
0.130491
0
VERTEX
8
1
10
29.052589
20
6.496910
42
0.065458
0
VERTEX
8
1
10
29.360054
20
6.587402
42
0.043550
0
VERTEX
8
1
10
29.678719
20
6.823906
0
VERTEX
8
1
10
29.997772
20
7.221848
42
0.016767
0
VERTEX
8
1
10
30.424080
20
7.826065
0
VERTEX
8
1
10
30.430481
20
7.879501
42
-0.044935
0
VERTEX
8
1
10
30.462769
20
8.402809
42
0.058988
0
VERTEX
8
1
10
30.457230
20
8.817146
42
0.082671
0
SEQEND
0
POLYLINE
8
1
66
1
70
1
0
VERTEX
8
1
10
31.258972
20
15.970577
42
0.019126
0
VERTEX
8
1
10
31.152863
20
15.971775
42
0.041559
0
SEQEND
0
POLYLINE
8
1
66
1
70
1
0
VERTEX
8
1
10
35.006264
20
12.522945
42
0.102535
0
VERTEX
8
1
10
35.397575
20
12.876377
42
0.465003
0
VERTEX
8
1
10
35.418427
20
12.871498
0
VERTEX
8
1
10
35.417343
20
12.909210
0
VERTEX
8
1
10
35.395599
20
12.881329
42
-0.424598
0
VERTEX
8
1
10
35.404999
20
12.900448
0
VERTEX
8
1
10
35.434280
20
12.936035
0
VERTEX
8
1
10
35.429840
20
12.953510
42
0.156204
0
VERTEX
8
1
10
35.298981
20
13.081299
0
VERTEX
8
1
10
35.252174
20
13.105202
42
0.047256
0
VERTEX
8
1
10
34.824181
20
13.227844
0
VERTEX
8
1
10
34.778343
20
13.239151
42
0.010580
0
VERTEX
8
1
10
34.025070
20
13.451694
42
0.011134
0
VERTEX
8
1
10
33.376694
20
13.639019
42
0.037811
0
VERTEX
8
1
10
33.154335
20
13.713070
0
VERTEX
8
1
10
33.057388
20
13.715275
0
VERTEX
8
1
10
33.038902
20
13.704746
42
-0.103805
0
VERTEX
8
1
10
33.076881
20
13.244949
42
-0.082641
0
VERTEX
8
1
10
32.963341
20
12.685856
42
-0.115505
0
VERTEX
8
1
10
32.858841
20
12.544147
42
-0.307538
0
VERTEX
8
1
10
32.685471
20
12.543102
42
-0.005996
0
VERTEX
8
1
10
32.505127
20
12.671444
42
0.163485
0
VERTEX
8
1
10
32.425041
20
12.683521
42
0.229951
0
VERTEX
8
1
10
32.370598
20
12.598751
42
-0.116089
0
VERTEX
8
1
10
32.258484
20
12.339073
42
0.029036
0
VERTEX
8
1
10
32.066628
20
12.043076
0
VERTEX
8
1
10
32.050728
20
12.007790
42
0.223839
0
VERTEX
8
1
10
32.048218
20
11.739891
42
-0.052158
0
VERTEX
8
1
10
32.138268
20
11.443710
0
VERTEX
8
1
10
32.160324
20
11.446495
0
VERTEX
8
1
10
32.990463
20
11.761612
42
-0.025310
0
VERTEX
8
1
10
33.776611
20
11.991959
42
0.056768
0
SEQEND
0
POLYLINE
8
1
66
1
70
1
0
VERTEX
8
1
10
34.050110
20
11.775063
42
0.424959
0
VERTEX
8
1
10
34.060944
20
11.880486
0
VERTEX
8
1
10
34.032951
20
11.893280
0
VERTEX
8
1
10
33.993942
20
11.897087
42
0.095677
0
VERTEX
8
1
10
33.621071
20
11.805420
42
0.021694
0
VERTEX
8
1
10
32.885742
20
11.462074
42
-0.022252
0
VERTEX
8
1
10
32.689926
20
11.381989
42
0.073890
0
VERTEX
8
1
10
31.939117
20
10.950928
0
VERTEX
8
1
10
31.923523
20
10.935356
42
-0.049733
0
VERTEX
8
1
10
31.950348
20
10.927826
42
-0.026699
0
VERTEX
8
1
10
32.219513
20
10.764923
0
VERTEX
8
1
10
32.243088
20
10.744217
0
VERTEX
8
1
10
32.265488
20
10.756386
42
-0.084798
0
VERTEX
8
1
10
33.142113
20
11.388489
42
-0.018804
0
VERTEX
8
1
10
33.686127
20
11.636391
42
-0.068074
0
VERTEX
8
1
10
33.895164
20
11.682236
0
VERTEX
8
1
10
34.037376
20
11.764839
0
SEQEND
0
POLYLINE
8
1
66
1
70
1
0
VERTEX
8
1
10
34.353592
20
11.130966
42
0.312004
0
VERTEX
8
1
10
34.476921
20
11.056778
42
0.120350
0
VERTEX
8
1
10
34.665070
20
11.116112
42
0.162779
0
VERTEX
8
1
10
35.319855
20
11.807610
42
0.022374
0
VERTEX
8
1
10
35.481262
20
12.104393
0
VERTEX
8
1
10
35.376183
20
12.125374
42
0.133623
0
VERTEX
8
1
10
35.013893
20
12.013046
0
VERTEX
8
1
10
34.662163
20
11.788231
0
VERTEX
8
1
10
34.622658
20
11.766556
42
0.057459
0
VERTEX
8
1
10
34.353073
20
11.615440
42
0.235887
0
VERTEX
8
1
10
34.291382
20
11.469131
42
0.094353
0
SEQEND
0
POLYLINE
8
1
66
1
70
1
0
VERTEX
8
1
10
35.608635
20
13.364777
42
0.274933
0
VERTEX
8
1
10
35.683533
20
13.456112
42
0.164443
0
VERTEX
8
1
10
35.634567
20
13.806541
42
-0.049633
0
VERTEX
8
1
10
35.486977
20
14.243877
42
0.109511
0
VERTEX
8
1
10
35.264915
20
14.675789
42
0.194325
0
VERTEX
8
1
10
35.084656
20
14.752491
42
0.017582
0
VERTEX
8
1
10
34.693680
20
14.756130
42
-0.182255
0
VERTEX
8
1
10
33.985313
20
15.085480
42
0.088600
0
VERTEX
8
1
10
33.668541
20
15.306759
42
0.020764
0
VERTEX
8
1
10
32.935745
20
15.619907
42
0.042933
0
VERTEX
8
1
10
31.931648
20
15.963089
42
-0.251519
0
VERTEX
8
1
10
32.100441
20
15.706123
0
VERTEX
8
1
10
32.128372
20
15.421337
42
0.129776
0
VERTEX
8
1
10
32.290909
20
15.144623
0
VERTEX
8
1
10
32.317184
20
15.114704
42
-0.077970
0
VERTEX
8
1
10
32.880768
20
14.317265
42
-0.031624
0
VERTEX
8
1
10
32.932007
20
14.178844
42
0.013184
0
VERTEX
8
1
10
33.805214
20
13.923752
42
0.004006
0
VERTEX
8
1
10
35.043373
20
13.559402
42
-0.033086
0
VERTEX
8
1
10
35.494911
20
13.373062
42
0.138268
0
SEQEND
0
POLYLINE
8
1
66
1
70
1
0
VERTEX
8
1
10
31.992020
20
15.308434
42
0.114999
0
VERTEX
8
1
10
32.020798
20
15.232677
0
SEQEND
0
POLYLINE
8
1
66
1
70
1
0
VERTEX
8
1
10
30.623825
20
8.502289
0
VERTEX
8
1
10
30.621391
20
8.472107
0
VERTEX
8
1
10
30.634117
20
8.483353
42
-0.053355
0
VERTEX
8
1
10
31.143654
20
9.216576
0
VERTEX
8
1
10
31.181473
20
9.265862
0
VERTEX
8
1
10
31.218651
20
9.315804
0
VERTEX
8
1
10
31.691322
20
9.996368
0
VERTEX
8
1
10
31.726639
20
10.058411
42
0.027557
0
VERTEX
8
1
10
31.559944
20
10.040634
42
0.119760
0
VERTEX
8
1
10
31.334793
20
9.902863
42
-0.014582
0
VERTEX
8
1
10
30.777603
20
9.423363
42
0.067588
0
VERTEX
8
1
10
30.563721
20
9.163673
42
0.232746
0
VERTEX
8
1
10
30.562561
20
8.986153
42
-0.134049
0
SEQEND
0
POLYLINE
8
1
66
1
70
1
0
VERTEX
8
1
10
30.746414
20
5.969177
42
0.041568
0
VERTEX
8
1
10
30.486549
20
5.948364
0
VERTEX
8
1
10
30.444809
20
5.939507
0
VERTEX
8
1
10
30.427849
20
5.932358
42
0.134521
0
VERTEX
8
1
10
30.305573
20
5.944702
42
0.078483
0
VERTEX
8
1
10
30.333069
20
5.740364
42
-0.135945
0
VERTEX
8
1
10
30.306976
20
5.464775
42
-0.059410
0
VERTEX
8
1
10
30.129005
20
5.009918
42
0.090475
0
VERTEX
8
1
10
30.070122
20
4.759933
42
0.131821
0
VERTEX
8
1
10
30.107849
20
4.640762
0
VERTEX
8
1
10
30.134674
20
4.616356
0
VERTEX
8
1
10
30.163612
20
4.611504
0
VERTEX
8
1
10
30.193893
20
4.623192
0
VERTEX
8
1
10
30.224792
20
4.648415
0
VERTEX
8
1
10
30.255531
20
4.684158
42
0.083707
0
VERTEX
8
1
10
30.409355
20
5.002220
42
-0.126212
0
VERTEX
8
1
10
30.434967
20
5.138557
42
-0.048775
0
VERTEX
8
1
10
30.542801
20
5.201019
42
0.207780
0
VERTEX
8
1
10
30.601601
20
5.358574
0
VERTEX
8
1
10
30.602631
20
5.513023
0
VERTEX
8
1
10
30.623299
20
5.527992
42
0.197113
0
VERTEX
8
1
10
30.720703
20
5.600113
0
VERTEX
8
1
10
30.725090
20
5.614395
0
VERTEX
8
1
10
30.748055
20
5.969177
0
SEQEND
0
POLYLINE
8
1
66
1
70
1
0
VERTEX
8
1
10
31.200882
20
6.957092
42
0.154253
0
VERTEX
8
1
10
31.231613
20
7.141243
42
0.256411
0
VERTEX
8
1
10
31.166565
20
7.204193
0
VERTEX
8
1
10
31.123337
20
7.209785
0
VERTEX
8
1
10
31.091156
20
7.200310
0
VERTEX
8
1
10
31.057526
20
7.193054
42
-0.088968
0
VERTEX
8
1
10
30.607956
20
7.221428
0
VERTEX
8
1
10
30.641373
20
7.199791
0
VERTEX
8
1
10
30.535873
20
7.094269
0
VERTEX
8
1
10
30.551437
20
7.148552
0
VERTEX
8
1
10
30.528816
20
7.118393
42
0.109617
0
VERTEX
8
1
10
30.328224
20
6.506721
42
0.114413
0
VERTEX
8
1
10
30.408249
20
6.172638
42
0.302303
0
VERTEX
8
1
10
30.580490
20
6.102539
42
0.071500
0
VERTEX
8
1
10
30.810234
20
6.164658
42
0.174052
0
VERTEX
8
1
10
30.953033
20
6.323555
42
0.037943
0
VERTEX
8
1
10
31.046951
20
6.631470
42
-0.049131
0
VERTEX
8
1
10
31.156868
20
6.862640
0
SEQEND
0
POLYLINE
8
1
66
1
70
1
0
VERTEX
8
1
10
31.788338
20
6.482468
42
-0.033422
0
VERTEX
8
1
10
31.811493
20
6.751595
42
0.075898
0
VERTEX
8
1
10
31.805237
20
6.879860
42
0.189330
0
VERTEX
8
1
10
31.590454
20
6.701668
0
VERTEX
8
1
10
31.451981
20
6.446877
0
VERTEX
8
1
10
31.425987
20
6.407310
42
0.118901
0
VERTEX
8
1
10
31.188026
20
5.939888
42
0.056118
0
VERTEX
8
1
10
31.176476
20
5.780823
42
-0.036295
0
VERTEX
8
1
10
31.321304
20
5.820564
0
VERTEX
8
1
10
31.319702
20
5.828323
42
-0.163378
0
VERTEX
8
1
10
31.347755
20
5.864845
42
0.000204
0
VERTEX
8
1
10
31.580521
20
6.040382
42
0.124201
0
VERTEX
8
1
10
31.769440
20
6.304771
42
0.075687
0
SEQEND
0
POLYLINE
8
1
66
1
70
1
0
VERTEX
8
1
10
31.775543
20
8.161789
42
0.271672
0
VERTEX
8
1
10
31.786964
20
8.193947
42
0.035883
0
VERTEX
8
1
10
31.359573
20
8.311546
0
VERTEX
8
1
10
31.327469
20
8.314728
42
0.142218
0
VERTEX
8
1
10
31.102982
20
8.276779
42
0.152483
0
VERTEX
8
1
10
30.994316
20
8.159569
42
0.110443
0
VERTEX
8
1
10
30.806725
20
7.512947
42
0.108649
0
VERTEX
8
1
10
30.838974
20
7.373703
42
-0.005472
0
VERTEX
8
1
10
31.106651
20
7.372894
42
0.054948
0
VERTEX
8
1
10
31.225830
20
7.358109
0
VERTEX
8
1
10
31.238060
20
7.354134
42
-0.072606
0
VERTEX
8
1
10
31.388336
20
7.382683
42
0.304510
0
VERTEX
8
1
10
31.530060
20
7.524849
42
-0.055354
0
VERTEX
8
1
10
31.615097
20
7.788101
42
-0.043108
0
VERTEX
8
1
10
31.772377
20
8.136604
42
-0.059311
0
VERTEX
8
1
10
31.826477
20
8.195953
42
-0.018838
0
SEQEND
0
POLYLINE
8
1
66
1
70
1
0
VERTEX
8
1
10
31.562378
20
8.535591
42
0.117098
0
VERTEX
8
1
10
31.998657
20
8.401146
42
0.184087
0
VERTEX
8
1
10
32.125443
20
8.444389
42
0.106572
0
VERTEX
8
1
10
32.370476
20
8.706680
42
0.036638
0
VERTEX
8
1
10
32.507133
20
8.921127
42
0.443738
0
VERTEX
8
1
10
32.447998
20
9.014534
0
VERTEX
8
1
10
32.419945
20
9.020531
42
-0.180811
0
VERTEX
8
1
10
32.255234
20
9.121704
42
0.040335
0
VERTEX
8
1
10
32.038155
20
9.315826
42
-0.088993
0
VERTEX
8
1
10
31.915703
20
9.471832
0
VERTEX
8
1
10
31.768250
20
9.325424
0
VERTEX
8
1
10
31.789856
20
9.378952
42
-0.076220
0
VERTEX
8
1
10
31.608810
20
9.199547
42
0.181504
0
VERTEX
8
1
10
31.383171
20
8.797897
42
0.104081
0
VERTEX
8
1
10
31.397125
20
8.688179
42
0.139990
0
SEQEND
0
POLYLINE
8
1
66
1
70
1
0
VERTEX
8
1
10
32.833069
20
7.309456
42
0.269524
0
VERTEX
8
1
10
32.863182
20
7.634804
0
VERTEX
8
1
10
32.771568
20
7.872925
42
0.530833
0
VERTEX
8
1
10
32.658249
20
7.914764
42
0.106104
0
VERTEX
8
1
10
32.405968
20
7.668930
42
-0.059386
0
VERTEX
8
1
10
32.155365
20
7.419624
0
VERTEX
8
1
10
32.149567
20
7.410553
42
0.227585
0
VERTEX
8
1
10
32.226387
20
7.442734
0
VERTEX
8
1
10
32.128075
20
7.285355
42
0.723534
0
VERTEX
8
1
10
32.110085
20
7.274422
0
VERTEX
8
1
10
32.108009
20
7.259460
0
VERTEX
8
1
10
32.107574
20
7.240372
42
-0.002188
0
VERTEX
8
1
10
32.154182
20
6.797768
0
VERTEX
8
1
10
32.153572
20
6.752052
0
VERTEX
8
1
10
32.162003
20
6.734970
42
0.165324
0
VERTEX
8
1
10
32.304276
20
6.779068
42
0.057308
0
VERTEX
8
1
10
32.600273
20
7.046555
42
0.056054
0
SEQEND
0
POLYLINE
8
1
66
1
70
1
0
VERTEX
8
1
10
33.261108
20
9.775513
42
0.081830
0
VERTEX
8
1
10
33.438271
20
10.007004
0
VERTEX
8
1
10
33.453979
20
10.056999
0
VERTEX
8
1
10
33.453285
20
10.101517
0
VERTEX
8
1
10
33.441956
20
10.130020
42
0.082776
0
VERTEX
8
1
10
33.275269
20
10.299843
42
-0.182381
0
VERTEX
8
1
10
33.120895
20
10.566948
42
0.037012
0
VERTEX
8
1
10
33.044632
20
10.774658
0
VERTEX
8
1
10
33.042572
20
10.798103
0
VERTEX
8
1
10
33.060303
20
10.810036
42
0.810478
0
VERTEX
8
1
10
33.040062
20
10.796669
0
VERTEX
8
1
10
32.913498
20
10.724388
42
-0.086497
0
VERTEX
8
1
10
32.717789
20
10.567596
42
0.083955
0
VERTEX
8
1
10
32.450066
20
10.304520
42
0.048972
0
VERTEX
8
1
10
32.200645
20
9.937920
0
VERTEX
8
1
10
32.187698
20
9.907570
42
0.307840
0
VERTEX
8
1
10
32.220428
20
9.655182
42
-0.041149
0
VERTEX
8
1
10
32.437523
20
9.346817
42
0.085262
0
VERTEX
8
1
10
32.576981
20
9.202118
42
0.294361
0
VERTEX
8
1
10
32.692245
20
9.211418
42
0.074228
0
VERTEX
8
1
10
32.874542
20
9.407883
42
-0.028135
0
VERTEX
8
1
10
33.138641
20
9.657257
0
SEQEND
0
POLYLINE
8
1
66
1
70
1
0
VERTEX
8
1
10
33.752762
20
8.208183
42
0.208258
0
VERTEX
8
1
10
33.772522
20
8.430405
42
0.050119
0
VERTEX
8
1
10
33.598297
20
8.795479
0
VERTEX
8
1
10
33.582481
20
8.814476
42
0.419965
0
VERTEX
8
1
10
33.459427
20
8.832466
42
0.121216
0
VERTEX
8
1
10
33.225761
20
8.572411
42
-0.052650
0
VERTEX
8
1
10
32.992775
20
8.286270
42
0.085819
0
VERTEX
8
1
10
32.934662
20
8.198151
42
0.039617
0
VERTEX
8
1
10
33.084229
20
7.679459
0
VERTEX
8
1
10
33.120438
20
7.602722
0
VERTEX
8
1
10
33.144188
20
7.589020
42
0.126322
0
VERTEX
8
1
10
33.327278
20
7.739250
0
VERTEX
8
1
10
33.358315
20
7.775864
42
-0.065559
0
VERTEX
8
1
10
33.649323
20
8.082047
42
0.067865
0
SEQEND
0
POLYLINE
8
1
66
1
70
1
0
VERTEX
8
1
10
33.724716
20
10.398125
42
0.015888
0
VERTEX
8
1
10
33.889359
20
10.554733
42
0.040813
0
VERTEX
8
1
10
34.109329
20
10.744698
42
0.271119
0
VERTEX
8
1
10
34.134018
20
10.920906
0
VERTEX
8
1
10
34.057655
20
11.236328
42
-0.184710
0
VERTEX
8
1
10
34.080444
20
11.425789
0
VERTEX
8
1
10
34.038605
20
11.488533
42
-0.123447
0
VERTEX
8
1
10
33.850578
20
11.397026
0
VERTEX
8
1
10
33.821411
20
11.388382
0
VERTEX
8
1
10
33.792534
20
11.379921
42
0.270693
0
VERTEX
8
1
10
33.379166
20
10.991692
42
0.259541
0
VERTEX
8
1
10
33.587051
20
10.394875
42
0.341946
0
SEQEND
0
POLYLINE
8
1
66
1
70
1
0
VERTEX
8
1
10
34.806282
20
9.542747
42
0.032044
0
VERTEX
8
1
10
34.843796
20
9.927269
42
0.049818
0
VERTEX
8
1
10
34.826859
20
10.060188
0
VERTEX
8
1
10
34.801682
20
10.086761
42
0.164732
0
VERTEX
8
1
10
34.655815
20
10.036728
0
VERTEX
8
1
10
34.617752
20
10.009186
42
0.042040
0
VERTEX
8
1
10
34.318420
20
9.699654
42
-0.006254
0
VERTEX
8
1
10
33.917885
20
9.279121
0
VERTEX
8
1
10
33.848427
20
9.215706
0
VERTEX
8
1
10
33.873573
20
9.173317
42
0.090971
0
VERTEX
8
1
10
33.941628
20
8.997070
42
-0.023530
0
VERTEX
8
1
10
34.033592
20
8.785828
0
VERTEX
8
1
10
34.105240
20
8.500946
42
0.237768
0
VERTEX
8
1
10
34.215950
20
8.517052
42
0.086943
0
VERTEX
8
1
10
34.493370
20
8.787270
42
0.040928
0
VERTEX
8
1
10
34.771759
20
9.124199
0
VERTEX
8
1
10
34.820480
20
9.211304
42
-0.107106
0
SEQEND
0
POLYLINE
8
1
66
1
70
1
0
VERTEX
8
1
10
36.095718
20
11.975212
0
VERTEX
8
1
10
36.076447
20
11.958031
42
0.071499
0
VERTEX
8
1
10
36.022232
20
12.133461
42
-0.128996
0
VERTEX
8
1
10
36.023247
20
12.315083
42
0.051173
0
VERTEX
8
1
10
36.035553
20
12.523220
42
-0.072406
0
VERTEX
8
1
10
36.120361
20
13.030277
42
-0.016323
0
VERTEX
8
1
10
36.444023
20
14.030975
42
0.111139
0
VERTEX
8
1
10
36.560181
20
14.930428
0
VERTEX
8
1
10
36.559250
20
14.959332
42
0.000797
0
VERTEX
8
1
10
36.567711
20
15.600857
0
VERTEX
8
1
10
36.561668
20
15.670357
42
0.266555
0
VERTEX
8
1
10
36.529480
20
15.822117
0
VERTEX
8
1
10
36.514076
20
15.842327
42
0.122270
0
VERTEX
8
1
10
36.266388
20
15.982090
0
VERTEX
8
1
10
36.228584
20
15.994682
42
-0.028936
0
VERTEX
8
1
10
35.442802
20
16.256104
42
0.018588
0
VERTEX
8
1
10
33.932152
20
16.745102
0
VERTEX
8
1
10
33.832359
20
16.769997
42
0.068879
0
VERTEX
8
1
10
32.518600
20
16.912682
42
0.015886
0
VERTEX
8
1
10
32.216423
20
16.893372
42
0.005841
0
VERTEX
8
1
10
31.361565
20
16.862080
42
0.075871
0
VERTEX
8
1
10
29.235664
20
16.319271
42
0.007011
0
VERTEX
8
1
10
28.354836
20
15.966690
42
-0.008350
0
VERTEX
8
1
10
27.713554
20
15.662716
42
-0.044698
0
VERTEX
8
1
10
27.456100
20
15.582592
0
VERTEX
8
1
10
27.418571
20
15.580204
42
-0.093199
0
VERTEX
8
1
10
27.439857
20
15.420902
42
0.122647
0
VERTEX
8
1
10
27.720825
20
15.495174
42
-0.003803
0
VERTEX
8
1
10
28.136795
20
15.665554
42
-0.049909
0
VERTEX
8
1
10
29.827217
20
16.235168
42
-0.070259
0
VERTEX
8
1
10
30.656113
20
16.304905
42
-0.003235
0
VERTEX
8
1
10
31.365845
20
16.222889
42
-0.017791
0
VERTEX
8
1
10
32.473114
20
16.106464
42
-0.049057
0
VERTEX
8
1
10
33.102158
20
15.907597
0
VERTEX
8
1
10
33.787209
20
15.649403
0
VERTEX
8
1
10
33.839645
20
15.627270
42
-0.091917
0
VERTEX
8
1
10
34.325340
20
15.320934
42
-0.078031
0
VERTEX
8
1
10
34.565918
20
15.002842
42
0.341080
0
VERTEX
8
1
10
34.651077
20
14.977345
42
0.068170
0
VERTEX
8
1
10
34.918472
20
15.058708
42
0.288538
0
VERTEX
8
1
10
34.982048
20
15.202526
42
0.139514
0
VERTEX
8
1
10
34.877777
20
15.356388
42
0.043733
0
VERTEX
8
1
10
34.495949
20
15.628086
0
VERTEX
8
1
10
34.459297
20
15.653759
42
0.059558
0
VERTEX
8
1
10
33.449928
20
16.153416
42
0.033823
0
VERTEX
8
1
10
33.125847
20
16.281876
42
-0.104644
0
VERTEX
8
1
10
32.983856
20
16.373226
0
VERTEX
8
1
10
32.985344
20
16.381325
42
-0.013715
0
VERTEX
8
1
10
33.307060
20
16.280872
42
-0.029532
0
VERTEX
8
1
10
33.727676
20
16.172024
42
-0.092676
0
VERTEX
8
1
10
34.755516
20
15.786667
0
VERTEX
8
1
10
35.452621
20
15.414669
42
0.120620
0
VERTEX
8
1
10
35.629524
20
15.369385
42
0.567968
0
VERTEX
8
1
10
35.695183
20
15.547638
42
-0.005862
0
VERTEX
8
1
10
35.565926
20
15.680008
42
-0.245354
0
VERTEX
8
1
10
35.548660
20
15.792728
0
VERTEX
8
1
10
35.571243
20
15.791592
42
-0.094062
0
VERTEX
8
1
10
35.828880
20
15.666641
0
VERTEX
8
1
10
35.911659
20
15.615631
0
VERTEX
8
1
10
35.922012
20
15.604160
0
VERTEX
8
1
10
35.921135
20
15.592915
0
VERTEX
8
1
10
35.928040
20
15.307503
42
-0.069256
0
VERTEX
8
1
10
35.892326
20
15.162468
42
0.029028
0
VERTEX
8
1
10
35.830627
20
14.784325
42
-0.014203
0
VERTEX
8
1
10
35.736946
20
14.395939
42
0.124950
0
VERTEX
8
1
10
35.760368
20
13.981464
42
-0.028763
0
VERTEX
8
1
10
35.912437
20
13.335247
42
-0.088277
0
VERTEX
8
1
10
35.888634
20
12.743580
42
-0.045803
0
VERTEX
8
1
10
35.651688
20
11.812386
42
-0.085252
0
VERTEX
8
1
10
35.174950
20
11.020737
42
0.091131
0
VERTEX
8
1
10
35.008987
20
10.699814
42
0.109852
0
VERTEX
8
1
10
35.044395
20
10.352051
42
-0.016421
0
VERTEX
8
1
10
35.124512
20
10.048721
42
0.082910
0
VERTEX
8
1
10
35.167534
20
9.843475
42
0.660250
0
VERTEX
8
1
10
35.264030
20
9.854652
42
0.066941
0
VERTEX
8
1
10
35.293274
20
9.932091
42
0.030129
0
VERTEX
8
1
10
35.367790
20
10.521675
42
-0.075716
0
VERTEX
8
1
10
35.463890
20
10.874146
42
-0.127467
0
VERTEX
8
1
10
35.564514
20
10.979179
0
VERTEX
8
1
10
35.606300
20
10.994370
0
VERTEX
8
1
10
35.627960
20
10.975868
42
0.066419
0
VERTEX
8
1
10
35.715736
20
10.326019
42
0.082719
0
VERTEX
8
1
10
35.794067
20
10.179863
42
0.419023
0
VERTEX
8
1
10
35.854706
20
10.185585
42
0.157841
0
VERTEX
8
1
10
36.052223
20
10.549690
42
0.087827
0
VERTEX
8
1
10
36.010040
20
10.963394
42
-0.079187
0
VERTEX
8
1
10
35.970703
20
11.390022
42
-0.068199
0
VERTEX
8
1
10
36.027809
20
11.867966
42
-0.126550
0
SEQEND
0
POLYLINE
8
1
66
1
70
1
0
VERTEX
8
1
10
36.800919
20
13.020199
42
-0.040460
0
VERTEX
8
1
10
37.160378
20
13.876358
42
0.090200
0
VERTEX
8
1
10
37.245338
20
14.302841
42
-0.101040
0
VERTEX
8
1
10
37.454468
20
14.793015
0
VERTEX
8
1
10
37.444687
20
14.759605
42
0.259600
0
VERTEX
8
1
10
37.460495
20
14.845951
0
VERTEX
8
1
10
37.452034
20
14.854771
0
VERTEX
8
1
10
37.440742
20
14.861279
42
0.110231
0
VERTEX
8
1
10
37.274628
20
14.856976
42
0.027230
0
VERTEX
8
1
10
37.095306
20
14.850994
42
0.209900
0
VERTEX
8
1
10
36.944267
20
14.723370
42
0.041252
0
VERTEX
8
1
10
36.820358
20
14.417267
42
0.039814
0
VERTEX
8
1
10
36.513000
20
13.535831
42
0.040055
0
VERTEX
8
1
10
36.449516
20
12.934032
42
-0.035448
0
VERTEX
8
1
10
36.329788
20
12.142197
42
-0.008742
0
VERTEX
8
1
10
36.175926
20
11.472870
42
0.114568
0
VERTEX
8
1
10
36.187904
20
11.118462
42
0.080402
0
VERTEX
8
1
10
36.283699
20
10.792114
0
VERTEX
8
1
10
36.311768
20
10.755783
42
0.120156
0
VERTEX
8
1
10
36.519684
20
10.949539
42
0.225628
0
VERTEX
8
1
10
36.512794
20
11.044075
42
-0.083307
0
VERTEX
8
1
10
36.436676
20
11.583961
42
-0.049893
0
VERTEX
8
1
10
36.525124
20
11.969383
42
0.008945
0
VERTEX
8
1
10
36.596016
20
12.384407
42
-0.023869
0
VERTEX
8
1
10
36.703667
20
12.691227
0
SEQEND
0
POLYLINE
8
1
66
1
70
1
0
VERTEX
8
1
10
37.962608
20
13.796684
0
VERTEX
8
1
10
37.982979
20
13.855526
42
-0.050622
0
VERTEX
8
1
10
38.171104
20
14.317028
42
-0.021979
0
VERTEX
8
1
10
38.300903
20
14.637280
42
-0.063579
0
VERTEX
8
1
10
38.346779
20
14.695316
0
VERTEX
8
1
10
38.309280
20
14.736202
42
0.141913
0
VERTEX
8
1
10
38.326126
20
14.745632
42
-0.133687
0
VERTEX
8
1
10
38.284660
20
14.748871
42
-0.082673
0
VERTEX
8
1
10
38.207825
20
14.699074
0
VERTEX
8
1
10
38.203705
20
14.702145
42
-0.038482
0
VERTEX
8
1
10
38.236359
20
14.844112
42
0.140758
0
VERTEX
8
1
10
38.228409
20
14.906231
0
VERTEX
8
1
10
38.216827
20
14.915558
0
VERTEX
8
1
10
38.190552
20
14.893795
0
VERTEX
8
1
10
38.165039
20
14.868675
42
0.073651
0
VERTEX
8
1
10
37.938774
20
14.492741
42
-0.027780
0
VERTEX
8
1
10
37.640434
20
13.966595
42
0.073846
0
VERTEX
8
1
10
37.366531
20
13.320549
0
VERTEX
8
1
10
37.347122
20
13.255875
0
VERTEX
8
1
10
37.327507
20
13.191147
42
-0.072159
0
VERTEX
8
1
10
37.068909
20
12.603001
42
0.054011
0
VERTEX
8
1
10
36.911491
20
12.204399
0
VERTEX
8
1
10
36.828316
20
11.990036
42
0.143035
0
VERTEX
8
1
10
36.797531
20
11.333031
42
0.123488
0
VERTEX
8
1
10
36.905777
20
11.147530
42
0.034095
0
VERTEX
8
1
10
37.084518
20
11.468132
42
-0.341883
0
VERTEX
8
1
10
37.074432
20
11.498070
42
0.039595
0
VERTEX
8
1
10
37.016449
20
11.700394
42
-0.186208
0
VERTEX
8
1
10
37.074402
20
12.146561
42
-0.070666
0
VERTEX
8
1
10
37.378555
20
12.583775
42
0.043399
0
VERTEX
8
1
10
37.621521
20
12.928261
0
VERTEX
8
1
10
37.647324
20
12.982128
42
-0.000814
0
SEQEND
0
POLYLINE
8
1
66
1
70
1
0
VERTEX
8
1
10
38.815048
20
14.376690
0
VERTEX
8
1
10
38.794487
20
14.502468
0
VERTEX
8
1
10
38.787720
20
14.499901
42
-0.059127
0
VERTEX
8
1
10
38.564674
20
14.103535
42
0.035828
0
VERTEX
8
1
10
38.420486
20
13.778851
42
0.023602
0
VERTEX
8
1
10
38.185440
20
13.242928
0
VERTEX
8
1
10
38.040886
20
12.993809
42
0.123246
0
VERTEX
8
1
10
38.010773
20
12.878353
0
VERTEX
8
1
10
38.023712
20
12.873180
42
-0.036119
0
VERTEX
8
1
10
38.238007
20
12.915398
42
-0.036371
0
VERTEX
8
1
10
38.266235
20
12.974545
0
VERTEX
8
1
10
38.326332
20
12.974541
42
-0.123391
0
VERTEX
8
1
10
38.399529
20
13.213089
42
-0.007845
0
VERTEX
8
1
10
38.646461
20
13.642902
0
VERTEX
8
1
10
38.659004
20
13.668808
42
-0.009667
0
VERTEX
8
1
10
38.843750
20
14.089607
42
0.168229
0
VERTEX
8
1
10
38.839485
20
14.288292
0
SEQEND
0
POLYLINE
8
1
66
1
70
1
0
VERTEX
8
1
10
39.119225
20
15.666264
42
-0.064340
0
VERTEX
8
1
10
39.219521
20
15.927345
42
-0.103408
0
VERTEX
8
1
10
39.302811
20
16.010387
42
-0.042017
0
VERTEX
8
1
10
39.120010
20
16.068142
0
VERTEX
8
1
10
39.111839
20
16.068336
42
0.079555
0
VERTEX
8
1
10
38.899849
20
15.970413
42
0.281835
0
VERTEX
8
1
10
38.778496
20
16.016354
42
0.066094
0
VERTEX
8
1
10
38.524773
20
15.932575
42
-0.149185
0
VERTEX
8
1
10
38.396515
20
15.922497
42
-0.048581
0
VERTEX
8
1
10
38.334862
20
15.991184
42
0.359000
0
VERTEX
8
1
10
38.209541
20
15.986431
42
-0.446882
0
VERTEX
8
1
10
38.090263
20
16.029049
42
-0.134077
0
VERTEX
8
1
10
37.984276
20
16.371681
42
0.015551
0
VERTEX
8
1
10
37.872604
20
17.075459
42
-0.006398
0
VERTEX
8
1
10
37.719589
20
18.010788
42
0.075848
0
VERTEX
8
1
10
37.485008
20
19.062611
42
0.022667
0
VERTEX
8
1
10
36.751045
20
20.740582
42
0.015450
0
VERTEX
8
1
10
36.677818
20
20.869282
42
0.199678
0
VERTEX
8
1
10
36.611603
20
20.910130
42
0.338293
0
VERTEX
8
1
10
36.569054
20
20.861282
0
VERTEX
8
1
10
36.564812
20
20.836491
42
0.110692
0
VERTEX
8
1
10
36.626419
20
20.565002
42
-0.021696
0
VERTEX
8
1
10
36.895958
20
19.835331
0
VERTEX
8
1
10
37.078217
20
19.331383
42
0.013026
0
VERTEX
8
1
10
37.163696
20
18.968246
42
0.025419
0
VERTEX
8
1
10
37.313164
20
18.652264
42
-0.085934
0
VERTEX
8
1
10
37.381767
20
18.399155
42
0.028568
0
VERTEX
8
1
10
37.507202
20
17.715748
42
-0.041476
0
VERTEX
8
1
10
37.633675
20
17.197865
42
-0.099226
0
VERTEX
8
1
10
37.671593
20
16.776695
0
VERTEX
8
1
10
37.665520
20
16.650421
42
-0.553824
0
VERTEX
8
1
10
37.581612
20
16.715778
0
VERTEX
8
1
10
37.579819
20
16.807636
0
VERTEX
8
1
10
37.574242
20
16.810852
0
VERTEX
8
1
10
37.564407
20
16.800110
0
VERTEX
8
1
10
37.555420
20
16.785862
42
0.050847
0
VERTEX
8
1
10
37.488441
20
16.533337
42
-0.023977
0
VERTEX
8
1
10
37.401260
20
16.275913
0
VERTEX
8
1
10
37.371773
20
16.231781
0
VERTEX
8
1
10
37.358086
20
16.231735
42
-0.173229
0
VERTEX
8
1
10
37.310440
20
16.357136
42
0.108927
0
VERTEX
8
1
10
37.262245
20
16.528805
0
VERTEX
8
1
10
37.226509
20
16.560532
42
-0.071366
0
VERTEX
8
1
10
37.138794
20
16.291122
42
0.034023
0
VERTEX
8
1
10
37.059242
20
15.914139
42
-0.043527
0
VERTEX
8
1
10
36.940804
20
15.559742
42
0.065999
0
VERTEX
8
1
10
36.863251
20
15.228001
0
VERTEX
8
1
10
36.863792
20
15.184757
0
VERTEX
8
1
10
36.875465
20
15.165165
42
0.045122
0
VERTEX
8
1
10
37.160492
20
15.261120
42
-0.117547
0
VERTEX
8
1
10
37.414429
20
15.289307
42
0.075972
0
VERTEX
8
1
10
37.582710
20
15.300385
42
0.103001
0
VERTEX
8
1
10
37.698486
20
15.396156
42
-0.195602
0
VERTEX
8
1
10
37.857063
20
15.440495
42
-0.168293
0
VERTEX
8
1
10
38.028275
20
15.399940
42
-0.251383
0
VERTEX
8
1
10
38.055725
20
15.325764
0
VERTEX
8
1
10
38.069244
20
15.309475
42
0.408915
0
VERTEX
8
1
10
38.213112
20
15.381290
42
-0.223721
0
VERTEX
8
1
10
38.351166
20
15.476639
42
-0.599120
0
VERTEX
8
1
10
38.436668
20
15.327415
0
VERTEX
8
1
10
38.436584
20
15.319263
42
0.110580
0
VERTEX
8
1
10
38.627357
20
15.381924
42
-0.057211
0
VERTEX
8
1
10
38.710129
20
15.453053
42
-0.157379
0
VERTEX
8
1
10
38.877441
20
15.433998
42
0.356348
0
VERTEX
8
1
10
39.049438
20
15.508564
42
0.089270
0
SEQEND
0
POLYLINE
8
1
66
1
70
1
0
VERTEX
8
1
10
40.017487
20
16.120155
42
0.287563
0
VERTEX
8
1
10
39.743813
20
16.117767
0
VERTEX
8
1
10
39.645149
20
16.067081
42
0.302903
0
VERTEX
8
1
10
39.649040
20
16.016758
0
VERTEX
8
1
10
39.666779
20
16.029510
0
VERTEX
8
1
10
39.749031
20
15.967842
42
-0.172996
0
VERTEX
8
1
10
39.845070
20
16.009190
0
VERTEX
8
1
10
39.868889
20
16.000637
42
-0.197533
0
VERTEX
8
1
10
39.922638
20
15.885612
0
VERTEX
8
1
10
39.927795
20
15.844315
0
VERTEX
8
1
10
39.930489
20
15.801052
42
-0.122794
0
VERTEX
8
1
10
39.741325
20
15.050976
42
-0.055543
0
VERTEX
8
1
10
39.482277
20
14.574917
42
-0.125258
0
VERTEX
8
1
10
39.272102
20
14.411079
0
VERTEX
8
1
10
39.177437
20
14.388363
42
0.087548
0
VERTEX
8
1
10
39.157135
20
14.133118
0
VERTEX
8
1
10
39.174194
20
14.120144
0
VERTEX
8
1
10
39.208687
20
14.118145
42
0.137342
0
VERTEX
8
1
10
39.445038
20
14.229305
42
0.036952
0
VERTEX
8
1
10
39.841789
20
14.600422
42
0.175043
0
VERTEX
8
1
10
40.222832
20
15.682838
0
VERTEX
8
1
10
40.219154
20
15.734482
42
0.192565
0
VERTEX
8
1
10
40.052299
20
16.095387
0
SEQEND
0
POLYLINE
8
1
66
1
70
1
0
VERTEX
8
1
10
10.312599
20
13.905947
42
-0.034267
0
VERTEX
8
1
10
10.218384
20
13.589403
42
0.094617
0
VERTEX
8
1
10
10.159424
20
13.137602
42
0.023520
0
VERTEX
8
1
10
10.221436
20
12.356615
42
0.083488
0
VERTEX
8
1
10
10.285622
20
12.179983
42
0.155208
0
VERTEX
8
1
10
10.438606
20
12.079212
42
0.056532
0
VERTEX
8
1
10
10.852844
20
11.976604
42
-0.101291
0
VERTEX
8
1
10
10.654327
20
12.507395
42
-0.055587
0
VERTEX
8
1
10
10.607674
20
13.101004
42
-0.095062
0
VERTEX
8
1
10
10.764427
20
13.995405
42
-0.032891
0
VERTEX
8
1
10
10.906624
20
14.314342
42
0.144948
0
VERTEX
8
1
10
10.609795
20
14.723198
42
0.198609
0
VERTEX
8
1
10
10.418480
20
14.751310
0
VERTEX
8
1
10
10.193390
20
14.702179
42
-0.119250
0
SEQEND
0
POLYLINE
8
1
66
1
70
1
0
VERTEX
8
1
10
28.502174
20
22.105106
0
VERTEX
8
1
10
28.503937
20
22.108627
0
VERTEX
8
1
10
28.697754
20
22.196060
42
-0.262382
0
VERTEX
8
1
10
28.947685
20
22.186691
42
-0.122855
0
VERTEX
8
1
10
29.269287
20
21.879513
0
VERTEX
8
1
10
29.267067
20
21.841923
42
0.138183
0
VERTEX
8
1
10
29.258347
20
20.489361
42
0.111238
0
VERTEX
8
1
10
29.626015
20
19.650047
42
0.036845
0
VERTEX
8
1
10
29.693169
20
19.578995
0
VERTEX
8
1
10
29.686150
20
19.570610
42
-0.049076
0
VERTEX
8
1
10
29.357658
20
19.578094
42
-0.123182
0
VERTEX
8
1
10
29.124611
20
19.637249
42
-0.143479
0
VERTEX
8
1
10
29.006134
20
19.814140
42
-0.030107
0
VERTEX
8
1
10
28.800346
20
20.501396
42
-0.098797
0
VERTEX
8
1
10
28.742409
20
20.918095
0
VERTEX
8
1
10
28.757385
20
21.097691
0
VERTEX
8
1
10
28.764809
20
21.155827
42
0.097266
0
VERTEX
8
1
10
28.730232
20
21.686165
42
0.107888
0
SEQEND
0
POLYLINE
8
1
66
1
70
1
0
VERTEX
8
1
10
29.626053
20
14.403439
42
-0.121019
0
VERTEX
8
1
10
29.753052
20
13.637810
42
-0.044239
0
VERTEX
8
1
10
29.653496
20
13.292309
42
0.094619
0
VERTEX
8
1
10
29.594536
20
12.840515
42
0.023523
0
VERTEX
8
1
10
29.656525
20
12.059532
42
0.083484
0
VERTEX
8
1
10
29.720726
20
11.882896
42
0.155200
0
VERTEX
8
1
10
29.873711
20
11.782127
42
0.056543
0
VERTEX
8
1
10
30.287949
20
11.679512
42
-0.101257
0
VERTEX
8
1
10
30.089432
20
12.210304
42
-0.055549
0
VERTEX
8
1
10
30.042770
20
12.803913
42
-0.095045
0
VERTEX
8
1
10
30.199524
20
13.698318
42
-0.032909
0
VERTEX
8
1
10
30.341728
20
14.017254
42
0.145001
0
VERTEX
8
1
10
30.044907
20
14.426109
42
0.198560
0
VERTEX
8
1
10
29.853584
20
14.454224
0
SEQEND
0
ENDSEC
0
EOF
