0
SECTION
2
HEADER
9
$EXTMIN
10
1.308382
20
0.151817
9
$EXTMAX
10
17.612921
20
11.619278
0
ENDSEC
0
SECTION
2
TABLES
0
TABLE
2
LTYPE
70
1
0
LTYPE
2
0
70
0
3
Solid Line
72
65
73
0
40
0.0
0
ENDTAB
0
TABLE
2
LAYER
70
1
0
LAYER
2
1
70
0
62
7
6
0
0
ENDTAB
0
ENDSEC
0
SECTION
2
BLOCKS
0
ENDSEC
0
SECTION
2
ENTITIES
0
POLYLINE
8
1
66
1
70
1
0
VERTEX
8
1
10
16.204853
20
0.672270
42
-0.679003
0
VERTEX
8
1
10
16.162710
20
0.720085
42
-0.066261
0
VERTEX
8
1
10
16.031406
20
0.682289
42
-0.082910
0
VERTEX
8
1
10
15.912720
20
0.597404
0
VERTEX
8
1
10
15.899689
20
0.582138
0
VERTEX
8
1
10
15.898936
20
0.582001
0
VERTEX
8
1
10
15.894757
20
0.591064
0
VERTEX
8
1
10
15.876767
20
0.586517
42
-0.079868
0
VERTEX
8
1
10
15.871381
20
0.641754
42
-0.028947
0
VERTEX
8
1
10
15.859625
20
0.696602
42
-0.010695
0
VERTEX
8
1
10
15.806829
20
0.710808
42
-0.024730
0
VERTEX
8
1
10
15.622250
20
0.593002
42
-0.245447
0
VERTEX
8
1
10
15.597242
20
0.699890
0
VERTEX
8
1
10
15.597638
20
0.717827
42
0.114912
0
VERTEX
8
1
10
15.478919
20
0.645729
42
-0.110816
0
VERTEX
8
1
10
15.335333
20
0.565735
0
VERTEX
8
1
10
15.316136
20
0.564713
0
VERTEX
8
1
10
15.303205
20
0.565529
42
-0.045028
0
VERTEX
8
1
10
15.285547
20
0.542686
0
VERTEX
8
1
10
15.295416
20
0.567970
42
-0.042496
0
VERTEX
8
1
10
15.276826
20
0.577690
0
VERTEX
8
1
10
15.280912
20
0.597476
42
-0.159468
0
VERTEX
8
1
10
15.408573
20
0.799990
0
VERTEX
8
1
10
15.431943
20
0.819496
42
-0.094194
0
VERTEX
8
1
10
15.634843
20
0.982796
42
0.072952
0
VERTEX
8
1
10
15.721575
20
1.118599
0
VERTEX
8
1
10
15.719884
20
1.121979
42
0.070034
0
VERTEX
8
1
10
15.663379
20
1.111488
42
0.133109
0
VERTEX
8
1
10
15.713144
20
1.163456
42
0.088117
0
VERTEX
8
1
10
15.851495
20
1.440535
42
-0.115088
0
VERTEX
8
1
10
15.980593
20
1.647972
42
0.203396
0
VERTEX
8
1
10
16.060093
20
1.757027
42
0.044874
0
VERTEX
8
1
10
16.087765
20
1.905708
42
0.203658
0
VERTEX
8
1
10
15.966394
20
2.176567
42
-0.281112
0
VERTEX
8
1
10
15.963500
20
2.026527
0
VERTEX
8
1
10
15.951468
20
2.017891
0
VERTEX
8
1
10
15.928290
20
2.040512
42
0.050716
0
VERTEX
8
1
10
15.675162
20
2.282631
0
VERTEX
8
1
10
15.645985
20
2.299210
0
VERTEX
8
1
10
15.626435
20
2.305893
42
0.028432
0
VERTEX
8
1
10
15.619687
20
2.232971
42
0.050797
0
VERTEX
8
1
10
15.250003
20
2.493431
0
VERTEX
8
1
10
15.241309
20
2.494041
42
0.047596
0
VERTEX
8
1
10
15.234421
20
2.421448
42
-0.009609
0
VERTEX
8
1
10
14.921310
20
2.685035
42
-0.023117
0
VERTEX
8
1
10
14.908547
20
2.587555
0
VERTEX
8
1
10
14.900622
20
2.584602
42
-0.122604
0
VERTEX
8
1
10
14.771391
20
2.676697
42
0.016867
0
VERTEX
8
1
10
14.650126
20
2.779938
0
VERTEX
8
1
10
14.640151
20
2.776940
42
0.002072
0
VERTEX
8
1
10
14.627162
20
2.619513
42
-0.206995
0
VERTEX
8
1
10
14.511883
20
2.667674
42
-0.106031
0
VERTEX
8
1
10
14.356206
20
2.860443
0
VERTEX
8
1
10
14.348352
20
2.670944
42
0.220022
0
VERTEX
8
1
10
14.371540
20
2.470360
0
VERTEX
8
1
10
14.392455
20
2.433655
42
-0.015698
0
VERTEX
8
1
10
14.517331
20
2.245567
0
VERTEX
8
1
10
14.500260
20
2.229904
42
0.123188
0
VERTEX
8
1
10
14.354340
20
2.288666
42
0.152174
0
VERTEX
8
1
10
14.394846
20
2.079192
42
0.003780
0
VERTEX
8
1
10
14.460515
20
1.923654
42
0.079030
0
VERTEX
8
1
10
14.425594
20
1.934349
42
0.106238
0
VERTEX
8
1
10
14.395395
20
1.960418
42
-0.034027
0
VERTEX
8
1
10
14.346311
20
2.000938
0
VERTEX
8
1
10
14.336056
20
1.992691
0
VERTEX
8
1
10
14.328924
20
1.965828
0
VERTEX
8
1
10
14.328633
20
1.935677
42
0.085549
0
VERTEX
8
1
10
14.386971
20
1.763598
42
-0.050699
0
VERTEX
8
1
10
14.432244
20
1.628258
0
VERTEX
8
1
10
14.424600
20
1.619919
42
-0.207618
0
VERTEX
8
1
10
14.310423
20
1.661674
42
0.019996
0
VERTEX
8
1
10
14.485014
20
1.155303
0
VERTEX
8
1
10
14.496311
20
1.117233
42
-0.015134
0
VERTEX
8
1
10
14.384278
20
1.214917
42
0.057156
0
VERTEX
8
1
10
14.265405
20
1.289566
0
VERTEX
8
1
10
14.247846
20
1.281815
0
VERTEX
8
1
10
14.241978
20
1.246857
42
0.102300
0
VERTEX
8
1
10
14.291166
20
1.009591
42
-0.029639
0
VERTEX
8
1
10
14.328697
20
0.869324
0
VERTEX
8
1
10
14.319522
20
0.856461
0
VERTEX
8
1
10
14.298483
20
0.862694
42
-0.171566
0
VERTEX
8
1
10
14.108367
20
1.050674
42
0.210572
0
VERTEX
8
1
10
14.079103
20
0.939412
42
0.117488
0
VERTEX
8
1
10
14.154194
20
0.670830
42
0.002588
0
VERTEX
8
1
10
13.999795
20
0.753304
0
VERTEX
8
1
10
13.995569
20
0.741302
0
VERTEX
8
1
10
14.004805
20
0.669106
0
VERTEX
8
1
10
13.979319
20
0.609917
0
VERTEX
8
1
10
13.925862
20
0.562508
0
VERTEX
8
1
10
13.851185
20
0.525673
0
VERTEX
8
1
10
13.762035
20
0.498169
42
-0.075152
0
VERTEX
8
1
10
13.295554
20
0.462662
0
VERTEX
8
1
10
13.186357
20
0.445488
42
0.149046
0
VERTEX
8
1
10
13.064743
20
0.238091
0
VERTEX
8
1
10
13.058713
20
0.235184
42
-0.142223
0
VERTEX
8
1
10
12.985311
20
0.261589
42
0.004009
0
VERTEX
8
1
10
13.020850
20
0.360077
42
-0.035176
0
VERTEX
8
1
10
13.007836
20
0.360886
42
0.166942
0
VERTEX
8
1
10
12.988245
20
0.413025
42
0.104527
0
VERTEX
8
1
10
12.947320
20
0.413246
0
VERTEX
8
1
10
12.923273
20
0.390722
42
0.044833
0
VERTEX
8
1
10
12.833571
20
0.297029
42
-0.151005
0
VERTEX
8
1
10
12.766584
20
0.258965
42
0.100987
0
VERTEX
8
1
10
12.710773
20
0.256755
42
-0.437750
0
VERTEX
8
1
10
12.683835
20
0.290677
42
-0.146135
0
VERTEX
8
1
10
12.703711
20
0.349548
0
VERTEX
8
1
10
12.679873
20
0.348862
42
0.110831
0
VERTEX
8
1
10
12.498637
20
0.232209
42
-0.113420
0
VERTEX
8
1
10
12.375513
20
0.173126
42
-0.195219
0
VERTEX
8
1
10
12.406692
20
0.344688
0
VERTEX
8
1
10
12.406525
20
0.352837
42
0.024706
0
VERTEX
8
1
10
12.115054
20
0.188225
0
VERTEX
8
1
10
12.096269
20
0.183052
42
-0.157612
0
VERTEX
8
1
10
12.072069
20
0.309677
0
VERTEX
8
1
10
12.057043
20
0.307510
0
VERTEX
8
1
10
12.030476
20
0.292732
0
VERTEX
8
1
10
12.002005
20
0.274055
42
-0.057388
0
VERTEX
8
1
10
11.817840
20
0.158164
42
-0.181891
0
VERTEX
8
1
10
11.727973
20
0.161697
0
VERTEX
8
1
10
11.728891
20
0.186554
42
-0.159225
0
VERTEX
8
1
10
11.832530
20
0.354073
0
VERTEX
8
1
10
11.868430
20
0.386429
42
-0.258929
0
VERTEX
8
1
10
11.904769
20
0.629646
42
0.014168
0
VERTEX
8
1
10
12.158546
20
0.839824
42
-0.086043
0
VERTEX
8
1
10
12.396176
20
0.964912
42
-0.016472
0
VERTEX
8
1
10
12.405006
20
0.997391
0
VERTEX
8
1
10
12.498459
20
1.026909
0
VERTEX
8
1
10
12.584593
20
1.079803
0
VERTEX
8
1
10
12.652544
20
1.150642
0
VERTEX
8
1
10
12.703208
20
1.235840
0
VERTEX
8
1
10
12.737479
20
1.331802
42
0.195172
0
VERTEX
8
1
10
12.648977
20
1.932823
0
VERTEX
8
1
10
12.599742
20
1.994797
42
-0.136022
0
VERTEX
8
1
10
12.528493
20
1.800980
0
VERTEX
8
1
10
12.522172
20
1.800713
42
0.107742
0
VERTEX
8
1
10
12.513673
20
1.990719
42
0.024890
0
VERTEX
8
1
10
12.445517
20
2.255714
42
0.064439
0
VERTEX
8
1
10
12.354503
20
2.545151
0
VERTEX
8
1
10
12.322682
20
2.529701
0
VERTEX
8
1
10
12.292759
20
2.518524
0
VERTEX
8
1
10
12.270273
20
2.526421
0
VERTEX
8
1
10
12.254241
20
2.550079
0
VERTEX
8
1
10
12.243681
20
2.586182
0
VERTEX
8
1
10
12.237608
20
2.631400
42
-0.019741
0
VERTEX
8
1
10
12.240357
20
2.908364
42
0.087812
0
VERTEX
8
1
10
12.077839
20
3.558708
42
0.092012
0
VERTEX
8
1
10
12.016522
20
3.645988
42
0.418164
0
VERTEX
8
1
10
11.958675
20
3.645586
42
0.169645
0
VERTEX
8
1
10
11.917201
20
3.572876
42
0.040047
0
VERTEX
8
1
10
11.894484
20
3.370056
42
-0.017634
0
VERTEX
8
1
10
11.835152
20
3.063736
0
VERTEX
8
1
10
11.845742
20
3.059769
42
0.125919
0
VERTEX
8
1
10
11.938476
20
3.097731
0
VERTEX
8
1
10
11.963670
20
3.112550
0
VERTEX
8
1
10
11.988381
20
3.128159
42
-0.127252
0
VERTEX
8
1
10
11.909388
20
2.885844
42
-0.022706
0
VERTEX
8
1
10
11.806164
20
2.729172
42
0.017239
0
VERTEX
8
1
10
11.913763
20
2.743240
0
VERTEX
8
1
10
11.911958
20
2.726242
42
-0.086646
0
VERTEX
8
1
10
11.806663
20
2.574193
42
0.037460
0
VERTEX
8
1
10
11.693484
20
2.424641
42
0.139997
0
VERTEX
8
1
10
11.668357
20
2.296356
0
VERTEX
8
1
10
11.675412
20
2.281769
42
0.076861
0
VERTEX
8
1
10
11.750229
20
2.293037
0
VERTEX
8
1
10
11.750217
20
2.259140
42
-0.114347
0
VERTEX
8
1
10
11.669717
20
2.067802
42
0.030939
0
VERTEX
8
1
10
11.410263
20
1.680496
42
0.344838
0
VERTEX
8
1
10
11.418746
20
1.633263
42
0.005629
0
VERTEX
8
1
10
11.541695
20
1.505981
0
VERTEX
8
1
10
11.535571
20
1.492828
0
VERTEX
8
1
10
11.515304
20
1.479576
42
-0.093377
0
VERTEX
8
1
10
11.369948
20
1.459572
42
0.576111
0
VERTEX
8
1
10
11.282228
20
1.321344
0
VERTEX
8
1
10
11.289908
20
1.310440
42
0.041384
0
VERTEX
8
1
10
11.401353
20
1.212830
0
VERTEX
8
1
10
11.416508
20
1.197021
0
VERTEX
8
1
10
11.404009
20
1.188759
42
-0.071150
0
VERTEX
8
1
10
11.257977
20
1.177744
42
0.542145
0
VERTEX
8
1
10
11.195051
20
1.051609
42
-0.030457
0
VERTEX
8
1
10
11.215972
20
0.978218
0
VERTEX
8
1
10
11.208212
20
0.964836
42
-0.024213
0
VERTEX
8
1
10
10.926530
20
0.925060
0
VERTEX
8
1
10
10.899249
20
0.918128
0
VERTEX
8
1
10
10.872671
20
0.908859
42
0.146912
0
VERTEX
8
1
10
10.904922
20
0.782479
42
-0.034501
0
VERTEX
8
1
10
10.947859
20
0.653938
0
VERTEX
8
1
10
10.949302
20
0.625999
42
-0.346254
0
VERTEX
8
1
10
10.898874
20
0.572021
0
VERTEX
8
1
10
10.864235
20
0.592155
42
0.370455
0
VERTEX
8
1
10
10.737867
20
0.564806
42
0.096982
0
VERTEX
8
1
10
10.698757
20
0.504700
0
VERTEX
8
1
10
10.607792
20
0.400162
42
-0.084136
0
VERTEX
8
1
10
10.289968
20
0.369486
42
0.005385
0
VERTEX
8
1
10
9.987267
20
0.378143
42
0.168350
0
VERTEX
8
1
10
9.789027
20
0.292931
0
VERTEX
8
1
10
9.759676
20
0.269096
0
VERTEX
8
1
10
9.748095
20
0.271965
42
-0.305122
0
VERTEX
8
1
10
9.745818
20
0.392937
42
0.171362
0
VERTEX
8
1
10
9.594339
20
0.351448
42
-0.120376
0
VERTEX
8
1
10
9.488687
20
0.301262
0
VERTEX
8
1
10
9.470452
20
0.299675
42
-0.200418
0
VERTEX
8
1
10
9.510294
20
0.434486
0
VERTEX
8
1
10
9.502458
20
0.442001
0
VERTEX
8
1
10
9.441711
20
0.453300
42
0.109221
0
VERTEX
8
1
10
9.281219
20
0.458669
42
0.290784
0
VERTEX
8
1
10
9.205294
20
0.365318
0
VERTEX
8
1
10
9.201117
20
0.349998
42
-0.312943
0
VERTEX
8
1
10
9.167883
20
0.352409
42
-0.169343
0
VERTEX
8
1
10
9.183249
20
0.486847
0
VERTEX
8
1
10
9.185246
20
0.497955
42
0.061465
0
VERTEX
8
1
10
9.026739
20
0.570550
42
0.201972
0
VERTEX
8
1
10
8.824614
20
0.531406
0
VERTEX
8
1
10
8.817824
20
0.523185
42
0.069678
0
VERTEX
8
1
10
8.852000
20
0.639206
0
VERTEX
8
1
10
8.855745
20
0.644318
42
-0.018704
0
VERTEX
8
1
10
8.911226
20
0.671547
42
0.269942
0
VERTEX
8
1
10
8.809371
20
0.738092
42
0.123314
0
VERTEX
8
1
10
8.673548
20
0.726517
42
0.012090
0
VERTEX
8
1
10
8.443708
20
0.652519
0
VERTEX
8
1
10
8.414968
20
0.647316
42
-0.133897
0
VERTEX
8
1
10
8.441953
20
0.725296
0
VERTEX
8
1
10
8.475148
20
0.731758
0
VERTEX
8
1
10
8.476934
20
0.733681
0
VERTEX
8
1
10
8.486122
20
0.766190
0
VERTEX
8
1
10
8.498602
20
0.772087
42
0.160782
0
VERTEX
8
1
10
8.659590
20
0.890427
42
-0.224178
0
VERTEX
8
1
10
8.581766
20
0.938423
42
-0.071101
0
VERTEX
8
1
10
8.738900
20
0.973351
0
VERTEX
8
1
10
8.753862
20
0.969719
42
0.280832
0
VERTEX
8
1
10
8.848910
20
0.963054
42
0.120617
0
VERTEX
8
1
10
8.948089
20
1.024852
42
0.098771
0
VERTEX
8
1
10
8.956186
20
1.053146
0
VERTEX
8
1
10
8.980659
20
1.057579
42
-0.105517
0
VERTEX
8
1
10
9.174410
20
1.016843
42
0.094580
0
VERTEX
8
1
10
9.297043
20
1.003693
42
0.056824
0
VERTEX
8
1
10
9.267627
20
1.101151
0
VERTEX
8
1
10
9.298807
20
1.088394
0
VERTEX
8
1
10
9.425207
20
1.051216
0
VERTEX
8
1
10
9.529553
20
1.067513
0
VERTEX
8
1
10
9.613767
20
1.128540
0
VERTEX
8
1
10
9.679771
20
1.225502
0
VERTEX
8
1
10
9.729490
20
1.349655
0
VERTEX
8
1
10
9.764847
20
1.492218
42
0.065993
0
VERTEX
8
1
10
9.793498
20
2.174416
0
VERTEX
8
1
10
9.784504
20
2.211990
42
-0.116739
0
VERTEX
8
1
10
9.676059
20
2.129524
0
VERTEX
8
1
10
9.674114
20
2.157745
42
-0.043764
0
VERTEX
8
1
10
9.740312
20
2.448778
42
0.094561
0
VERTEX
8
1
10
9.754431
20
2.722183
42
0.021834
0
VERTEX
8
1
10
9.667374
20
3.143761
42
-0.300410
0
VERTEX
8
1
10
9.530675
20
3.087639
0
VERTEX
8
1
10
9.522240
20
3.104004
42
0.064460
0
VERTEX
8
1
10
9.545010
20
3.417419
42
0.119256
0
VERTEX
8
1
10
9.338690
20
3.930786
0
VERTEX
8
1
10
9.332969
20
3.926956
42
-0.262015
0
VERTEX
8
1
10
9.282005
20
3.831836
42
-0.310526
0
VERTEX
8
1
10
9.226577
20
3.845314
42
-0.035228
0
VERTEX
8
1
10
9.197194
20
4.007042
42
0.112778
0
VERTEX
8
1
10
9.003967
20
4.419220
0
VERTEX
8
1
10
8.773814
20
4.624008
42
0.493363
0
VERTEX
8
1
10
8.745644
20
4.617147
42
0.121146
0
VERTEX
8
1
10
8.731557
20
4.583199
42
-0.049928
0
VERTEX
8
1
10
8.695670
20
4.415833
0
VERTEX
8
1
10
8.682780
20
4.421982
42
-0.161373
0
VERTEX
8
1
10
8.647830
20
4.520710
42
0.002166
0
VERTEX
8
1
10
8.624199
20
4.649170
42
0.069533
0
VERTEX
8
1
10
8.475181
20
4.898529
0
VERTEX
8
1
10
8.460854
20
4.910820
0
VERTEX
8
1
10
8.452258
20
4.897797
42
0.052562
0
VERTEX
8
1
10
8.405036
20
4.744080
0
VERTEX
8
1
10
8.397108
20
4.743805
42
0.099617
0
VERTEX
8
1
10
8.161911
20
4.986259
0
VERTEX
8
1
10
8.149026
20
4.981842
0
VERTEX
8
1
10
8.142436
20
4.965164
42
0.011394
0
VERTEX
8
1
10
8.100297
20
4.788292
42
-0.164276
0
VERTEX
8
1
10
8.063262
20
4.810387
42
-0.006306
0
VERTEX
8
1
10
7.989274
20
4.920746
0
VERTEX
8
1
10
7.976923
20
4.932106
42
0.162607
0
VERTEX
8
1
10
7.931810
20
4.835861
42
0.068772
0
VERTEX
8
1
10
7.923561
20
4.664696
0
VERTEX
8
1
10
7.919278
20
4.648796
42
-0.088913
0
VERTEX
8
1
10
7.756001
20
4.808548
0
VERTEX
8
1
10
7.747193
20
4.816437
42
0.050050
0
VERTEX
8
1
10
7.692954
20
4.797546
42
0.115571
0
VERTEX
8
1
10
7.676860
20
4.541640
42
0.021317
0
VERTEX
8
1
10
7.761511
20
4.194007
42
-0.070368
0
VERTEX
8
1
10
7.700106
20
4.279088
42
0.120972
0
VERTEX
8
1
10
7.624701
20
4.339737
0
VERTEX
8
1
10
7.604816
20
4.343559
0
VERTEX
8
1
10
7.584531
20
4.338165
42
0.101426
0
VERTEX
8
1
10
7.624811
20
3.787033
0
VERTEX
8
1
10
7.642592
20
3.739349
0
VERTEX
8
1
10
7.651849
20
3.709419
42
0.070952
0
VERTEX
8
1
10
7.519380
20
3.726936
0
VERTEX
8
1
10
7.509061
20
3.702232
42
0.054766
0
VERTEX
8
1
10
7.512146
20
3.511894
0
VERTEX
8
1
10
7.528633
20
3.366142
42
-0.054509
0
VERTEX
8
1
10
7.530651
20
3.168762
0
VERTEX
8
1
10
7.522060
20
3.162704
0
VERTEX
8
1
10
7.473950
20
3.218384
42
0.084590
0
VERTEX
8
1
10
7.405808
20
3.275688
42
-0.049721
0
VERTEX
8
1
10
7.348424
20
3.046376
42
0.012371
0
VERTEX
8
1
10
7.260035
20
2.703087
0
VERTEX
8
1
10
7.251920
20
2.676514
0
VERTEX
8
1
10
7.243151
20
2.660583
42
-0.156152
0
VERTEX
8
1
10
7.146013
20
2.714310
0
VERTEX
8
1
10
7.136615
20
2.706978
42
0.073736
0
VERTEX
8
1
10
7.102053
20
2.564445
42
-0.021757
0
VERTEX
8
1
10
7.045872
20
2.105179
0
VERTEX
8
1
10
7.037378
20
2.070679
0
VERTEX
8
1
10
7.029171
20
2.042770
0
VERTEX
8
1
10
7.017545
20
2.048370
42
0.030157
0
VERTEX
8
1
10
6.894342
20
2.141113
0
VERTEX
8
1
10
6.882792
20
2.138283
42
-0.039345
0
VERTEX
8
1
10
6.836825
20
1.693451
0
VERTEX
8
1
10
6.828998
20
1.675362
0
VERTEX
8
1
10
6.698063
20
1.778938
0
VERTEX
8
1
10
6.694067
20
1.762146
42
-0.063252
0
VERTEX
8
1
10
6.668431
20
1.599694
42
0.007842
0
VERTEX
8
1
10
6.627425
20
1.402878
0
VERTEX
8
1
10
6.610846
20
1.395767
42
-0.197074
0
VERTEX
8
1
10
6.519022
20
1.434505
42
0.027021
0
VERTEX
8
1
10
6.440248
20
1.485764
42
0.040285
0
VERTEX
8
1
10
6.438238
20
1.376973
42
-0.056417
0
VERTEX
8
1
10
6.420907
20
1.211304
0
VERTEX
8
1
10
6.411572
20
1.188156
0
VERTEX
8
1
10
6.400046
20
1.172913
42
-0.075546
0
VERTEX
8
1
10
6.286005
20
1.219856
0
VERTEX
8
1
10
6.182317
20
1.128830
42
0.023851
0
VERTEX
8
1
10
6.184674
20
1.183350
42
-0.048589
0
VERTEX
8
1
10
5.976971
20
1.036484
0
VERTEX
8
1
10
5.957246
20
1.022675
0
VERTEX
8
1
10
5.937802
20
1.008469
42
0.097439
0
VERTEX
8
1
10
5.792346
20
0.920600
42
-0.192338
0
VERTEX
8
1
10
5.563951
20
0.860707
42
0.032067
0
VERTEX
8
1
10
5.426968
20
0.854721
0
VERTEX
8
1
10
5.404924
20
0.842247
42
0.145932
0
VERTEX
8
1
10
5.363167
20
0.498695
0
VERTEX
8
1
10
5.354784
20
0.499832
42
-0.110949
0
VERTEX
8
1
10
5.215341
20
0.727791
42
-0.060193
0
VERTEX
8
1
10
5.204010
20
0.809570
0
VERTEX
8
1
10
5.173750
20
0.835876
0
VERTEX
8
1
10
5.140092
20
0.844620
0
VERTEX
8
1
10
5.111786
20
0.837387
42
0.160868
0
VERTEX
8
1
10
5.054335
20
0.747292
42
0.059004
0
VERTEX
8
1
10
5.021189
20
0.506813
42
0.038299
0
VERTEX
8
1
10
4.921475
20
0.685179
42
-0.135972
0
VERTEX
8
1
10
4.902067
20
0.800377
42
0.131751
0
VERTEX
8
1
10
4.823152
20
0.811218
42
0.135339
0
VERTEX
8
1
10
4.783804
20
0.689682
42
-0.003589
0
VERTEX
8
1
10
4.775426
20
0.478142
0
VERTEX
8
1
10
4.763812
20
0.482025
42
-0.070280
0
VERTEX
8
1
10
4.703924
20
0.607701
42
0.006740
0
VERTEX
8
1
10
4.640312
20
0.764885
0
VERTEX
8
1
10
4.630403
20
0.760956
42
-0.004407
0
VERTEX
8
1
10
4.523741
20
0.661095
42
-0.049694
0
VERTEX
8
1
10
4.523396
20
0.426125
0
VERTEX
8
1
10
4.518261
20
0.408684
0
VERTEX
8
1
10
4.511013
20
0.404732
42
0.019394
0
VERTEX
8
1
10
4.411871
20
0.583250
42
-0.170553
0
VERTEX
8
1
10
4.408310
20
0.681526
0
VERTEX
8
1
10
4.401003
20
0.698189
42
0.354709
0
VERTEX
8
1
10
4.306369
20
0.641324
42
0.122953
0
VERTEX
8
1
10
4.272471
20
0.495430
0
VERTEX
8
1
10
4.264428
20
0.501251
42
-0.090036
0
VERTEX
8
1
10
4.202142
20
0.742165
42
-0.484847
0
VERTEX
8
1
10
4.071816
20
0.745659
42
-0.230579
0
VERTEX
8
1
10
4.125561
20
0.932043
42
-0.095129
0
VERTEX
8
1
10
4.289191
20
1.069620
42
-0.046742
0
VERTEX
8
1
10
4.547380
20
1.196625
0
VERTEX
8
1
10
4.747642
20
1.318459
42
0.094769
0
VERTEX
8
1
10
4.645191
20
1.349113
0
VERTEX
8
1
10
4.654507
20
1.370872
42
-0.141015
0
VERTEX
8
1
10
4.783329
20
1.454223
42
0.059347
0
VERTEX
8
1
10
4.958814
20
1.544580
42
0.105425
0
VERTEX
8
1
10
5.026918
20
1.628838
42
-0.065150
0
VERTEX
8
1
10
5.061206
20
1.636940
0
VERTEX
8
1
10
5.063830
20
1.642456
42
-0.127095
0
VERTEX
8
1
10
5.130148
20
1.806564
42
0.171058
0
VERTEX
8
1
10
5.169199
20
1.953217
0
VERTEX
8
1
10
5.160436
20
1.976990
42
0.220897
0
VERTEX
8
1
10
5.018040
20
1.952782
0
VERTEX
8
1
10
5.022208
20
1.977470
42
0.084272
0
VERTEX
8
1
10
5.100357
20
2.491982
0
VERTEX
8
1
10
5.094588
20
2.500740
42
0.045731
0
VERTEX
8
1
10
4.997449
20
2.491272
42
-0.054769
0
VERTEX
8
1
10
5.023414
20
2.789961
42
0.029940
0
VERTEX
8
1
10
5.057281
20
3.127591
42
0.072851
0
VERTEX
8
1
10
5.026608
20
3.306267
42
-0.066396
0
VERTEX
8
1
10
4.945657
20
3.280785
0
VERTEX
8
1
10
4.940793
20
3.301880
0
VERTEX
8
1
10
4.940057
20
3.354385
42
-0.047154
0
VERTEX
8
1
10
4.999326
20
3.668304
42
0.060020
0
VERTEX
8
1
10
5.027175
20
3.883636
0
VERTEX
8
1
10
5.022300
20
3.902077
42
0.027777
0
VERTEX
8
1
10
4.919794
20
3.877609
42
0.057460
0
VERTEX
8
1
10
4.966740
20
4.121007
42
-0.007160
0
VERTEX
8
1
10
5.010509
20
4.404602
42
0.081617
0
VERTEX
8
1
10
4.999714
20
4.537888
0
VERTEX
8
1
10
4.989895
20
4.552864
42
-0.123937
0
VERTEX
8
1
10
4.953557
20
4.549463
42
0.042524
0
VERTEX
8
1
10
4.894995
20
4.544945
42
0.111375
0
VERTEX
8
1
10
4.985917
20
4.797238
42
0.030414
0
VERTEX
8
1
10
5.013855
20
5.063881
0
VERTEX
8
1
10
5.008241
20
5.075401
42
-0.154221
0
VERTEX
8
1
10
4.885499
20
5.073891
42
0.021324
0
VERTEX
8
1
10
5.100507
20
5.576073
42
-0.209353
0
VERTEX
8
1
10
5.066051
20
5.582329
42
-0.093336
0
VERTEX
8
1
10
4.996591
20
5.571869
0
VERTEX
8
1
10
4.994722
20
5.581032
0
VERTEX
8
1
10
4.999290
20
5.599075
42
-0.021364
0
VERTEX
8
1
10
5.074209
20
5.773873
0
VERTEX
8
1
10
5.070805
20
5.781883
42
-0.120332
0
VERTEX
8
1
10
5.009269
20
5.886421
42
0.128388
0
VERTEX
8
1
10
4.307094
20
5.852798
42
0.202334
0
VERTEX
8
1
10
4.224824
20
5.765686
42
0.106650
0
VERTEX
8
1
10
4.188492
20
5.588440
0
VERTEX
8
1
10
4.183746
20
5.574638
42
0.160805
0
VERTEX
8
1
10
4.030454
20
5.718796
0
VERTEX
8
1
10
4.009356
20
5.724281
0
VERTEX
8
1
10
3.999964
20
5.718605
0
VERTEX
8
1
10
3.998423
20
5.707733
42
-0.014939
0
VERTEX
8
1
10
3.961406
20
5.613754
42
0.121919
0
VERTEX
8
1
10
3.763954
20
5.735153
42
0.312210
0
VERTEX
8
1
10
3.689028
20
5.713318
0
VERTEX
8
1
10
3.679889
20
5.682495
0
VERTEX
8
1
10
3.681664
20
5.637222
0
VERTEX
8
1
10
3.695665
20
5.576942
42
0.050857
0
VERTEX
8
1
10
3.550845
20
5.717849
42
0.137564
0
VERTEX
8
1
10
3.421983
20
5.759308
0
VERTEX
8
1
10
3.397319
20
5.754860
42
-0.072329
0
VERTEX
8
1
10
3.391467
20
5.698585
42
0.036708
0
VERTEX
8
1
10
3.384324
20
5.607712
0
VERTEX
8
1
10
3.380355
20
5.606216
42
0.055099
0
VERTEX
8
1
10
3.191215
20
5.749809
0
VERTEX
8
1
10
3.155117
20
5.739807
0
VERTEX
8
1
10
3.110250
20
5.720078
0
VERTEX
8
1
10
3.065685
20
5.703262
42
-0.258381
0
VERTEX
8
1
10
2.664035
20
5.757636
42
-0.013085
0
VERTEX
8
1
10
2.573010
20
5.822639
42
0.041184
0
VERTEX
8
1
10
2.292646
20
5.834778
42
-0.013804
0
VERTEX
8
1
10
2.282506
20
5.917854
0
VERTEX
8
1
10
2.260922
20
5.921028
42
-0.109467
0
VERTEX
8
1
10
1.835710
20
6.003868
42
-0.126670
0
VERTEX
8
1
10
1.639306
20
6.175995
42
0.022277
0
VERTEX
8
1
10
1.496850
20
6.365942
42
0.069336
0
VERTEX
8
1
10
1.408348
20
6.438881
0
VERTEX
8
1
10
1.341611
20
6.500282
0
VERTEX
8
1
10
1.309955
20
6.569489
0
VERTEX
8
1
10
1.308382
20
6.644516
0
VERTEX
8
1
10
1.331893
20
6.723396
0
VERTEX
8
1
10
1.375491
20
6.804146
42
-0.065835
0
VERTEX
8
1
10
1.640551
20
7.095529
42
-0.008421
0
VERTEX
8
1
10
1.855486
20
7.282302
42
0.115972
0
VERTEX
8
1
10
1.874480
20
7.317764
42
-0.092338
0
VERTEX
8
1
10
1.897207
20
7.314743
42
0.045229
0
VERTEX
8
1
10
2.096509
20
7.488937
42
0.039659
0
VERTEX
8
1
10
2.175120
20
7.619057
42
0.162793
0
VERTEX
8
1
10
2.158587
20
7.843091
0
VERTEX
8
1
10
2.146062
20
7.882903
0
VERTEX
8
1
10
2.134123
20
7.922894
42
-0.214191
0
VERTEX
8
1
10
2.160797
20
8.195328
42
-0.006011
0
VERTEX
8
1
10
2.331565
20
8.514016
0
VERTEX
8
1
10
2.358493
20
8.575937
42
-0.021097
0
VERTEX
8
1
10
2.510388
20
8.895193
42
0.021920
0
VERTEX
8
1
10
2.599158
20
9.103699
0
VERTEX
8
1
10
2.609967
20
9.145615
0
VERTEX
8
1
10
2.614849
20
9.186020
0
VERTEX
8
1
10
2.599666
20
9.244034
0
VERTEX
8
1
10
2.563296
20
9.319649
42
-0.017725
0
VERTEX
8
1
10
2.343348
20
9.715126
0
VERTEX
8
1
10
2.304098
20
9.816498
0
VERTEX
8
1
10
2.284884
20
9.910576
0
VERTEX
8
1
10
2.292578
20
9.993195
0
VERTEX
8
1
10
2.334049
20
10.060219
0
VERTEX
8
1
10
2.416168
20
10.107491
0
VERTEX
8
1
10
2.482037
20
10.133522
42
-0.120181
0
VERTEX
8
1
10
2.547404
20
10.398025
42
-0.188391
0
VERTEX
8
1
10
2.668284
20
10.487124
42
-0.198974
0
VERTEX
8
1
10
2.708070
20
10.471878
0
VERTEX
8
1
10
2.728807
20
10.447274
42
0.113902
0
VERTEX
8
1
10
2.888291
20
10.325270
42
0.023415
0
VERTEX
8
1
10
3.061785
20
10.245231
42
-0.093871
0
VERTEX
8
1
10
3.231427
20
10.117139
42
0.158267
0
VERTEX
8
1
10
3.362239
20
10.059036
0
VERTEX
8
1
10
3.388742
20
10.063286
42
-0.104053
0
VERTEX
8
1
10
3.527154
20
10.233444
42
0.089796
0
VERTEX
8
1
10
3.571080
20
10.207893
42
-0.013660
0
VERTEX
8
1
10
3.631811
20
10.397812
42
-0.031653
0
VERTEX
8
1
10
3.711111
20
10.356056
0
VERTEX
8
1
10
3.720859
20
10.353745
42
-0.119997
0
VERTEX
8
1
10
3.896486
20
10.366915
42
-0.043977
0
VERTEX
8
1
10
4.054663
20
10.337082
0
VERTEX
8
1
10
4.078359
20
10.336159
42
0.160906
0
VERTEX
8
1
10
4.200585
20
10.467865
0
VERTEX
8
1
10
4.205022
20
10.472115
42
-0.016148
0
VERTEX
8
1
10
4.286761
20
10.418816
42
0.120748
0
VERTEX
8
1
10
4.401821
20
10.602989
42
-0.095860
0
VERTEX
8
1
10
4.566511
20
10.565407
0
VERTEX
8
1
10
4.584491
20
10.563774
0
VERTEX
8
1
10
4.684475
20
10.655304
42
-0.073113
0
VERTEX
8
1
10
4.872094
20
10.792503
0
VERTEX
8
1
10
4.892704
20
10.791702
42
0.023534
0
VERTEX
8
1
10
4.960940
20
10.690178
42
0.510516
0
VERTEX
8
1
10
5.072464
20
10.720909
0
VERTEX
8
1
10
5.088740
20
10.750603
42
-0.363814
0
VERTEX
8
1
10
5.174828
20
10.798538
0
VERTEX
8
1
10
5.185420
20
10.782936
42
0.113436
0
VERTEX
8
1
10
5.292690
20
10.606553
42
0.223866
0
VERTEX
8
1
10
5.422369
20
10.576157
42
-0.105136
0
VERTEX
8
1
10
5.575777
20
10.589035
42
-0.030027
0
VERTEX
8
1
10
5.582489
20
10.536659
42
0.159727
0
VERTEX
8
1
10
5.887496
20
10.476692
42
0.165106
0
VERTEX
8
1
10
6.057950
20
10.572105
0
VERTEX
8
1
10
6.052262
20
10.546547
42
-0.010379
0
VERTEX
8
1
10
6.301305
20
10.732956
42
0.108831
0
VERTEX
8
1
10
6.379680
20
10.633804
0
VERTEX
8
1
10
6.450925
20
10.648972
0
VERTEX
8
1
10
6.468235
20
10.664543
0
VERTEX
8
1
10
6.500911
20
10.695091
42
-0.058252
0
VERTEX
8
1
10
6.937381
20
10.967957
0
VERTEX
8
1
10
6.948401
20
10.978401
42
0.023254
0
VERTEX
8
1
10
6.963855
20
11.068436
42
0.116055
0
VERTEX
8
1
10
7.021965
20
10.969574
0
VERTEX
8
1
10
7.025580
20
10.980675
42
-0.146819
0
VERTEX
8
1
10
7.085909
20
11.043831
0
VERTEX
8
1
10
7.094316
20
11.036026
0
VERTEX
8
1
10
7.106386
20
11.009171
42
0.595637
0
VERTEX
8
1
10
7.158671
20
11.001869
42
0.080255
0
VERTEX
8
1
10
7.254617
20
11.189031
42
-0.054599
0
VERTEX
8
1
10
7.339993
20
11.339981
42
0.036344
0
VERTEX
8
1
10
7.370557
20
11.237190
42
-0.041715
0
VERTEX
8
1
10
7.472066
20
11.291435
42
-0.059147
0
VERTEX
8
1
10
7.493659
20
11.200058
0
VERTEX
8
1
10
7.507364
20
11.205528
42
0.035648
0
VERTEX
8
1
10
7.674000
20
11.373920
42
-0.004877
0
VERTEX
8
1
10
7.868995
20
11.584381
0
VERTEX
8
1
10
7.883580
20
11.590454
42
-0.167701
0
VERTEX
8
1
10
7.872838
20
11.540907
42
0.096597
0
VERTEX
8
1
10
7.858765
20
11.459930
42
-0.059488
0
VERTEX
8
1
10
7.939753
20
11.491821
42
-0.070668
0
VERTEX
8
1
10
7.920702
20
11.355675
0
VERTEX
8
1
10
7.927748
20
11.346939
0
VERTEX
8
1
10
7.961593
20
11.356728
0
VERTEX
8
1
10
7.994619
20
11.373177
42
0.062155
0
VERTEX
8
1
10
8.176610
20
11.535405
42
-0.055306
0
VERTEX
8
1
10
8.282091
20
11.615845
0
VERTEX
8
1
10
8.299225
20
11.619278
42
-0.047961
0
VERTEX
8
1
10
8.248788
20
11.494110
42
-0.132917
0
VERTEX
8
1
10
8.326108
20
11.517044
0
VERTEX
8
1
10
8.333442
20
11.519302
0
VERTEX
8
1
10
8.332534
20
11.507538
42
0.095066
0
VERTEX
8
1
10
8.310526
20
11.364685
0
VERTEX
8
1
10
8.315529
20
11.351051
42
0.084806
0
VERTEX
8
1
10
8.666733
20
11.510597
0
VERTEX
8
1
10
8.683479
20
11.518471
0
VERTEX
8
1
10
8.682791
20
11.505920
42
-0.047110
0
VERTEX
8
1
10
8.642904
20
11.387497
0
VERTEX
8
1
10
8.644549
20
11.383385
42
-0.058138
0
VERTEX
8
1
10
8.742110
20
11.392365
0
VERTEX
8
1
10
8.744746
20
11.382751
42
-0.042997
0
VERTEX
8
1
10
8.723564
20
11.247871
0
VERTEX
8
1
10
8.751633
20
11.251991
0
VERTEX
8
1
10
8.782689
20
11.259583
42
0.015540
0
VERTEX
8
1
10
9.091927
20
11.378349
42
0.003787
0
VERTEX
8
1
10
9.053507
20
11.282098
0
VERTEX
8
1
10
9.055305
20
11.277451
42
0.046930
0
VERTEX
8
1
10
9.187473
20
11.269829
0
VERTEX
8
1
10
9.186796
20
11.261360
42
0.090556
0
VERTEX
8
1
10
9.087678
20
11.084190
0
VERTEX
8
1
10
9.113946
20
11.080467
0
VERTEX
8
1
10
9.149210
20
11.085075
42
0.050579
0
VERTEX
8
1
10
9.386067
20
11.177893
42
-0.059818
0
VERTEX
8
1
10
9.500217
20
11.208618
42
0.036566
0
VERTEX
8
1
10
9.466317
20
11.097880
0
VERTEX
8
1
10
9.467390
20
11.087646
42
0.494700
0
VERTEX
8
1
10
9.513252
20
11.060612
0
VERTEX
8
1
10
9.528199
20
11.063300
0
VERTEX
8
1
10
9.542628
20
11.068039
42
0.229439
0
VERTEX
8
1
10
9.473960
20
10.940750
0
VERTEX
8
1
10
9.481400
20
10.932022
42
0.160713
0
VERTEX
8
1
10
9.577379
20
10.962751
42
-0.190496
0
VERTEX
8
1
10
9.742681
20
10.986388
42
0.107672
0
VERTEX
8
1
10
9.860254
20
10.995796
42
0.039828
0
VERTEX
8
1
10
9.800726
20
10.899300
0
VERTEX
8
1
10
9.807447
20
10.896790
42
0.122016
0
VERTEX
8
1
10
9.879817
20
10.863396
0
VERTEX
8
1
10
9.875827
20
10.854980
42
0.034510
0
VERTEX
8
1
10
9.862218
20
10.767109
0
VERTEX
8
1
10
9.868790
20
10.764824
0
VERTEX
8
1
10
9.945857
20
10.783989
42
-0.114121
0
VERTEX
8
1
10
10.099738
20
10.794067
0
VERTEX
8
1
10
10.229302
20
10.788704
42
-0.375081
0
VERTEX
8
1
10
10.336780
20
10.823334
42
-0.125650
0
VERTEX
8
1
10
10.296338
20
10.688263
0
VERTEX
8
1
10
10.296105
20
10.680832
42
-0.022520
0
VERTEX
8
1
10
10.416346
20
10.665108
42
-0.019278
0
VERTEX
8
1
10
10.376843
20
10.569496
42
0.045231
0
VERTEX
8
1
10
10.534370
20
10.552635
42
0.131614
0
VERTEX
8
1
10
10.653771
20
10.591657
42
-0.158893
0
VERTEX
8
1
10
10.742306
20
10.609589
42
0.187422
0
VERTEX
8
1
10
10.743546
20
10.492760
0
VERTEX
8
1
10
10.756073
20
10.492973
42
-0.086445
0
VERTEX
8
1
10
11.192357
20
10.693565
0
VERTEX
8
1
10
11.229162
20
10.699356
0
VERTEX
8
1
10
11.240535
20
10.696014
42
0.053653
0
VERTEX
8
1
10
11.207709
20
10.600639
42
0.107498
0
VERTEX
8
1
10
11.337351
20
10.614639
42
0.019826
0
VERTEX
8
1
10
11.598747
20
10.715141
42
-0.079340
0
VERTEX
8
1
10
12.061290
20
10.795959
42
-0.010467
0
VERTEX
8
1
10
12.022161
20
10.721764
0
VERTEX
8
1
10
12.038013
20
10.715462
42
0.048523
0
VERTEX
8
1
10
12.230732
20
10.701936
42
-0.033097
0
VERTEX
8
1
10
12.472224
20
10.681854
42
0.030755
0
VERTEX
8
1
10
12.998030
20
10.570119
42
-0.129937
0
VERTEX
8
1
10
13.226896
20
10.458993
42
0.022627
0
VERTEX
8
1
10
13.384391
20
10.357147
0
VERTEX
8
1
10
13.417364
20
10.343399
42
0.027270
0
VERTEX
8
1
10
13.666219
20
10.294022
0
VERTEX
8
1
10
13.706595
20
10.284294
42
-0.166254
0
VERTEX
8
1
10
13.821596
20
10.219246
42
0.000240
0
VERTEX
8
1
10
13.789874
20
10.175348
42
-0.101371
0
VERTEX
8
1
10
13.807711
20
10.137367
0
VERTEX
8
1
10
13.998459
20
10.042961
0
VERTEX
8
1
10
14.022908
20
10.052567
42
-0.125177
0
VERTEX
8
1
10
14.172933
20
10.037506
42
-0.013345
0
VERTEX
8
1
10
14.434479
20
9.938080
0
VERTEX
8
1
10
14.461702
20
9.930504
42
-0.035233
0
VERTEX
8
1
10
14.718027
20
9.861183
42
-0.106838
0
VERTEX
8
1
10
14.799237
20
9.806480
0
VERTEX
8
1
10
14.807452
20
9.789581
42
0.100222
0
VERTEX
8
1
10
14.773611
20
9.772318
42
-0.057404
0
VERTEX
8
1
10
14.718915
20
9.747375
0
VERTEX
8
1
10
14.731071
20
9.732430
42
0.061383
0
VERTEX
8
1
10
15.286546
20
9.356971
42
-0.133018
0
VERTEX
8
1
10
15.487178
20
9.158119
0
VERTEX
8
1
10
15.475856
20
9.156448
42
-0.070578
0
VERTEX
8
1
10
15.353458
20
9.188530
0
VERTEX
8
1
10
15.342621
20
9.188248
42
0.181465
0
VERTEX
8
1
10
15.395558
20
9.108051
42
0.076818
0
VERTEX
8
1
10
15.590378
20
8.978379
42
-0.080552
0
VERTEX
8
1
10
15.898548
20
8.734403
42
-0.082071
0
VERTEX
8
1
10
15.968401
20
8.608345
0
VERTEX
8
1
10
15.967944
20
8.597351
42
0.071779
0
VERTEX
8
1
10
15.888850
20
8.629128
42
0.197399
0
VERTEX
8
1
10
15.912747
20
8.538953
0
VERTEX
8
1
10
15.923770
20
8.523567
42
0.035439
0
VERTEX
8
1
10
16.087965
20
8.357437
42
-0.015042
0
VERTEX
8
1
10
16.309843
20
8.107628
42
-0.085748
0
VERTEX
8
1
10
16.577442
20
7.448769
42
-0.057346
0
VERTEX
8
1
10
16.590786
20
7.281487
42
0.127136
0
VERTEX
8
1
10
16.533567
20
7.313286
42
0.143563
0
VERTEX
8
1
10
16.536303
20
7.212433
42
0.026396
0
VERTEX
8
1
10
16.610153
20
7.000786
42
-0.054771
0
VERTEX
8
1
10
16.746288
20
6.222137
42
0.058757
0
VERTEX
8
1
10
16.816532
20
5.851814
42
0.154506
0
VERTEX
8
1
10
16.778709
20
5.861441
42
0.017619
0
VERTEX
8
1
10
16.716793
20
5.864136
0
VERTEX
8
1
10
16.708345
20
5.833122
42
0.038606
0
VERTEX
8
1
10
16.723286
20
5.354203
42
-0.041941
0
VERTEX
8
1
10
16.716446
20
5.062576
0
VERTEX
8
1
10
16.705091
20
5.044579
42
0.330207
0
VERTEX
8
1
10
16.656855
20
5.042353
0
VERTEX
8
1
10
16.645952
20
5.038920
0
VERTEX
8
1
10
16.634811
20
5.036369
42
-0.025826
0
VERTEX
8
1
10
16.658375
20
4.835442
42
0.009685
0
VERTEX
8
1
10
16.689953
20
4.552505
0
VERTEX
8
1
10
16.703165
20
4.551804
42
0.100811
0
VERTEX
8
1
10
16.823212
20
4.223866
42
0.134907
0
VERTEX
8
1
10
16.971590
20
4.109009
42
0.210664
0
VERTEX
8
1
10
16.876019
20
4.034119
42
-0.047636
0
VERTEX
8
1
10
17.145029
20
3.859489
42
-0.417943
0
VERTEX
8
1
10
17.118935
20
3.808245
42
-0.113748
0
VERTEX
8
1
10
17.081402
20
3.800171
0
VERTEX
8
1
10
17.140863
20
3.667831
42
0.023342
0
VERTEX
8
1
10
17.426208
20
3.239058
42
-0.052005
0
VERTEX
8
1
10
17.577396
20
2.949394
42
0.029841
0
VERTEX
8
1
10
17.534760
20
2.990936
0
VERTEX
8
1
10
17.523266
20
2.976921
0
VERTEX
8
1
10
17.515135
20
2.952789
42
0.109656
0
VERTEX
8
1
10
17.549038
20
2.733600
42
-0.037924
0
VERTEX
8
1
10
17.612875
20
2.414158
42
-0.109844
0
VERTEX
8
1
10
17.584890
20
2.237114
42
0.050130
0
VERTEX
8
1
10
17.525623
20
2.292923
42
0.035510
0
VERTEX
8
1
10
17.501556
20
2.240501
42
-0.107452
0
VERTEX
8
1
10
17.518473
20
2.111938
42
-0.040082
0
VERTEX
8
1
10
17.454462
20
1.767471
0
VERTEX
8
1
10
17.444777
20
1.756058
42
-0.281826
0
VERTEX
8
1
10
17.370331
20
1.800133
0
VERTEX
8
1
10
17.368673
20
1.798195
0
VERTEX
8
1
10
17.298416
20
1.632103
42
0.132759
0
VERTEX
8
1
10
17.227423
20
1.479858
42
0.017080
0
VERTEX
8
1
10
17.179676
20
1.196320
0
VERTEX
8
1
10
17.170559
20
1.157883
0
VERTEX
8
1
10
17.160841
20
1.136154
0
VERTEX
8
1
10
17.153046
20
1.140831
42
-0.033218
0
VERTEX
8
1
10
17.069365
20
1.175537
0
VERTEX
8
1
10
17.061033
20
1.167282
42
-0.068075
0
VERTEX
8
1
10
16.986000
20
1.005836
42
-0.210530
0
VERTEX
8
1
10
16.909967
20
0.971542
0
VERTEX
8
1
10
16.902235
20
0.975761
42
0.023858
0
VERTEX
8
1
10
16.880331
20
1.023567
0
VERTEX
8
1
10
16.866554
20
1.014679
42
0.011184
0
VERTEX
8
1
10
16.669201
20
0.930779
0
VERTEX
8
1
10
16.655167
20
0.920128
42
-0.065840
0
VERTEX
8
1
10
16.531492
20
0.791499
42
-0.170172
0
VERTEX
8
1
10
16.459431
20
0.776024
42
0.170896
0
VERTEX
8
1
10
16.433344
20
0.840164
0
VERTEX
8
1
10
16.408030
20
0.830177
42
0.008068
0
VERTEX
8
1
10
16.314716
20
0.733829
42
-0.105431
0
SEQEND
0
POLYLINE
8
1
66
1
70
1
0
VERTEX
8
1
10
2.971194
20
9.438339
42
-0.054210
0
VERTEX
8
1
10
3.142544
20
9.657272
42
-0.149468
0
VERTEX
8
1
10
3.237051
20
9.694435
0
VERTEX
8
1
10
3.245862
20
9.697990
42
0.184401
0
VERTEX
8
1
10
3.324229
20
9.824865
42
-0.104483
0
VERTEX
8
1
10
3.391037
20
9.937454
0
VERTEX
8
1
10
3.399778
20
9.941116
42
-0.014749
0
VERTEX
8
1
10
3.425601
20
9.883034
42
0.094439
0
VERTEX
8
1
10
3.508673
20
9.968452
0
VERTEX
8
1
10
3.572815
20
10.049316
42
-0.116157
0
VERTEX
8
1
10
3.716874
20
10.175507
0
VERTEX
8
1
10
3.756512
20
10.185722
0
VERTEX
8
1
10
3.796056
20
10.182793
42
0.050550
0
VERTEX
8
1
10
3.711552
20
10.098404
42
0.176684
0
VERTEX
8
1
10
3.652806
20
10.000351
42
-0.010559
0
VERTEX
8
1
10
3.725065
20
10.058174
42
-0.194042
0
VERTEX
8
1
10
3.745575
20
9.984779
0
VERTEX
8
1
10
3.750715
20
9.982399
42
0.054259
0
VERTEX
8
1
10
3.893896
20
10.114281
42
-0.024655
0
VERTEX
8
1
10
4.093189
20
10.281219
42
-0.119817
0
VERTEX
8
1
10
4.151659
20
10.295692
0
VERTEX
8
1
10
4.155357
20
10.289848
42
0.111341
0
VERTEX
8
1
10
4.147650
20
10.215736
42
0.029902
0
VERTEX
8
1
10
4.302200
20
10.300758
42
-0.113902
0
VERTEX
8
1
10
4.510388
20
10.351700
42
0.113642
0
VERTEX
8
1
10
4.819566
20
10.464821
42
-0.002626
0
VERTEX
8
1
10
4.875716
20
10.494843
0
VERTEX
8
1
10
4.890875
20
10.493538
42
-0.157631
0
VERTEX
8
1
10
4.796015
20
10.379265
42
-0.121592
0
VERTEX
8
1
10
4.550931
20
10.264343
42
0.135228
0
VERTEX
8
1
10
4.193630
20
10.106422
42
0.097260
0
VERTEX
8
1
10
3.757586
20
9.590172
42
-0.058986
0
VERTEX
8
1
10
3.621498
20
9.344768
42
-0.117639
0
VERTEX
8
1
10
3.528357
20
9.274971
0
VERTEX
8
1
10
3.485949
20
9.268890
0
VERTEX
8
1
10
3.467456
20
9.274406
42
0.051707
0
VERTEX
8
1
10
3.475720
20
9.335175
0
VERTEX
8
1
10
3.457128
20
9.339905
42
0.134933
0
VERTEX
8
1
10
3.318261
20
9.305351
42
-0.017961
0
VERTEX
8
1
10
3.188689
20
9.243729
42
0.299483
0
VERTEX
8
1
10
3.181177
20
9.349701
42
0.015939
0
VERTEX
8
1
10
3.053305
20
9.301132
42
-0.077186
0
VERTEX
8
1
10
3.006007
20
9.296822
0
VERTEX
8
1
10
2.997277
20
9.292465
42
-0.067962
0
VERTEX
8
1
10
2.882164
20
9.157669
0
VERTEX
8
1
10
2.869935
20
9.150520
0
VERTEX
8
1
10
2.858087
20
9.146355
0
VERTEX
8
1
10
2.855186
20
9.175194
0
VERTEX
8
1
10
2.861648
20
9.215416
42
-0.085414
0
SEQEND
0
POLYLINE
8
1
66
1
70
1
0
VERTEX
8
1
10
2.788502
20
9.711510
42
0.032912
0
VERTEX
8
1
10
2.679840
20
9.758804
0
VERTEX
8
1
10
2.675956
20
9.752556
42
-0.102120
0
VERTEX
8
1
10
2.767394
20
9.501318
42
-0.236664
0
VERTEX
8
1
10
2.718668
20
9.383492
0
VERTEX
8
1
10
2.687683
20
9.370094
42
0.157358
0
VERTEX
8
1
10
2.600351
20
9.657967
0
VERTEX
8
1
10
2.583172
20
9.674339
42
-0.026835
0
VERTEX
8
1
10
2.574615
20
9.616318
0
VERTEX
8
1
10
2.560988
20
9.631935
42
-0.116346
0
VERTEX
8
1
10
2.452960
20
9.987465
0
VERTEX
8
1
10
2.455365
20
10.018616
0
VERTEX
8
1
10
2.466770
20
10.028206
42
0.002951
0
VERTEX
8
1
10
2.611563
20
10.034004
0
VERTEX
8
1
10
2.613920
20
10.043961
42
-0.187006
0
VERTEX
8
1
10
2.620759
20
10.280609
42
-0.426972
0
VERTEX
8
1
10
2.667682
20
10.342247
0
VERTEX
8
1
10
2.673734
20
10.341675
0
VERTEX
8
1
10
2.679693
20
10.340469
42
0.032568
0
VERTEX
8
1
10
2.844334
20
9.916100
0
VERTEX
8
1
10
2.838285
20
9.911865
42
0.127052
0
VERTEX
8
1
10
2.710500
20
9.923393
0
VERTEX
8
1
10
2.712954
20
9.909561
42
-0.031649
0
VERTEX
8
1
10
2.816847
20
9.705307
0
VERTEX
8
1
10
2.814409
20
9.698441
0
SEQEND
0
POLYLINE
8
1
66
1
70
1
0
VERTEX
8
1
10
1.756040
20
6.657959
42
-0.302262
0
VERTEX
8
1
10
1.707344
20
6.636821
42
-0.293874
0
VERTEX
8
1
10
1.544082
20
6.742379
42
-0.554824
0
VERTEX
8
1
10
1.596438
20
6.790287
42
-0.295888
0
VERTEX
8
1
10
1.759231
20
6.684657
42
-0.152842
0
SEQEND
0
POLYLINE
8
1
66
1
70
1
0
VERTEX
8
1
10
5.052395
20
7.350586
42
0.148262
0
VERTEX
8
1
10
5.022998
20
7.235466
0
VERTEX
8
1
10
5.025901
20
7.168282
42
-0.121538
0
VERTEX
8
1
10
5.009080
20
7.072304
42
-0.505009
0
VERTEX
8
1
10
4.984937
20
7.079506
42
-0.104685
0
VERTEX
8
1
10
4.908622
20
7.211601
42
0.091336
0
VERTEX
8
1
10
4.883935
20
7.239014
42
0.006893
0
VERTEX
8
1
10
4.850352
20
7.174492
42
0.351077
0
VERTEX
8
1
10
4.815453
20
7.150955
42
0.225913
0
VERTEX
8
1
10
4.787926
20
6.982213
42
-0.125716
0
VERTEX
8
1
10
4.772614
20
6.880356
0
VERTEX
8
1
10
4.764063
20
6.870407
42
-0.158786
0
VERTEX
8
1
10
4.709666
20
6.978689
42
0.057403
0
VERTEX
8
1
10
4.679152
20
7.046394
0
VERTEX
8
1
10
4.662807
20
7.055489
42
0.446472
0
VERTEX
8
1
10
4.602416
20
6.755877
42
0.175666
0
VERTEX
8
1
10
4.685669
20
6.710709
0
VERTEX
8
1
10
4.718406
20
6.716797
42
0.153590
0
VERTEX
8
1
10
4.824190
20
6.818666
42
-0.058579
0
VERTEX
8
1
10
4.912556
20
6.909813
0
VERTEX
8
1
10
4.940537
20
6.920547
0
VERTEX
8
1
10
4.961612
20
6.913963
42
-0.124897
0
VERTEX
8
1
10
4.819809
20
6.615016
0
VERTEX
8
1
10
4.809118
20
6.596845
42
0.620680
0
VERTEX
8
1
10
4.837918
20
6.530251
0
VERTEX
8
1
10
4.848824
20
6.527695
42
-0.612989
0
VERTEX
8
1
10
4.875149
20
6.479759
42
0.075802
0
VERTEX
8
1
10
4.767466
20
6.465538
0
VERTEX
8
1
10
4.766582
20
6.458984
42
-0.026573
0
VERTEX
8
1
10
4.929204
20
6.312851
0
VERTEX
8
1
10
4.937778
20
6.297081
42
-0.164365
0
VERTEX
8
1
10
4.837260
20
6.107437
0
VERTEX
8
1
10
4.817402
20
6.094963
0
VERTEX
8
1
10
4.797524
20
6.089752
0
VERTEX
8
1
10
4.784892
20
6.101494
42
0.063640
0
VERTEX
8
1
10
4.775928
20
6.216934
0
VERTEX
8
1
10
4.768085
20
6.231415
42
0.195983
0
VERTEX
8
1
10
4.585816
20
6.312157
42
-0.056775
0
VERTEX
8
1
10
4.479731
20
6.333603
0
VERTEX
8
1
10
4.488033
20
6.342712
42
0.212006
0
VERTEX
8
1
10
4.550499
20
6.383766
42
0.309707
0
VERTEX
8
1
10
4.529941
20
6.433289
42
0.148506
0
VERTEX
8
1
10
4.331938
20
6.511810
42
-0.020326
0
VERTEX
8
1
10
4.145605
20
6.545601
0
VERTEX
8
1
10
4.132938
20
6.551414
42
-0.152411
0
VERTEX
8
1
10
4.148708
20
6.599983
0
VERTEX
8
1
10
4.169160
20
6.604889
42
-0.209262
0
VERTEX
8
1
10
4.230953
20
6.660164
0
VERTEX
8
1
10
4.266009
20
6.673172
42
0.071817
0
VERTEX
8
1
10
4.394699
20
6.719467
0
VERTEX
8
1
10
4.409135
20
6.737968
0
VERTEX
8
1
10
4.410538
20
6.762581
0
VERTEX
8
1
10
4.395935
20
6.794968
42
0.116782
0
VERTEX
8
1
10
4.207344
20
6.941605
42
-0.040846
0
VERTEX
8
1
10
4.098146
20
6.978577
0
VERTEX
8
1
10
4.085462
20
6.987534
0
VERTEX
8
1
10
4.091490
20
6.995369
0
VERTEX
8
1
10
4.137345
20
7.010849
42
0.491956
0
VERTEX
8
1
10
4.163578
20
7.045883
42
0.208931
0
VERTEX
8
1
10
4.039832
20
7.116669
42
-0.002622
0
VERTEX
8
1
10
3.984528
20
7.131432
42
-0.455245
0
VERTEX
8
1
10
3.993366
20
7.178871
42
-0.052918
0
VERTEX
8
1
10
4.112952
20
7.210869
42
0.422786
0
VERTEX
8
1
10
4.174696
20
7.334549
42
0.246012
0
VERTEX
8
1
10
4.091255
20
7.438083
42
-0.061098
0
VERTEX
8
1
10
4.036785
20
7.479134
0
VERTEX
8
1
10
4.036924
20
7.492241
0
VERTEX
8
1
10
4.047718
20
7.505661
42
-0.036479
0
VERTEX
8
1
10
4.138602
20
7.549545
0
VERTEX
8
1
10
4.156168
20
7.561119
0
VERTEX
8
1
10
4.164842
20
7.574173
0
VERTEX
8
1
10
4.161205
20
7.589310
0
VERTEX
8
1
10
4.141842
20
7.607132
42
0.119974
0
VERTEX
8
1
10
4.032611
20
7.647316
42
-0.021287
0
VERTEX
8
1
10
3.882257
20
7.681223
42
-0.096467
0
VERTEX
8
1
10
3.842769
20
7.707397
0
VERTEX
8
1
10
3.852085
20
7.714134
42
0.024481
0
VERTEX
8
1
10
3.987956
20
7.756912
42
0.348625
0
VERTEX
8
1
10
3.942340
20
7.815498
42
0.018683
0
VERTEX
8
1
10
3.824281
20
7.839403
42
-0.195990
0
VERTEX
8
1
10
3.785780
20
7.875656
42
0.022272
0
VERTEX
8
1
10
3.607415
20
7.870651
42
0.175247
0
VERTEX
8
1
10
3.443013
20
7.761225
42
0.467326
0
VERTEX
8
1
10
3.476376
20
7.683083
42
0.021277
0
VERTEX
8
1
10
3.693906
20
7.621570
42
-0.062619
0
VERTEX
8
1
10
3.864728
20
7.543030
0
VERTEX
8
1
10
3.890421
20
7.518997
0
VERTEX
8
1
10
3.905018
20
7.493019
0
VERTEX
8
1
10
3.906008
20
7.465179
42
0.187527
0
VERTEX
8
1
10
3.674489
20
7.530350
42
0.254871
0
VERTEX
8
1
10
3.698023
20
7.490930
42
-0.019714
0
VERTEX
8
1
10
3.758660
20
7.432457
0
VERTEX
8
1
10
3.763659
20
7.420670
42
-0.139058
0
VERTEX
8
1
10
3.643556
20
7.441963
0
VERTEX
8
1
10
3.574883
20
7.471428
42
0.126359
0
VERTEX
8
1
10
3.407576
20
7.496094
42
0.113166
0
VERTEX
8
1
10
3.224943
20
7.460861
0
VERTEX
8
1
10
3.214027
20
7.447914
42
0.204756
0
VERTEX
8
1
10
3.392147
20
7.370784
42
-0.040764
0
VERTEX
8
1
10
3.490122
20
7.347412
42
-0.375670
0
VERTEX
8
1
10
3.444335
20
7.301666
42
-0.062468
0
VERTEX
8
1
10
3.325996
20
7.308922
0
VERTEX
8
1
10
3.314736
20
7.303802
0
VERTEX
8
1
10
3.336957
20
7.274559
42
0.115874
0
VERTEX
8
1
10
3.518281
20
7.194405
42
0.002912
0
VERTEX
8
1
10
3.780587
20
7.136497
0
VERTEX
8
1
10
3.808119
20
7.124374
42
-0.210592
0
VERTEX
8
1
10
3.730277
20
7.084980
42
-0.151830
0
VERTEX
8
1
10
3.490812
20
7.119915
42
0.117509
0
VERTEX
8
1
10
3.322600
20
7.133812
0
VERTEX
8
1
10
3.299064
20
7.124168
42
0.272378
0
VERTEX
8
1
10
3.338906
20
7.058769
42
0.022030
0
VERTEX
8
1
10
3.464508
20
6.983109
42
-0.083190
0
VERTEX
8
1
10
3.611426
20
6.795815
0
VERTEX
8
1
10
3.604498
20
6.786858
42
-0.094428
0
VERTEX
8
1
10
3.461901
20
6.848183
42
0.057393
0
VERTEX
8
1
10
3.204023
20
6.979412
42
0.117340
0
VERTEX
8
1
10
3.096452
20
6.979843
0
VERTEX
8
1
10
3.068693
20
6.955818
42
0.214025
0
VERTEX
8
1
10
3.143227
20
6.879143
0
VERTEX
8
1
10
3.195313
20
6.854263
42
-0.181549
0
VERTEX
8
1
10
3.278305
20
6.780853
0
VERTEX
8
1
10
3.281650
20
6.762421
42
0.095835
0
VERTEX
8
1
10
3.052758
20
6.814246
42
0.660197
0
VERTEX
8
1
10
3.034805
20
6.735227
42
0.085670
0
VERTEX
8
1
10
3.098061
20
6.686523
0
VERTEX
8
1
10
3.155767
20
6.652611
42
-0.194336
0
VERTEX
8
1
10
3.235198
20
6.548667
42
0.006534
0
VERTEX
8
1
10
3.226724
20
6.458824
42
0.195738
0
VERTEX
8
1
10
3.266301
20
6.389023
42
0.253151
0
VERTEX
8
1
10
3.336550
20
6.405373
42
-0.139610
0
VERTEX
8
1
10
3.410696
20
6.435509
0
VERTEX
8
1
10
3.417356
20
6.423462
42
0.491363
0
VERTEX
8
1
10
3.464581
20
6.336037
42
-0.019144
0
VERTEX
8
1
10
3.616204
20
6.298649
42
-0.317162
0
VERTEX
8
1
10
3.663360
20
6.214752
0
VERTEX
8
1
10
3.660167
20
6.188301
0
VERTEX
8
1
10
3.650857
20
6.175896
42
0.087969
0
VERTEX
8
1
10
3.528247
20
6.225502
0
VERTEX
8
1
10
3.521765
20
6.209732
42
-0.500282
0
VERTEX
8
1
10
3.470223
20
6.165215
42
-0.046899
0
VERTEX
8
1
10
3.353583
20
6.195908
42
0.115433
0
VERTEX
8
1
10
3.232997
20
6.179687
42
-0.329432
0
VERTEX
8
1
10
3.169652
20
6.219421
42
0.302682
0
VERTEX
8
1
10
3.125526
20
6.239693
0
VERTEX
8
1
10
3.118268
20
6.234421
42
-0.052656
0
VERTEX
8
1
10
3.090645
20
6.166016
0
VERTEX
8
1
10
3.086198
20
6.167725
42
0.396889
0
VERTEX
8
1
10
2.971349
20
6.195030
42
0.061595
0
VERTEX
8
1
10
2.887808
20
6.148399
0
VERTEX
8
1
10
2.879434
20
6.164696
42
0.540022
0
VERTEX
8
1
10
2.808918
20
6.196518
42
0.075730
0
VERTEX
8
1
10
2.659689
20
6.069351
42
-0.066486
0
VERTEX
8
1
10
2.542255
20
5.977852
42
-0.313886
0
VERTEX
8
1
10
2.455093
20
5.926425
42
-0.009963
0
VERTEX
8
1
10
2.427592
20
5.924278
0
VERTEX
8
1
10
2.421289
20
5.945984
42
-0.208408
0
VERTEX
8
1
10
2.466687
20
6.032539
42
-0.078368
0
VERTEX
8
1
10
2.605520
20
6.142235
42
-0.024130
0
VERTEX
8
1
10
2.901536
20
6.326451
42
0.038807
0
VERTEX
8
1
10
3.081929
20
6.430071
0
VERTEX
8
1
10
3.095560
20
6.443645
0
VERTEX
8
1
10
3.107724
20
6.458547
0
VERTEX
8
1
10
3.118294
20
6.474619
0
VERTEX
8
1
10
3.127158
20
6.491692
42
0.693560
0
VERTEX
8
1
10
3.027064
20
6.588165
42
0.108507
0
VERTEX
8
1
10
2.904351
20
6.489243
42
-0.060047
0
VERTEX
8
1
10
2.767357
20
6.389947
42
0.102743
0
VERTEX
8
1
10
2.726004
20
6.342468
42
-0.061068
0
VERTEX
8
1
10
2.328127
20
6.201269
42
-0.132290
0
VERTEX
8
1
10
2.250284
20
6.210770
42
-0.322539
0
VERTEX
8
1
10
2.207634
20
6.208824
42
0.091533
0
VERTEX
8
1
10
2.063304
20
6.196742
42
-0.153397
0
VERTEX
8
1
10
1.956393
20
6.216980
42
0.051173
0
VERTEX
8
1
10
1.799116
20
6.373116
42
-0.181796
0
VERTEX
8
1
10
1.824334
20
6.479942
42
0.056259
0
VERTEX
8
1
10
1.871029
20
6.582779
0
VERTEX
8
1
10
1.871487
20
6.601888
42
0.247569
0
VERTEX
8
1
10
1.795047
20
6.819946
42
0.025215
0
VERTEX
8
1
10
1.697955
20
6.915605
42
-0.402607
0
VERTEX
8
1
10
1.704597
20
6.926697
42
-0.041477
0
VERTEX
8
1
10
1.846255
20
7.026947
42
0.118376
0
VERTEX
8
1
10
1.945365
20
7.141793
42
-0.207710
0
VERTEX
8
1
10
2.073698
20
7.218674
42
-0.158391
0
VERTEX
8
1
10
2.158108
20
7.340530
42
0.190846
0
VERTEX
8
1
10
2.268478
20
7.428338
42
0.006380
0
VERTEX
8
1
10
2.373106
20
7.586395
0
VERTEX
8
1
10
2.391972
20
7.626297
42
0.231046
0
VERTEX
8
1
10
2.338283
20
8.072260
42
-0.235843
0
VERTEX
8
1
10
2.341803
20
8.263596
42
-0.031118
0
VERTEX
8
1
10
2.605783
20
8.734575
42
-0.076552
0
VERTEX
8
1
10
2.775017
20
8.911545
0
VERTEX
8
1
10
2.804859
20
8.929062
0
VERTEX
8
1
10
2.836185
20
8.942818
0
VERTEX
8
1
10
2.850549
20
8.936005
42
-0.168988
0
VERTEX
8
1
10
2.782437
20
8.833992
42
0.100229
0
VERTEX
8
1
10
2.718425
20
8.739792
0
VERTEX
8
1
10
2.725338
20
8.724724
42
0.314126
0
VERTEX
8
1
10
2.808666
20
8.734756
42
-0.071536
0
VERTEX
8
1
10
2.859326
20
8.752228
0
VERTEX
8
1
10
2.856256
20
8.730904
42
-0.021843
0
VERTEX
8
1
10
2.700444
20
8.433052
42
-0.048791
0
VERTEX
8
1
10
2.549375
20
8.168912
42
0.065739
0
VERTEX
8
1
10
2.483862
20
8.023094
0
VERTEX
8
1
10
2.480099
20
7.991005
0
VERTEX
8
1
10
2.491155
20
7.980316
42
0.118234
0
VERTEX
8
1
10
2.592712
20
8.032426
42
-0.103663
0
VERTEX
8
1
10
2.637348
20
8.045197
0
VERTEX
8
1
10
2.642482
20
8.042419
42
0.033264
0
VERTEX
8
1
10
2.647493
20
7.994980
42
0.302062
0
VERTEX
8
1
10
2.737015
20
7.988373
42
-0.248357
0
VERTEX
8
1
10
2.732823
20
7.916397
0
VERTEX
8
1
10
2.715556
20
7.882179
42
0.424354
0
VERTEX
8
1
10
2.742676
20
7.777138
42
0.156836
0
VERTEX
8
1
10
2.980215
20
7.732681
42
0.123509
0
VERTEX
8
1
10
3.098335
20
7.781227
42
-0.098978
0
VERTEX
8
1
10
3.303775
20
7.886375
0
VERTEX
8
1
10
3.388285
20
7.908691
42
0.545612
0
VERTEX
8
1
10
3.368922
20
7.952950
42
0.083791
0
VERTEX
8
1
10
3.243101
20
7.948637
42
-0.215990
0
VERTEX
8
1
10
3.114367
20
8.003059
42
0.046993
0
VERTEX
8
1
10
2.990427
20
8.094274
42
0.259332
0
VERTEX
8
1
10
2.786842
20
8.082657
0
VERTEX
8
1
10
2.780503
20
8.087532
42
0.044443
0
VERTEX
8
1
10
2.767548
20
8.182266
42
0.076862
0
VERTEX
8
1
10
2.702927
20
8.237503
42
0.092052
0
VERTEX
8
1
10
2.795149
20
8.353020
42
-0.036295
0
VERTEX
8
1
10
2.901044
20
8.505806
0
VERTEX
8
1
10
2.926763
20
8.530312
0
VERTEX
8
1
10
2.951481
20
8.544159
0
VERTEX
8
1
10
2.974846
20
8.544754
0
VERTEX
8
1
10
2.980465
20
8.534393
42
0.120854
0
VERTEX
8
1
10
3.030569
20
8.437607
42
-0.234560
0
VERTEX
8
1
10
3.127132
20
8.532036
0
VERTEX
8
1
10
3.141732
20
8.533035
0
VERTEX
8
1
10
3.156440
20
8.530457
0
VERTEX
8
1
10
3.164338
20
8.506595
42
-0.035704
0
VERTEX
8
1
10
3.180993
20
8.404817
42
0.644756
0
VERTEX
8
1
10
3.249262
20
8.392180
42
0.149737
0
VERTEX
8
1
10
3.285826
20
8.457484
42
-0.085277
0
VERTEX
8
1
10
3.335411
20
8.535210
0
VERTEX
8
1
10
3.350474
20
8.543343
42
-0.175349
0
VERTEX
8
1
10
3.364627
20
8.404160
42
0.082685
0
VERTEX
8
1
10
3.370745
20
8.298859
0
VERTEX
8
1
10
3.389247
20
8.300713
42
0.080817
0
VERTEX
8
1
10
3.484275
20
8.362772
0
VERTEX
8
1
10
3.493907
20
8.366977
42
-0.518475
0
VERTEX
8
1
10
3.570715
20
8.290399
0
VERTEX
8
1
10
3.568793
20
8.278201
42
-0.023683
0
VERTEX
8
1
10
3.508277
20
8.161355
0
VERTEX
8
1
10
3.522341
20
8.147308
0
VERTEX
8
1
10
3.526078
20
8.147401
42
-0.005855
0
VERTEX
8
1
10
3.724961
20
8.281361
42
-0.128600
0
VERTEX
8
1
10
3.787313
20
8.292480
0
VERTEX
8
1
10
3.814318
20
8.280197
0
VERTEX
8
1
10
3.824955
20
8.262329
0
VERTEX
8
1
10
3.822293
20
8.239990
42
-0.073689
0
VERTEX
8
1
10
3.724841
20
8.110157
42
0.063581
0
VERTEX
8
1
10
3.688986
20
8.050507
0
VERTEX
8
1
10
3.692867
20
8.033539
0
VERTEX
8
1
10
3.719466
20
8.026657
42
0.009060
0
VERTEX
8
1
10
3.948944
20
8.009377
0
VERTEX
8
1
10
3.990689
20
8.002007
0
VERTEX
8
1
10
4.023235
20
7.990883
0
VERTEX
8
1
10
4.043232
20
7.974976
0
VERTEX
8
1
10
4.047331
20
7.953224
42
-0.312820
0
VERTEX
8
1
10
3.945458
20
7.890168
42
-0.020492
0
VERTEX
8
1
10
3.908162
20
7.886230
42
0.104340
0
VERTEX
8
1
10
4.081975
20
7.798846
42
0.224372
0
VERTEX
8
1
10
4.250906
20
7.851387
42
-0.018179
0
VERTEX
8
1
10
4.299706
20
7.881851
0
VERTEX
8
1
10
4.311832
20
7.883675
42
-0.119276
0
VERTEX
8
1
10
4.246981
20
7.798965
42
0.134191
0
VERTEX
8
1
10
4.223683
20
7.751442
0
VERTEX
8
1
10
4.226579
20
7.737923
0
VERTEX
8
1
10
4.244419
20
7.736725
42
0.084619
0
VERTEX
8
1
10
4.421730
20
7.887777
42
0.059380
0
VERTEX
8
1
10
4.653816
20
8.211809
42
-0.066862
0
VERTEX
8
1
10
4.803428
20
8.392105
0
VERTEX
8
1
10
4.826636
20
8.386490
42
-0.145761
0
VERTEX
8
1
10
4.785503
20
8.187988
42
-0.023985
0
VERTEX
8
1
10
4.647789
20
7.949043
0
VERTEX
8
1
10
4.624937
20
7.905922
0
VERTEX
8
1
10
4.604057
20
7.878891
0
VERTEX
8
1
10
4.581088
20
7.865082
42
0.085581
0
VERTEX
8
1
10
4.453492
20
7.696594
42
-0.065400
0
VERTEX
8
1
10
4.321819
20
7.526833
42
0.264175
0
VERTEX
8
1
10
4.266980
20
7.332504
0
VERTEX
8
1
10
4.277590
20
7.311928
42
0.033091
0
VERTEX
8
1
10
4.370391
20
7.334731
42
-0.490897
0
VERTEX
8
1
10
4.392884
20
7.299820
42
-0.098829
0
VERTEX
8
1
10
4.347137
20
7.138504
42
0.137165
0
VERTEX
8
1
10
4.327310
20
7.030819
42
0.502028
0
VERTEX
8
1
10
4.384526
20
7.014397
0
VERTEX
8
1
10
4.400117
20
7.024788
42
0.056337
0
VERTEX
8
1
10
4.627258
20
7.287910
42
-0.057920
0
VERTEX
8
1
10
4.690959
20
7.346802
0
VERTEX
8
1
10
4.699883
20
7.341949
42
-0.130213
0
VERTEX
8
1
10
4.675891
20
7.206192
0
VERTEX
8
1
10
4.721752
20
7.235237
42
0.098774
0
VERTEX
8
1
10
4.946157
20
7.516991
42
0.023109
0
VERTEX
8
1
10
5.129029
20
7.900156
42
-0.009615
0
VERTEX
8
1
10
5.197495
20
8.037262
42
0.212113
0
VERTEX
8
1
10
5.139171
20
8.159637
42
-0.296398
0
VERTEX
8
1
10
5.116334
20
8.409075
42
0.060956
0
VERTEX
8
1
10
5.146587
20
8.517960
0
VERTEX
8
1
10
5.145090
20
8.538673
0
VERTEX
8
1
10
5.138940
20
8.558250
0
VERTEX
8
1
10
5.147343
20
8.546173
0
VERTEX
8
1
10
5.160701
20
8.517464
42
0.021147
0
VERTEX
8
1
10
5.249029
20
8.282700
0
VERTEX
8
1
10
5.266506
20
8.254768
42
0.284682
0
VERTEX
8
1
10
5.309789
20
8.230492
42
0.021213
0
VERTEX
8
1
10
5.325433
20
8.262749
42
0.418539
0
VERTEX
8
1
10
5.336019
20
8.256851
42
0.061507
0
VERTEX
8
1
10
5.352777
20
8.498932
42
0.021933
0
VERTEX
8
1
10
5.316434
20
8.571526
42
-0.092924
0
VERTEX
8
1
10
5.327854
20
8.668869
42
-0.331472
0
VERTEX
8
1
10
5.451196
20
8.656330
42
-0.099142
0
VERTEX
8
1
10
5.564600
20
8.526547
42
0.039311
0
VERTEX
8
1
10
5.641202
20
8.437492
42
0.052937
0
VERTEX
8
1
10
5.621984
20
8.656240
42
-0.075455
0
VERTEX
8
1
10
5.628759
20
8.812706
42
-0.075926
0
VERTEX
8
1
10
5.700709
20
8.924744
42
0.165495
0
VERTEX
8
1
10
5.753578
20
9.155853
42
0.472667
0
VERTEX
8
1
10
5.700502
20
9.127190
0
VERTEX
8
1
10
5.696214
20
9.118774
0
VERTEX
8
1
10
5.670504
20
9.112457
42
0.019842
0
VERTEX
8
1
10
5.516428
20
9.026620
42
-0.171826
0
VERTEX
8
1
10
5.424466
20
9.022957
0
VERTEX
8
1
10
5.423242
20
9.042976
0
VERTEX
8
1
10
5.426633
20
9.065018
42
-0.138591
0
VERTEX
8
1
10
5.587374
20
9.292418
42
0.156830
0
VERTEX
8
1
10
5.683098
20
9.467430
0
VERTEX
8
1
10
5.680550
20
9.487160
42
-0.113580
0
VERTEX
8
1
10
5.418379
20
9.351158
42
0.060512
0
VERTEX
8
1
10
5.269453
20
9.270425
42
-0.087485
0
VERTEX
8
1
10
5.155020
20
9.229553
0
VERTEX
8
1
10
5.132460
20
9.233948
42
-0.042471
0
VERTEX
8
1
10
5.112847
20
9.358887
0
VERTEX
8
1
10
5.114749
20
9.376495
42
-0.094014
0
VERTEX
8
1
10
5.214719
20
9.563271
42
0.162650
0
VERTEX
8
1
10
5.285166
20
9.753784
42
-0.035605
0
VERTEX
8
1
10
5.324142
20
9.931064
42
0.108193
0
VERTEX
8
1
10
5.317285
20
10.000404
0
VERTEX
8
1
10
5.305467
20
10.010529
0
VERTEX
8
1
10
5.284368
20
9.996948
42
0.118134
0
VERTEX
8
1
10
5.203887
20
9.873184
42
-0.110877
0
VERTEX
8
1
10
5.021141
20
9.591292
42
0.046687
0
VERTEX
8
1
10
4.938563
20
9.474556
0
VERTEX
8
1
10
4.934371
20
9.474701
42
-0.196463
0
VERTEX
8
1
10
4.925093
20
9.709000
42
0.140090
0
VERTEX
8
1
10
4.921767
20
9.866341
42
0.076170
0
VERTEX
8
1
10
4.829974
20
10.087051
0
VERTEX
8
1
10
4.818003
20
10.094116
0
VERTEX
8
1
10
4.811858
20
10.076561
42
0.039514
0
VERTEX
8
1
10
4.805086
20
9.918671
42
-0.131290
0
VERTEX
8
1
10
4.747979
20
9.758440
42
0.210228
0
VERTEX
8
1
10
4.740964
20
9.598595
42
-0.239443
0
VERTEX
8
1
10
4.715462
20
9.460350
42
-0.088949
0
VERTEX
8
1
10
4.584358
20
9.305580
0
VERTEX
8
1
10
4.576699
20
9.311630
42
-0.064728
0
VERTEX
8
1
10
4.580754
20
9.550316
42
0.028979
0
VERTEX
8
1
10
4.616622
20
9.692436
42
0.117909
0
VERTEX
8
1
10
4.574424
20
9.919724
42
-0.047763
0
VERTEX
8
1
10
4.530094
20
10.115311
42
0.737096
0
VERTEX
8
1
10
4.507148
20
10.099106
0
VERTEX
8
1
10
4.504805
20
10.053680
42
-0.223826
0
VERTEX
8
1
10
4.405743
20
9.792401
42
-0.119767
0
VERTEX
8
1
10
4.331999
20
9.742645
0
VERTEX
8
1
10
4.317732
20
9.742722
0
VERTEX
8
1
10
4.311055
20
9.753387
42
0.104665
0
VERTEX
8
1
10
4.254050
20
9.881105
42
0.195014
0
VERTEX
8
1
10
4.220415
20
9.892609
0
VERTEX
8
1
10
4.214803
20
9.873337
42
-0.010329
0
VERTEX
8
1
10
4.211148
20
9.672745
42
-0.085660
0
VERTEX
8
1
10
4.165488
20
9.529823
42
0.135120
0
VERTEX
8
1
10
4.164402
20
9.428543
42
-0.181115
0
VERTEX
8
1
10
4.146637
20
9.359955
0
VERTEX
8
1
10
4.136289
20
9.367088
42
0.103754
0
VERTEX
8
1
10
4.040005
20
9.447243
42
0.283171
0
VERTEX
8
1
10
3.985628
20
9.435074
0
VERTEX
8
1
10
4.001089
20
9.410736
42
-0.182406
0
VERTEX
8
1
10
4.101532
20
9.121346
0
VERTEX
8
1
10
4.087300
20
9.120453
42
0.030570
0
VERTEX
8
1
10
3.976427
20
9.159523
0
VERTEX
8
1
10
3.960608
20
9.160446
0
VERTEX
8
1
10
3.943478
20
9.159195
42
0.187231
0
VERTEX
8
1
10
4.088925
20
8.963437
42
0.072487
0
VERTEX
8
1
10
4.364455
20
8.822236
42
-0.071888
0
VERTEX
8
1
10
4.434937
20
8.784004
42
-0.231611
0
VERTEX
8
1
10
4.439034
20
8.633087
42
0.423925
0
VERTEX
8
1
10
4.483775
20
8.535980
42
-0.202401
0
VERTEX
8
1
10
4.568905
20
8.438538
0
VERTEX
8
1
10
4.574399
20
8.428558
42
0.063575
0
VERTEX
8
1
10
4.409834
20
8.515106
42
-0.053088
0
VERTEX
8
1
10
4.101712
20
8.722206
42
0.103714
0
VERTEX
8
1
10
3.922611
20
8.803198
42
0.040772
0
VERTEX
8
1
10
3.765706
20
8.836121
42
-0.064244
0
VERTEX
8
1
10
3.669038
20
8.832367
0
VERTEX
8
1
10
3.658358
20
8.836494
0
VERTEX
8
1
10
3.654484
20
8.848152
42
0.148753
0
VERTEX
8
1
10
3.689579
20
8.933937
0
VERTEX
8
1
10
3.683618
20
8.950829
42
0.239782
0
VERTEX
8
1
10
3.601449
20
8.974442
0
VERTEX
8
1
10
3.571949
20
8.972092
0
VERTEX
8
1
10
3.515256
20
8.963959
42
0.356532
0
VERTEX
8
1
10
3.440914
20
8.977859
0
VERTEX
8
1
10
3.435566
20
8.979088
0
VERTEX
8
1
10
3.449781
20
8.994934
42
-0.003222
0
VERTEX
8
1
10
3.619314
20
9.117786
42
0.076160
0
VERTEX
8
1
10
3.648075
20
9.155403
0
VERTEX
8
1
10
3.668567
20
9.160255
0
VERTEX
8
1
10
3.670191
20
9.161163
0
VERTEX
8
1
10
3.675043
20
9.181618
42
0.162926
0
VERTEX
8
1
10
3.864236
20
9.385727
42
0.011002
0
VERTEX
8
1
10
3.990087
20
9.686180
42
-0.019576
0
VERTEX
8
1
10
4.131504
20
9.941431
42
-0.150994
0
VERTEX
8
1
10
4.246870
20
10.020432
42
0.049525
0
VERTEX
8
1
10
4.374654
20
10.095016
42
-0.079099
0
VERTEX
8
1
10
4.641285
20
10.212207
42
-0.091185
0
VERTEX
8
1
10
4.670633
20
10.209999
42
-0.012384
0
VERTEX
8
1
10
4.674775
20
10.175613
42
0.075228
0
VERTEX
8
1
10
4.832317
20
10.227600
42
-0.068948
0
VERTEX
8
1
10
5.104332
20
10.267616
0
VERTEX
8
1
10
5.115962
20
10.251114
42
0.503862
0
VERTEX
8
1
10
5.159967
20
10.214394
42
0.024519
0
VERTEX
8
1
10
5.249428
20
10.253807
0
VERTEX
8
1
10
5.264684
20
10.256378
42
-0.196255
0
VERTEX
8
1
10
5.338078
20
10.198311
42
-0.015360
0
VERTEX
8
1
10
5.559797
20
9.896034
0
VERTEX
8
1
10
5.584476
20
9.855134
0
VERTEX
8
1
10
5.607788
20
9.813438
42
0.061605
0
VERTEX
8
1
10
5.647082
20
9.848923
0
VERTEX
8
1
10
5.667295
20
9.838257
42
-0.146257
0
VERTEX
8
1
10
5.754561
20
9.684311
42
-0.117836
0
VERTEX
8
1
10
5.773358
20
9.396751
42
0.016769
0
VERTEX
8
1
10
5.807590
20
9.405869
42
-0.131350
0
VERTEX
8
1
10
5.834774
20
9.283649
42
-0.129290
0
VERTEX
8
1
10
5.734931
20
8.841296
42
0.009690
0
VERTEX
8
1
10
5.705181
20
8.765511
0
VERTEX
8
1
10
5.708516
20
8.745819
42
-0.074121
0
VERTEX
8
1
10
5.750793
20
8.524246
42
-0.194455
0
VERTEX
8
1
10
5.653467
20
8.330517
42
-0.294991
0
VERTEX
8
1
10
5.627708
20
8.336670
42
0.167398
0
VERTEX
8
1
10
5.530915
20
8.332573
42
0.304479
0
VERTEX
8
1
10
5.504348
20
8.217640
42
-0.135735
0
VERTEX
8
1
10
5.489882
20
8.089464
42
0.063233
0
VERTEX
8
1
10
5.475865
20
8.022095
42
-0.300569
0
VERTEX
8
1
10
5.412851
20
8.086960
42
0.032080
0
VERTEX
8
1
10
5.308865
20
7.914894
42
0.095794
0
VERTEX
8
1
10
5.285234
20
7.717632
42
-0.112630
0
VERTEX
8
1
10
5.252820
20
7.604988
42
-0.055129
0
VERTEX
8
1
10
5.220065
20
7.610252
0
VERTEX
8
1
10
5.210134
20
7.593788
42
0.030797
0
SEQEND
0
POLYLINE
8
1
66
1
70
1
0
VERTEX
8
1
10
2.839374
20
7.907959
42
-0.540152
0
VERTEX
8
1
10
2.951783
20
7.999092
42
-0.648976
0
VERTEX
8
1
10
2.939368
20
7.813436
42
-0.502198
0
SEQEND
0
POLYLINE
8
1
66
1
70
1
0
VERTEX
8
1
10
7.131253
20
3.109703
42
0.111604
0
VERTEX
8
1
10
6.911788
20
3.287148
42
0.094716
0
VERTEX
8
1
10
6.985661
20
2.956436
0
VERTEX
8
1
10
6.985297
20
2.945221
42
-0.005821
0
VERTEX
8
1
10
6.798769
20
3.049927
0
VERTEX
8
1
10
6.782187
20
3.032219
42
0.240163
0
VERTEX
8
1
10
6.780374
20
2.906860
42
0.023304
0
VERTEX
8
1
10
6.847717
20
2.764816
0
VERTEX
8
1
10
6.849838
20
2.750977
42
0.088063
0
VERTEX
8
1
10
6.717832
20
2.743240
0
VERTEX
8
1
10
6.723287
20
2.732117
42
0.012821
0
VERTEX
8
1
10
6.866992
20
2.581383
0
VERTEX
8
1
10
6.876483
20
2.566841
42
-0.298794
0
VERTEX
8
1
10
6.755753
20
2.584709
42
0.022426
0
VERTEX
8
1
10
6.685760
20
2.633049
0
VERTEX
8
1
10
6.677453
20
2.624802
42
0.043626
0
VERTEX
8
1
10
6.685038
20
2.298920
42
0.030715
0
VERTEX
8
1
10
6.612825
20
2.330772
0
VERTEX
8
1
10
6.607469
20
2.325828
42
0.004471
0
VERTEX
8
1
10
6.555676
20
2.105537
42
-0.161616
0
VERTEX
8
1
10
6.428668
20
1.937204
42
0.014975
0
VERTEX
8
1
10
6.400511
20
1.909584
0
VERTEX
8
1
10
6.390491
20
1.906624
42
0.019045
0
VERTEX
8
1
10
6.441319
20
2.371024
42
0.022797
0
VERTEX
8
1
10
6.437991
20
2.481400
0
VERTEX
8
1
10
6.440078
20
2.496208
42
-0.111555
0
VERTEX
8
1
10
6.512247
20
2.410721
42
0.114310
0
VERTEX
8
1
10
6.518886
20
2.718013
42
-0.000437
0
VERTEX
8
1
10
6.506161
20
2.818613
0
VERTEX
8
1
10
6.508825
20
2.832802
42
0.131851
0
VERTEX
8
1
10
6.634709
20
2.814682
0
VERTEX
8
1
10
6.630271
20
2.834756
42
-0.002144
0
VERTEX
8
1
10
6.531740
20
3.092641
42
-0.062746
0
VERTEX
8
1
10
6.525377
20
3.143173
0
VERTEX
8
1
10
6.531271
20
3.151612
42
0.006082
0
VERTEX
8
1
10
6.665107
20
3.079987
0
VERTEX
8
1
10
6.671475
20
3.094795
42
-0.019571
0
VERTEX
8
1
10
6.687992
20
3.311112
42
-0.111513
0
VERTEX
8
1
10
6.721433
20
3.375488
42
0.162591
0
VERTEX
8
1
10
6.774283
20
3.260765
0
VERTEX
8
1
10
6.781460
20
3.277809
42
0.052104
0
VERTEX
8
1
10
6.785767
20
3.407570
0
VERTEX
8
1
10
6.777883
20
3.554138
42
-0.097660
0
VERTEX
8
1
10
6.800513
20
3.774139
0
VERTEX
8
1
10
6.818119
20
3.806931
42
-0.133808
0
VERTEX
8
1
10
6.892584
20
3.737831
0
VERTEX
8
1
10
6.896369
20
3.744209
42
0.041043
0
VERTEX
8
1
10
6.918231
20
4.213316
42
0.090912
0
VERTEX
8
1
10
6.892712
20
4.292641
0
VERTEX
8
1
10
6.972076
20
4.334442
0
VERTEX
8
1
10
6.954381
20
4.333237
0
VERTEX
8
1
10
6.939253
20
4.336090
42
-0.320817
0
VERTEX
8
1
10
6.852424
20
4.487595
0
VERTEX
8
1
10
6.875700
20
4.483063
0
VERTEX
8
1
10
6.908913
20
4.460175
42
-0.096995
0
VERTEX
8
1
10
7.088169
20
4.216451
42
0.001488
0
VERTEX
8
1
10
7.179867
20
4.040672
42
0.289541
0
VERTEX
8
1
10
7.065876
20
4.098572
0
VERTEX
8
1
10
7.057002
20
4.077049
42
0.156404
0
VERTEX
8
1
10
7.117881
20
3.844042
42
-0.091312
0
VERTEX
8
1
10
7.166492
20
3.671478
0
VERTEX
8
1
10
7.156019
20
3.673454
42
-0.018559
0
VERTEX
8
1
10
7.047706
20
3.759933
0
VERTEX
8
1
10
7.037366
20
3.754829
42
0.194514
0
VERTEX
8
1
10
7.075790
20
3.600759
42
-0.068223
0
VERTEX
8
1
10
7.132978
20
3.448527
42
-0.075091
0
VERTEX
8
1
10
7.130476
20
3.389343
0
VERTEX
8
1
10
7.121018
20
3.389214
42
0.112246
0
VERTEX
8
1
10
6.975152
20
3.497749
0
VERTEX
8
1
10
6.961328
20
3.496658
42
0.164044
0
VERTEX
8
1
10
7.015903
20
3.346634
42
-0.031162
0
VERTEX
8
1
10
7.166169
20
3.142790
42
-0.082673
0
VERTEX
8
1
10
7.200723
20
3.038971
0
VERTEX
8
1
10
7.190955
20
3.034256
42
0.012850
0
SEQEND
0
POLYLINE
8
1
66
1
70
1
0
VERTEX
8
1
10
10.861769
20
3.215355
42
0.077535
0
VERTEX
8
1
10
11.051950
20
3.015854
42
-0.011068
0
VERTEX
8
1
10
10.855085
20
3.007034
0
VERTEX
8
1
10
10.849047
20
2.985214
0
VERTEX
8
1
10
10.851857
20
2.958656
42
0.186269
0
VERTEX
8
1
10
10.949726
20
2.841866
42
-0.024788
0
VERTEX
8
1
10
11.027834
20
2.786552
0
VERTEX
8
1
10
11.030647
20
2.777489
42
0.085661
0
VERTEX
8
1
10
10.938137
20
2.706306
0
VERTEX
8
1
10
10.937302
20
2.699288
42
0.003600
0
VERTEX
8
1
10
11.139969
20
2.637489
42
-0.335021
0
VERTEX
8
1
10
11.037704
20
2.587708
42
0.030291
0
VERTEX
8
1
10
10.959603
20
2.592178
0
VERTEX
8
1
10
10.961988
20
2.576431
42
0.035871
0
VERTEX
8
1
10
11.117100
20
2.306244
42
0.053555
0
VERTEX
8
1
10
11.049295
20
2.296478
0
VERTEX
8
1
10
11.045922
20
2.292625
42
0.027325
0
VERTEX
8
1
10
11.107112
20
2.089487
42
-0.156536
0
VERTEX
8
1
10
11.090019
20
1.857342
42
0.016620
0
VERTEX
8
1
10
11.081634
20
1.817032
0
VERTEX
8
1
10
11.067846
20
1.840401
42
0.026214
0
VERTEX
8
1
10
10.883615
20
2.267533
42
0.009120
0
VERTEX
8
1
10
10.836915
20
2.347878
42
-0.102332
0
VERTEX
8
1
10
10.926612
20
2.317223
0
VERTEX
8
1
10
10.933004
20
2.316193
42
0.103840
0
VERTEX
8
1
10
10.787597
20
2.587484
42
-0.003027
0
VERTEX
8
1
10
10.730293
20
2.667618
42
0.131557
0
VERTEX
8
1
10
10.836199
20
2.719147
0
VERTEX
8
1
10
10.828896
20
2.731918
42
0.000188
0
VERTEX
8
1
10
10.628469
20
2.904265
42
-0.064757
0
VERTEX
8
1
10
10.599832
20
2.944801
0
VERTEX
8
1
10
10.602052
20
2.954079
42
-0.002028
0
VERTEX
8
1
10
10.730197
20
2.961679
0
VERTEX
8
1
10
10.739295
20
2.966148
42
-0.000999
0
VERTEX
8
1
10
10.648163
20
3.164720
42
-0.094487
0
VERTEX
8
1
10
10.640323
20
3.242043
42
0.139993
0
VERTEX
8
1
10
10.736264
20
3.173782
0
VERTEX
8
1
10
10.732200
20
3.195084
42
0.048919
0
VERTEX
8
1
10
10.599909
20
3.426224
42
-0.058149
0
VERTEX
8
1
10
10.519912
20
3.600349
0
VERTEX
8
1
10
10.513563
20
3.639351
0
VERTEX
8
1
10
10.516346
20
3.663033
42
-0.134731
0
VERTEX
8
1
10
10.606586
20
3.641113
42
0.034998
0
VERTEX
8
1
10
10.401289
20
4.060380
42
0.114838
0
VERTEX
8
1
10
10.342555
20
4.115875
0
VERTEX
8
1
10
10.383989
20
4.193420
42
-0.353505
0
VERTEX
8
1
10
10.289790
20
4.187337
42
-0.163998
0
VERTEX
8
1
10
10.222817
20
4.255035
0
VERTEX
8
1
10
10.229175
20
4.268669
42
-0.139622
0
VERTEX
8
1
10
10.393908
20
4.227118
42
-0.047193
0
VERTEX
8
1
10
10.655683
20
4.067169
0
VERTEX
8
1
10
10.680626
20
4.050819
42
0.335067
0
VERTEX
8
1
10
10.563415
20
4.038162
42
0.185059
0
VERTEX
8
1
10
10.716902
20
3.857219
42
-0.077407
0
VERTEX
8
1
10
10.836283
20
3.740585
0
VERTEX
8
1
10
10.838669
20
3.725296
42
-0.040595
0
VERTEX
8
1
10
10.723423
20
3.741875
0
VERTEX
8
1
10
10.711692
20
3.742378
0
VERTEX
8
1
10
10.705370
20
3.733292
42
0.194802
0
VERTEX
8
1
10
10.810394
20
3.619287
42
-0.079940
0
VERTEX
8
1
10
10.926991
20
3.514714
42
-0.078016
0
VERTEX
8
1
10
10.950376
20
3.461029
42
0.139774
0
VERTEX
8
1
10
10.769107
20
3.479248
0
VERTEX
8
1
10
10.781271
20
3.451454
42
0.141323
0
VERTEX
8
1
10
10.907369
20
3.361099
42
-0.059096
0
VERTEX
8
1
10
11.108349
20
3.265740
42
-0.063751
0
VERTEX
8
1
10
11.164451
20
3.210205
0
VERTEX
8
1
10
11.162565
20
3.197723
42
0.122561
0
VERTEX
8
1
10
10.851926
20
3.270424
0
VERTEX
8
1
10
10.832222
20
3.262100
0
VERTEX
8
1
10
10.846437
20
3.238602
0
SEQEND
0
POLYLINE
8
1
66
1
70
1
0
VERTEX
8
1
10
17.044760
20
3.066193
42
-0.138761
0
VERTEX
8
1
10
17.048157
20
3.003197
0
VERTEX
8
1
10
16.942293
20
3.035812
0
VERTEX
8
1
10
16.847561
20
3.082626
0
VERTEX
8
1
10
16.762535
20
3.141800
42
-0.081580
0
VERTEX
8
1
10
16.490934
20
3.466248
42
0.003782
0
VERTEX
8
1
10
16.262871
20
3.842922
42
0.049346
0
VERTEX
8
1
10
16.059538
20
4.093521
0
VERTEX
8
1
10
15.979633
20
4.160416
0
VERTEX
8
1
10
15.890876
20
4.216217
0
VERTEX
8
1
10
15.888826
20
4.211899
42
-0.126106
0
VERTEX
8
1
10
15.993718
20
3.985641
0
VERTEX
8
1
10
16.001200
20
3.958260
0
VERTEX
8
1
10
15.989184
20
3.955711
42
-0.139447
0
VERTEX
8
1
10
15.874710
20
4.047661
42
0.030748
0
VERTEX
8
1
10
15.708611
20
4.242401
42
0.049541
0
VERTEX
8
1
10
15.403325
20
4.420648
42
-0.027426
0
VERTEX
8
1
10
14.797295
20
4.781867
42
-0.060672
0
VERTEX
8
1
10
14.605493
20
4.953396
42
-0.084562
0
VERTEX
8
1
10
14.565604
20
5.033195
0
VERTEX
8
1
10
14.571723
20
5.057724
42
-0.123418
0
VERTEX
8
1
10
14.699019
20
5.038734
42
-0.054561
0
VERTEX
8
1
10
14.975868
20
4.915680
42
-0.070381
0
VERTEX
8
1
10
15.162610
20
4.792184
42
0.138004
0
VERTEX
8
1
10
15.344704
20
4.727669
42
-0.037249
0
VERTEX
8
1
10
15.473665
20
4.704384
0
VERTEX
8
1
10
15.441298
20
4.759514
42
0.098415
0
VERTEX
8
1
10
15.200430
20
4.966286
42
0.002060
0
VERTEX
8
1
10
14.809441
20
5.185611
42
-0.074114
0
VERTEX
8
1
10
14.571280
20
5.384987
42
-0.080402
0
VERTEX
8
1
10
14.487940
20
5.535019
0
VERTEX
8
1
10
14.510108
20
5.562126
0
VERTEX
8
1
10
14.548626
20
5.563911
42
-0.137229
0
VERTEX
8
1
10
14.758809
20
5.479393
0
VERTEX
8
1
10
14.825959
20
5.434784
42
0.127172
0
VERTEX
8
1
10
15.042295
20
5.344276
0
VERTEX
8
1
10
15.049907
20
5.364571
42
0.115134
0
VERTEX
8
1
10
14.853268
20
5.596893
42
-0.027194
0
VERTEX
8
1
10
14.480520
20
5.921859
42
-0.099642
0
VERTEX
8
1
10
14.430984
20
6.002512
42
-0.179836
0
VERTEX
8
1
10
14.444449
20
6.091019
42
-0.257789
0
VERTEX
8
1
10
14.512036
20
6.114830
42
-0.049363
0
VERTEX
8
1
10
14.701407
20
6.062874
0
VERTEX
8
1
10
14.716316
20
6.060829
0
VERTEX
8
1
10
14.671421
20
6.101189
42
-0.089545
0
VERTEX
8
1
10
14.521976
20
6.267947
42
-0.067186
0
VERTEX
8
1
10
14.510228
20
6.306061
0
VERTEX
8
1
10
14.541173
20
6.312012
42
-0.144285
0
VERTEX
8
1
10
14.744667
20
6.261360
42
0.035197
0
VERTEX
8
1
10
14.970632
20
6.155800
0
VERTEX
8
1
10
14.999122
20
6.149498
0
VERTEX
8
1
10
14.982948
20
6.174301
0
VERTEX
8
1
10
14.953638
20
6.205116
42
0.019175
0
VERTEX
8
1
10
14.661878
20
6.447719
42
-0.078521
0
VERTEX
8
1
10
14.495848
20
6.641629
42
-0.142069
0
VERTEX
8
1
10
14.480062
20
6.741089
0
VERTEX
8
1
10
14.496947
20
6.754395
42
-0.124973
0
VERTEX
8
1
10
14.663192
20
6.732698
42
0.099462
0
VERTEX
8
1
10
14.772676
20
6.730782
0
VERTEX
8
1
10
14.772275
20
6.743408
42
0.020424
0
VERTEX
8
1
10
14.630715
20
6.875398
42
-0.121733
0
VERTEX
8
1
10
14.567403
20
6.986519
0
VERTEX
8
1
10
14.580151
20
7.000893
42
-0.139938
0
VERTEX
8
1
10
14.777807
20
6.938309
0
VERTEX
8
1
10
14.841089
20
6.902054
42
0.131980
0
VERTEX
8
1
10
15.031795
20
6.835564
0
VERTEX
8
1
10
15.064517
20
6.838928
0
VERTEX
8
1
10
15.079476
20
6.850754
42
-0.043325
0
VERTEX
8
1
10
14.724530
20
7.140901
42
-0.083248
0
VERTEX
8
1
10
14.623538
20
7.300919
0
VERTEX
8
1
10
14.614139
20
7.342804
0
VERTEX
8
1
10
14.613873
20
7.384354
0
VERTEX
8
1
10
14.627666
20
7.418602
42
-0.167187
0
VERTEX
8
1
10
14.820073
20
7.347031
42
0.061185
0
VERTEX
8
1
10
15.022305
20
7.219035
42
0.118723
0
VERTEX
8
1
10
15.141693
20
7.205643
42
0.081367
0
VERTEX
8
1
10
14.956386
20
7.345108
42
-0.068136
0
VERTEX
8
1
10
14.630210
20
7.600750
42
-0.043585
0
VERTEX
8
1
10
14.458229
20
7.798447
0
VERTEX
8
1
10
14.476204
20
7.809151
42
-0.198453
0
VERTEX
8
1
10
14.625501
20
7.759178
42
0.058168
0
VERTEX
8
1
10
14.770815
20
7.657853
42
0.086700
0
VERTEX
8
1
10
14.826654
20
7.647232
0
VERTEX
8
1
10
14.829544
20
7.666428
42
0.118718
0
VERTEX
8
1
10
14.651148
20
7.874565
42
0.012173
0
VERTEX
8
1
10
14.319818
20
8.110746
42
-0.126568
0
VERTEX
8
1
10
14.283156
20
8.169731
42
-0.437856
0
VERTEX
8
1
10
14.355970
20
8.236725
0
VERTEX
8
1
10
14.374248
20
8.236290
42
0.008118
0
VERTEX
8
1
10
14.584504
20
8.201843
0
VERTEX
8
1
10
14.601281
20
8.202415
0
VERTEX
8
1
10
14.612579
20
8.209457
42
0.294807
0
VERTEX
8
1
10
14.540343
20
8.275970
0
VERTEX
8
1
10
14.510901
20
8.282990
42
-0.035194
0
VERTEX
8
1
10
14.300357
20
8.316611
42
-0.325732
0
VERTEX
8
1
10
14.233041
20
8.417122
42
-0.138128
0
VERTEX
8
1
10
14.675132
20
8.351805
42
-0.099664
0
VERTEX
8
1
10
14.849874
20
8.206767
42
0.077685
0
VERTEX
8
1
10
15.020814
20
8.075417
0
VERTEX
8
1
10
15.045218
20
8.066620
0
VERTEX
8
1
10
15.043191
20
8.080994
42
0.069487
0
VERTEX
8
1
10
14.860057
20
8.282585
42
0.030405
0
VERTEX
8
1
10
14.629833
20
8.467239
0
VERTEX
8
1
10
14.599485
20
8.483459
42
0.009702
0
VERTEX
8
1
10
14.263396
20
8.599512
42
-0.061608
0
VERTEX
8
1
10
14.156785
20
8.662354
0
VERTEX
8
1
10
14.137522
20
8.684387
0
VERTEX
8
1
10
14.124690
20
8.708809
0
VERTEX
8
1
10
14.149387
20
8.724762
42
-0.139328
0
VERTEX
8
1
10
14.491630
20
8.642891
42
0.023563
0
VERTEX
8
1
10
14.740952
20
8.516586
0
VERTEX
8
1
10
14.785336
20
8.500938
0
VERTEX
8
1
10
14.831636
20
8.488533
0
VERTEX
8
1
10
14.858270
20
8.495872
0
VERTEX
8
1
10
14.830484
20
8.536644
42
0.081517
0
VERTEX
8
1
10
14.591927
20
8.702087
0
VERTEX
8
1
10
14.512620
20
8.743057
42
-0.016331
0
VERTEX
8
1
10
14.059229
20
8.970428
0
VERTEX
8
1
10
14.010155
20
9.003410
0
VERTEX
8
1
10
13.975149
20
9.034454
0
VERTEX
8
1
10
13.956649
20
9.063377
0
VERTEX
8
1
10
13.958957
20
9.083847
42
0.043532
0
VERTEX
8
1
10
14.201385
20
9.038017
42
-0.114333
0
VERTEX
8
1
10
14.443191
20
8.925385
42
0.086118
0
VERTEX
8
1
10
14.583941
20
8.870697
0
VERTEX
8
1
10
14.574542
20
8.900307
42
0.151007
0
VERTEX
8
1
10
14.437523
20
9.009087
0
VERTEX
8
1
10
14.386869
20
9.031212
42
0.035273
0
VERTEX
8
1
10
13.934703
20
9.154846
42
-0.009013
0
VERTEX
8
1
10
13.693640
20
9.222610
0
VERTEX
8
1
10
13.698166
20
9.224945
42
-0.049671
0
VERTEX
8
1
10
13.889663
20
9.221519
42
0.041529
0
VERTEX
8
1
10
14.137990
20
9.251808
42
-0.103428
0
VERTEX
8
1
10
14.334465
20
9.238480
42
0.022148
0
VERTEX
8
1
10
14.642232
20
9.167705
42
0.065927
0
VERTEX
8
1
10
14.755337
20
9.170517
0
VERTEX
8
1
10
14.777036
20
9.186111
42
0.214057
0
VERTEX
8
1
10
14.632515
20
9.298157
0
VERTEX
8
1
10
14.585178
20
9.309196
42
0.015802
0
VERTEX
8
1
10
14.299884
20
9.335219
42
-0.122359
0
VERTEX
8
1
10
14.149715
20
9.396584
0
VERTEX
8
1
10
14.117071
20
9.430634
0
VERTEX
8
1
10
14.093582
20
9.472099
42
-0.089983
0
VERTEX
8
1
10
14.318514
20
9.449969
42
0.091032
0
VERTEX
8
1
10
14.445714
20
9.454628
0
VERTEX
8
1
10
14.435283
20
9.471848
42
0.206572
0
VERTEX
8
1
10
14.096596
20
9.622803
0
VERTEX
8
1
10
14.110883
20
9.642509
42
-0.216307
0
VERTEX
8
1
10
14.252003
20
9.666779
42
-0.058232
0
VERTEX
8
1
10
14.468227
20
9.595591
42
0.045485
0
VERTEX
8
1
10
14.632144
20
9.546204
0
VERTEX
8
1
10
14.663449
20
9.544609
0
VERTEX
8
1
10
14.690008
20
9.549591
0
VERTEX
8
1
10
14.673082
20
9.567841
42
0.081113
0
VERTEX
8
1
10
14.203566
20
9.763844
42
0.033371
0
VERTEX
8
1
10
14.039371
20
9.785339
0
VERTEX
8
1
10
13.866063
20
9.796753
42
-0.118586
0
VERTEX
8
1
10
13.431594
20
9.906853
0
VERTEX
8
1
10
13.411162
20
9.924706
42
-0.134349
0
VERTEX
8
1
10
13.596443
20
9.951885
42
0.011050
0
VERTEX
8
1
10
13.657157
20
9.953278
0
VERTEX
8
1
10
13.668303
20
9.959091
0
VERTEX
8
1
10
13.651165
20
9.979675
42
0.122559
0
VERTEX
8
1
10
13.496378
20
10.030624
42
0.015137
0
VERTEX
8
1
10
13.057670
20
10.065188
42
-0.062797
0
VERTEX
8
1
10
12.926348
20
10.094864
0
VERTEX
8
1
10
12.929214
20
10.108398
42
-0.324527
0
VERTEX
8
1
10
13.146008
20
10.215561
42
0.071734
0
VERTEX
8
1
10
12.879933
20
10.280968
42
-0.037204
0
VERTEX
8
1
10
12.500703
20
10.361099
42
-0.023818
0
VERTEX
8
1
10
12.193834
20
10.451248
0
VERTEX
8
1
10
12.201018
20
10.491547
0
VERTEX
8
1
10
12.239177
20
10.535713
0
VERTEX
8
1
10
12.288212
20
10.565392
0
VERTEX
8
1
10
12.346529
20
10.582047
0
VERTEX
8
1
10
12.412530
20
10.587158
42
-0.095122
0
VERTEX
8
1
10
12.797159
20
10.491536
42
-0.036229
0
VERTEX
8
1
10
13.234365
20
10.274742
42
0.046480
0
VERTEX
8
1
10
14.098162
20
9.922405
42
-0.017641
0
VERTEX
8
1
10
14.482331
20
9.783804
42
-0.098019
0
VERTEX
8
1
10
14.751976
20
9.584595
0
VERTEX
8
1
10
14.844226
20
9.489746
42
0.089018
0
VERTEX
8
1
10
15.114793
20
9.275024
42
-0.202858
0
VERTEX
8
1
10
15.303276
20
9.099191
42
0.132408
0
VERTEX
8
1
10
15.444779
20
8.954575
42
-0.040216
0
VERTEX
8
1
10
15.750846
20
8.706178
42
-0.091358
0
VERTEX
8
1
10
15.805825
20
8.620453
0
VERTEX
8
1
10
15.808313
20
8.599434
0
VERTEX
8
1
10
15.794814
20
8.589752
42
-0.099270
0
VERTEX
8
1
10
15.645303
20
8.600876
42
0.145676
0
VERTEX
8
1
10
15.551652
20
8.592262
0
VERTEX
8
1
10
15.561152
20
8.580437
42
-0.101312
0
VERTEX
8
1
10
15.959253
20
8.304993
0
VERTEX
8
1
10
15.966961
20
8.286369
0
VERTEX
8
1
10
15.942914
20
8.282181
42
-0.083893
0
VERTEX
8
1
10
15.699074
20
8.314331
42
0.032587
0
VERTEX
8
1
10
15.563405
20
8.338676
0
VERTEX
8
1
10
15.548892
20
8.335014
0
VERTEX
8
1
10
15.573936
20
8.314941
42
0.095250
0
VERTEX
8
1
10
15.826715
20
8.219460
42
-0.172267
0
VERTEX
8
1
10
16.124468
20
8.036842
42
-0.015925
0
VERTEX
8
1
10
16.333891
20
7.760887
42
0.098451
0
VERTEX
8
1
10
16.123352
20
7.860970
0
VERTEX
8
1
10
16.128271
20
7.838188
42
0.138439
0
VERTEX
8
1
10
16.235931
20
7.710930
0
VERTEX
8
1
10
16.281076
20
7.676483
42
-0.157400
0
VERTEX
8
1
10
16.407600
20
7.516029
0
VERTEX
8
1
10
16.405050
20
7.502449
42
-0.322422
0
VERTEX
8
1
10
16.326088
20
7.497663
42
0.181091
0
VERTEX
8
1
10
16.287416
20
7.494119
42
-0.277311
0
VERTEX
8
1
10
16.199963
20
7.523407
0
VERTEX
8
1
10
16.185413
20
7.523651
42
-0.144600
0
VERTEX
8
1
10
15.967789
20
7.472382
42
-0.019000
0
VERTEX
8
1
10
15.811515
20
7.478142
0
VERTEX
8
1
10
15.797319
20
7.476494
42
0.018487
0
VERTEX
8
1
10
16.098362
20
7.332487
42
0.049957
0
VERTEX
8
1
10
16.167229
20
7.316658
42
-0.279649
0
VERTEX
8
1
10
16.276005
20
7.308807
0
VERTEX
8
1
10
16.302765
20
7.289955
42
-0.165311
0
VERTEX
8
1
10
16.472511
20
6.977394
0
VERTEX
8
1
10
16.472641
20
6.953515
42
0.017115
0
VERTEX
8
1
10
16.256372
20
7.049970
0
VERTEX
8
1
10
16.245420
20
7.052825
0
VERTEX
8
1
10
16.234369
20
7.055275
0
VERTEX
8
1
10
16.236647
20
7.035934
42
0.176564
0
VERTEX
8
1
10
16.379709
20
6.865014
42
-0.152137
0
VERTEX
8
1
10
16.531733
20
6.647186
42
0.034853
0
VERTEX
8
1
10
16.614388
20
6.442345
0
VERTEX
8
1
10
16.599028
20
6.445351
42
0.047219
0
VERTEX
8
1
10
16.126652
20
6.713177
42
0.053263
0
VERTEX
8
1
10
15.928475
20
6.767296
0
VERTEX
8
1
10
15.904178
20
6.760674
0
VERTEX
8
1
10
15.923024
20
6.733910
42
0.072866
0
VERTEX
8
1
10
16.125971
20
6.565674
42
-0.064771
0
VERTEX
8
1
10
16.292379
20
6.421379
0
VERTEX
8
1
10
16.306456
20
6.399872
42
-0.061281
0
VERTEX
8
1
10
16.198507
20
6.409489
0
VERTEX
8
1
10
16.177017
20
6.416397
42
0.160288
0
VERTEX
8
1
10
16.275181
20
6.248123
0
VERTEX
8
1
10
16.288778
20
6.233360
42
-0.137590
0
VERTEX
8
1
10
16.404566
20
6.140257
42
-0.138749
0
VERTEX
8
1
10
16.529720
20
5.848236
0
VERTEX
8
1
10
16.520441
20
5.844208
42
0.022673
0
VERTEX
8
1
10
16.365320
20
5.863388
0
VERTEX
8
1
10
16.347349
20
5.862000
0
VERTEX
8
1
10
16.345291
20
5.852654
42
0.130505
0
VERTEX
8
1
10
16.486322
20
5.649254
0
VERTEX
8
1
10
16.475473
20
5.645561
42
-0.042768
0
VERTEX
8
1
10
16.315231
20
5.678406
0
VERTEX
8
1
10
16.183765
20
5.716309
42
0.050175
0
VERTEX
8
1
10
15.981400
20
5.755478
0
VERTEX
8
1
10
15.967655
20
5.747841
42
0.102112
0
VERTEX
8
1
10
16.097040
20
5.661682
0
VERTEX
8
1
10
16.156370
20
5.634125
42
-0.146092
0
VERTEX
8
1
10
16.313902
20
5.516841
42
-0.114254
0
VERTEX
8
1
10
16.333057
20
5.454422
42
0.064341
0
VERTEX
8
1
10
16.200016
20
5.462607
42
-0.253898
0
VERTEX
8
1
10
16.419119
20
5.149849
42
-0.149078
0
VERTEX
8
1
10
16.164915
20
5.205905
42
-0.001583
0
VERTEX
8
1
10
16.069845
20
5.249345
0
VERTEX
8
1
10
16.082344
20
5.224976
42
0.123078
0
VERTEX
8
1
10
16.234871
20
5.111328
0
VERTEX
8
1
10
16.305445
20
5.075996
42
-0.149509
0
VERTEX
8
1
10
16.456356
20
4.949135
42
-0.181289
0
VERTEX
8
1
10
16.470222
20
4.843010
42
0.016870
0
VERTEX
8
1
10
16.373222
20
4.833298
0
VERTEX
8
1
10
16.371771
20
4.826706
42
0.245479
0
VERTEX
8
1
10
16.486654
20
4.695777
0
VERTEX
8
1
10
16.497896
20
4.689479
0
VERTEX
8
1
10
16.509129
20
4.683167
42
-0.056264
0
VERTEX
8
1
10
16.542765
20
4.562334
42
-0.502133
0
VERTEX
8
1
10
16.533886
20
4.560738
0
VERTEX
8
1
10
16.625229
20
4.271042
42
0.124295
0
VERTEX
8
1
10
16.511509
20
4.306534
42
0.142540
0
VERTEX
8
1
10
16.588364
20
4.170219
0
VERTEX
8
1
10
16.621058
20
4.135773
42
-0.032073
0
VERTEX
8
1
10
16.868729
20
3.892540
42
-0.159428
0
VERTEX
8
1
10
16.919264
20
3.743629
0
VERTEX
8
1
10
16.906239
20
3.733253
42
-0.101465
0
VERTEX
8
1
10
16.656139
20
3.859550
0
VERTEX
8
1
10
16.646322
20
3.844765
42
0.220414
0
VERTEX
8
1
10
16.704306
20
3.688603
42
0.050318
0
VERTEX
8
1
10
16.795143
20
3.599487
0
VERTEX
8
1
10
16.890589
20
3.519951
42
-0.078084
0
VERTEX
8
1
10
16.987808
20
3.415092
0
VERTEX
8
1
10
16.991312
20
3.398403
42
-0.000526
0
VERTEX
8
1
10
16.796204
20
3.389590
0
VERTEX
8
1
10
16.789089
20
3.385170
42
-0.004633
0
VERTEX
8
1
10
16.951290
20
3.203825
0
VERTEX
8
1
10
16.954239
20
3.195526
0
VERTEX
8
1
10
16.955629
20
3.186829
42
-0.116935
0
SEQEND
0
CIRCLE
8
1
10
16.492702
20
5.643209
40
0.001038
0
POLYLINE
8
1
66
1
70
1
0
VERTEX
8
1
10
5.559672
20
6.698831
42
-0.063451
0
VERTEX
8
1
10
5.465862
20
7.388984
42
-0.061035
0
VERTEX
8
1
10
5.498715
20
7.552367
42
0.022425
0
VERTEX
8
1
10
5.539733
20
7.764564
0
VERTEX
8
1
10
5.548744
20
7.801554
42
-0.123594
0
VERTEX
8
1
10
5.649775
20
7.997115
42
-0.055759
0
VERTEX
8
1
10
5.704487
20
8.040955
0
VERTEX
8
1
10
5.739278
20
8.047951
42
-0.164585
0
VERTEX
8
1
10
5.957312
20
7.727432
0
VERTEX
8
1
10
5.968306
20
7.738289
0
VERTEX
8
1
10
5.981015
20
7.782845
42
0.144013
0
VERTEX
8
1
10
5.920888
20
8.390182
0
VERTEX
8
1
10
5.928597
20
8.412659
42
-0.197278
0
VERTEX
8
1
10
6.090299
20
8.422638
42
0.054921
0
VERTEX
8
1
10
6.223729
20
8.399437
0
VERTEX
8
1
10
6.225299
20
8.410309
42
0.208551
0
VERTEX
8
1
10
6.103844
20
8.540924
0
VERTEX
8
1
10
6.096525
20
8.566856
42
-0.086949
0
VERTEX
8
1
10
6.137097
20
8.879197
0
VERTEX
8
1
10
6.144712
20
8.919253
42
0.046532
0
VERTEX
8
1
10
6.152337
20
9.238602
42
-0.099430
0
VERTEX
8
1
10
6.063309
20
9.201653
0
VERTEX
8
1
10
5.993832
20
9.188797
0
VERTEX
8
1
10
5.991210
20
9.190430
42
0.017484
0
VERTEX
8
1
10
5.995648
20
9.340080
0
VERTEX
8
1
10
5.998230
20
9.351044
42
0.232139
0
VERTEX
8
1
10
6.048866
20
9.514586
42
-0.003383
0
VERTEX
8
1
10
6.010314
20
9.744087
42
-0.063042
0
VERTEX
8
1
10
5.925572
20
10.019524
42
0.072190
0
VERTEX
8
1
10
6.095768
20
9.851166
42
-0.023043
0
VERTEX
8
1
10
6.264412
20
9.690331
0
VERTEX
8
1
10
6.318089
20
9.847694
42
-0.085588
0
VERTEX
8
1
10
6.380080
20
9.585083
42
0.057012
0
VERTEX
8
1
10
6.506272
20
9.739105
42
-0.431163
0
VERTEX
8
1
10
6.528820
20
9.724854
42
4.816192
0
VERTEX
8
1
10
6.533225
20
9.716148
42
-0.150817
0
VERTEX
8
1
10
6.563480
20
9.517372
42
0.046083
0
VERTEX
8
1
10
6.550460
20
9.261490
0
VERTEX
8
1
10
6.557906
20
9.221825
0
VERTEX
8
1
10
6.570927
20
9.183929
0
VERTEX
8
1
10
6.597153
20
9.175247
0
VERTEX
8
1
10
6.629215
20
9.217812
42
0.102881
0
VERTEX
8
1
10
6.689339
20
9.424088
42
-0.048435
0
VERTEX
8
1
10
6.732931
20
9.584953
0
VERTEX
8
1
10
6.754755
20
9.613579
0
VERTEX
8
1
10
6.784394
20
9.627838
0
VERTEX
8
1
10
6.823869
20
9.624908
0
VERTEX
8
1
10
6.875201
20
9.601974
0
VERTEX
8
1
10
6.940411
20
9.556236
0
VERTEX
8
1
10
6.985085
20
9.529152
42
0.143199
0
VERTEX
8
1
10
7.038030
20
9.747147
0
VERTEX
8
1
10
7.060155
20
9.753883
0
VERTEX
8
1
10
7.104485
20
9.747757
42
-0.134238
0
VERTEX
8
1
10
7.595446
20
9.478799
42
-0.078735
0
VERTEX
8
1
10
7.660849
20
9.381203
0
VERTEX
8
1
10
7.704568
20
9.404961
0
VERTEX
8
1
10
7.735163
20
9.461823
0
VERTEX
8
1
10
7.735100
20
9.518967
0
VERTEX
8
1
10
7.708823
20
9.575851
0
VERTEX
8
1
10
7.660779
20
9.631927
42
0.069660
0
VERTEX
8
1
10
7.339839
20
9.837195
42
0.007035
0
VERTEX
8
1
10
7.026261
20
9.985664
0
VERTEX
8
1
10
6.982359
20
10.009804
0
VERTEX
8
1
10
6.978730
20
10.020676
42
-0.060666
0
VERTEX
8
1
10
7.083009
20
10.134590
42
-0.109906
0
VERTEX
8
1
10
6.929492
20
10.175621
0
VERTEX
8
1
10
6.886150
20
10.162766
42
-0.150512
0
VERTEX
8
1
10
6.347835
20
10.216345
42
-0.092505
0
VERTEX
8
1
10
6.237723
20
10.301582
0
VERTEX
8
1
10
6.208484
20
10.352776
0
VERTEX
8
1
10
6.195745
20
10.412430
0
VERTEX
8
1
10
6.201676
20
10.479095
42
-0.041801
0
VERTEX
8
1
10
6.315632
20
10.544724
42
0.289522
0
VERTEX
8
1
10
6.500226
20
10.533051
0
VERTEX
8
1
10
6.514556
20
10.535530
42
0.080008
0
VERTEX
8
1
10
6.721069
20
10.347115
0
VERTEX
8
1
10
6.741898
20
10.336823
0
VERTEX
8
1
10
6.750650
20
10.354561
0
VERTEX
8
1
10
6.738919
20
10.421021
0
VERTEX
8
1
10
6.740330
20
10.468033
0
VERTEX
8
1
10
6.753196
20
10.497627
0
VERTEX
8
1
10
6.775830
20
10.511795
0
VERTEX
8
1
10
6.806545
20
10.512527
0
VERTEX
8
1
10
6.843655
20
10.501846
42
-0.090251
0
VERTEX
8
1
10
7.140755
20
10.275169
0
VERTEX
8
1
10
7.158401
20
10.266548
42
0.018038
0
VERTEX
8
1
10
7.141294
20
10.425423
0
VERTEX
8
1
10
7.141562
20
10.449142
42
-0.436123
0
VERTEX
8
1
10
7.244860
20
10.544819
42
-0.285925
0
VERTEX
8
1
10
7.403361
20
10.458630
42
-0.131466
0
VERTEX
8
1
10
7.485150
20
10.247482
0
VERTEX
8
1
10
7.499234
20
10.244736
42
0.256464
0
VERTEX
8
1
10
7.549076
20
10.368111
42
-0.072477
0
VERTEX
8
1
10
7.554786
20
10.530776
42
-0.144998
0
VERTEX
8
1
10
7.602565
20
10.599586
42
-0.107015
0
VERTEX
8
1
10
7.807718
20
10.740845
0
VERTEX
8
1
10
7.812922
20
10.720718
42
-0.009409
0
VERTEX
8
1
10
7.849118
20
10.368492
0
VERTEX
8
1
10
7.867969
20
10.379051
42
0.047201
0
VERTEX
8
1
10
8.019126
20
10.557528
42
-0.068601
0
VERTEX
8
1
10
8.130496
20
10.660423
0
VERTEX
8
1
10
8.142849
20
10.616501
42
-0.085178
0
VERTEX
8
1
10
8.142015
20
10.250786
42
0.018465
0
VERTEX
8
1
10
8.117403
20
10.015381
0
VERTEX
8
1
10
8.136450
20
10.044794
42
-0.006354
0
VERTEX
8
1
10
8.279303
20
10.320334
42
-0.058700
0
VERTEX
8
1
10
8.355851
20
10.410706
0
VERTEX
8
1
10
8.385914
20
10.427307
42
-0.155659
0
VERTEX
8
1
10
8.419221
20
10.219337
42
-0.050477
0
VERTEX
8
1
10
8.338223
20
9.908400
42
0.056111
0
VERTEX
8
1
10
8.311291
20
9.752579
0
VERTEX
8
1
10
8.318598
20
9.728104
42
-0.034588
0
VERTEX
8
1
10
8.604434
20
10.138059
42
-0.024442
0
VERTEX
8
1
10
8.671146
20
10.206612
0
VERTEX
8
1
10
8.692436
20
10.208740
42
-0.132510
0
VERTEX
8
1
10
8.547241
20
9.546669
42
-0.097488
0
VERTEX
8
1
10
8.348369
20
9.322628
42
0.059061
0
VERTEX
8
1
10
8.166560
20
9.118088
42
0.081617
0
VERTEX
8
1
10
8.128854
20
9.018295
0
VERTEX
8
1
10
8.138327
20
8.999969
42
0.119980
0
VERTEX
8
1
10
8.453943
20
9.222893
0
VERTEX
8
1
10
8.471926
20
9.248215
0
VERTEX
8
1
10
8.485577
20
9.273033
0
VERTEX
8
1
10
8.492586
20
9.266396
42
-0.027976
0
VERTEX
8
1
10
8.544152
20
8.895149
0
VERTEX
8
1
10
8.555652
20
8.898804
0
VERTEX
8
1
10
8.569815
20
8.919220
42
0.040669
0
VERTEX
8
1
10
8.640497
20
9.097481
42
-0.095599
0
VERTEX
8
1
10
8.688046
20
9.174721
0
VERTEX
8
1
10
8.698986
20
9.161797
42
0.083401
0
VERTEX
8
1
10
8.886415
20
8.856688
42
0.096630
0
VERTEX
8
1
10
8.930774
20
8.830490
42
0.066773
0
VERTEX
8
1
10
8.933653
20
9.013741
0
VERTEX
8
1
10
8.924685
20
9.112762
42
-0.086969
0
VERTEX
8
1
10
8.932490
20
9.397064
0
VERTEX
8
1
10
8.946869
20
9.439423
0
VERTEX
8
1
10
8.967020
20
9.479538
0
VERTEX
8
1
10
9.010288
20
9.471504
0
VERTEX
8
1
10
9.053517
20
9.446709
42
-0.084171
0
VERTEX
8
1
10
9.218822
20
9.246314
42
0.028915
0
VERTEX
8
1
10
9.423759
20
8.938507
42
0.048239
0
VERTEX
8
1
10
9.502980
20
8.864471
0
VERTEX
8
1
10
9.543732
20
8.845619
42
0.103772
0
VERTEX
8
1
10
9.497551
20
9.062721
0
VERTEX
8
1
10
9.459167
20
9.158386
0
VERTEX
8
1
10
9.452715
20
9.177505
42
0.043107
0
VERTEX
8
1
10
9.642896
20
8.988304
0
VERTEX
8
1
10
9.655322
20
8.985016
0
VERTEX
8
1
10
9.655483
20
9.009529
42
0.119915
0
VERTEX
8
1
10
9.583413
20
9.177246
42
-0.052632
0
VERTEX
8
1
10
9.537861
20
9.272392
0
VERTEX
8
1
10
9.540487
20
9.284447
42
-0.048672
0
VERTEX
8
1
10
9.803213
20
9.076256
0
VERTEX
8
1
10
9.814558
20
9.074539
42
0.150242
0
VERTEX
8
1
10
9.701550
20
9.543526
42
-0.073368
0
VERTEX
8
1
10
9.624943
20
9.745110
0
VERTEX
8
1
10
9.642986
20
9.752983
42
-0.160537
0
VERTEX
8
1
10
9.762774
20
9.647888
0
VERTEX
8
1
10
9.790381
20
9.606667
42
0.020708
0
VERTEX
8
1
10
9.951116
20
9.346016
0
VERTEX
8
1
10
9.978874
20
9.313942
0
VERTEX
8
1
10
10.007421
20
9.289001
0
VERTEX
8
1
10
10.022267
20
9.292664
42
0.124454
0
VERTEX
8
1
10
10.039465
20
9.471255
42
-0.024423
0
VERTEX
8
1
10
10.041251
20
9.525398
0
VERTEX
8
1
10
10.051666
20
9.516327
42
-0.051803
0
VERTEX
8
1
10
10.154881
20
9.322837
42
0.019220
0
VERTEX
8
1
10
10.186543
20
9.265480
42
0.153953
0
VERTEX
8
1
10
10.275038
20
9.351158
42
-0.039018
0
VERTEX
8
1
10
10.408607
20
9.553738
42
-0.149898
0
VERTEX
8
1
10
10.511061
20
9.611122
42
-0.192746
0
VERTEX
8
1
10
10.480997
20
9.435257
42
0.124821
0
VERTEX
8
1
10
10.410819
20
9.235764
0
VERTEX
8
1
10
10.408597
20
9.225021
42
0.562525
0
VERTEX
8
1
10
10.420284
20
9.193367
42
0.190148
0
VERTEX
8
1
10
10.629429
20
9.186009
42
-0.034381
0
VERTEX
8
1
10
10.680137
20
9.192413
42
-0.224545
0
VERTEX
8
1
10
10.695757
20
9.128311
0
VERTEX
8
1
10
10.722682
20
9.141907
0
VERTEX
8
1
10
10.722863
20
9.141685
0
VERTEX
8
1
10
10.690871
20
9.116608
42
-0.125478
0
VERTEX
8
1
10
10.587402
20
9.036049
42
0.077825
0
VERTEX
8
1
10
10.454823
20
8.923691
42
0.190015
0
VERTEX
8
1
10
10.843660
20
9.042706
42
-0.165812
0
VERTEX
8
1
10
10.999959
20
9.084770
0
VERTEX
8
1
10
10.999683
20
9.072723
42
-0.185464
0
VERTEX
8
1
10
10.794954
20
8.833458
42
-0.209903
0
VERTEX
8
1
10
10.652220
20
8.801796
42
0.075694
0
VERTEX
8
1
10
10.553066
20
8.801353
0
VERTEX
8
1
10
10.539920
20
8.794083
42
0.354964
0
VERTEX
8
1
10
10.598000
20
8.736572
0
VERTEX
8
1
10
10.623509
20
8.733124
42
0.079875
0
VERTEX
8
1
10
10.842865
20
8.773338
0
VERTEX
8
1
10
10.858926
20
8.775192
42
0.008934
0
VERTEX
8
1
10
10.996531
20
8.725550
42
-0.555467
0
VERTEX
8
1
10
10.997302
20
8.656952
42
-0.202242
0
VERTEX
8
1
10
10.850690
20
8.589005
42
-0.076475
0
VERTEX
8
1
10
10.611869
20
8.607239
0
VERTEX
8
1
10
10.608634
20
8.605011
42
0.135451
0
VERTEX
8
1
10
10.845905
20
8.542168
42
-0.025801
0
VERTEX
8
1
10
10.821947
20
8.531906
42
0.017035
0
VERTEX
8
1
10
10.854648
20
8.542015
0
VERTEX
8
1
10
10.899468
20
8.540237
42
-0.142639
0
VERTEX
8
1
10
11.141584
20
8.474875
42
-0.052417
0
VERTEX
8
1
10
11.190750
20
8.431526
0
VERTEX
8
1
10
11.169695
20
8.407143
42
-0.119867
0
VERTEX
8
1
10
10.996780
20
8.357712
42
-0.032884
0
VERTEX
8
1
10
10.649195
20
8.363501
42
0.024552
0
VERTEX
8
1
10
10.547626
20
8.359932
0
VERTEX
8
1
10
10.566804
20
8.348747
42
0.035608
0
VERTEX
8
1
10
10.921167
20
8.238922
42
-0.001491
0
VERTEX
8
1
10
10.905541
20
8.219307
42
-0.162277
0
VERTEX
8
1
10
11.057229
20
8.190269
42
-0.025470
0
VERTEX
8
1
10
11.315594
20
8.015042
42
0.032551
0
VERTEX
8
1
10
11.401722
20
7.967491
0
VERTEX
8
1
10
11.416187
20
7.954803
42
-0.371483
0
VERTEX
8
1
10
11.364688
20
7.932892
42
-0.030810
0
VERTEX
8
1
10
11.216379
20
7.995140
42
0.174662
0
VERTEX
8
1
10
11.084026
20
7.973580
42
0.359477
0
VERTEX
8
1
10
11.080719
20
7.937149
42
0.140806
0
VERTEX
8
1
10
11.189223
20
7.857002
42
0.033412
0
VERTEX
8
1
10
11.523223
20
7.741119
42
-0.042937
0
VERTEX
8
1
10
11.695696
20
7.670074
42
-0.060081
0
VERTEX
8
1
10
11.828124
20
7.550697
0
VERTEX
8
1
10
11.932834
20
7.436668
42
0.086643
0
VERTEX
8
1
10
12.100760
20
7.297043
0
VERTEX
8
1
10
12.131462
20
7.287621
0
VERTEX
8
1
10
12.144386
20
7.318657
42
0.216543
0
VERTEX
8
1
10
12.063067
20
7.504509
42
0.057903
0
VERTEX
8
1
10
11.917104
20
7.629537
42
-0.045390
0
VERTEX
8
1
10
11.790874
20
7.744301
0
VERTEX
8
1
10
11.807323
20
7.761818
42
-0.165234
0
VERTEX
8
1
10
11.929097
20
7.777168
0
VERTEX
8
1
10
11.997052
20
7.765289
42
0.183127
0
VERTEX
8
1
10
12.103263
20
7.780914
0
VERTEX
8
1
10
12.081481
20
7.802917
0
VERTEX
8
1
10
12.048386
20
7.827965
42
-0.032093
0
VERTEX
8
1
10
11.754256
20
8.046226
42
-0.088980
0
VERTEX
8
1
10
11.680540
20
8.152557
0
VERTEX
8
1
10
11.673268
20
8.188065
0
VERTEX
8
1
10
11.677399
20
8.223343
42
-0.070180
0
VERTEX
8
1
10
12.235836
20
8.031845
42
-0.066220
0
VERTEX
8
1
10
12.367273
20
7.933571
42
0.231443
0
VERTEX
8
1
10
12.366351
20
8.046814
0
VERTEX
8
1
10
12.355942
20
8.057701
0
VERTEX
8
1
10
12.315045
20
8.069740
42
-0.069172
0
VERTEX
8
1
10
12.038194
20
8.229897
42
0.090212
0
VERTEX
8
1
10
11.720389
20
8.381447
42
-0.109865
0
VERTEX
8
1
10
11.549032
20
8.478225
42
-0.191743
0
VERTEX
8
1
10
11.508366
20
8.586952
0
VERTEX
8
1
10
11.519491
20
8.610786
42
0.047839
0
VERTEX
8
1
10
11.933271
20
8.537445
0
VERTEX
8
1
10
11.945868
20
8.547081
42
0.226245
0
VERTEX
8
1
10
11.836967
20
8.672058
42
0.053225
0
VERTEX
8
1
10
11.736769
20
8.712761
42
-0.198378
0
VERTEX
8
1
10
11.429744
20
8.806684
42
-0.099574
0
VERTEX
8
1
10
11.400682
20
8.853401
0
VERTEX
8
1
10
11.408238
20
8.864723
42
-0.052310
0
VERTEX
8
1
10
11.532759
20
8.903815
42
-0.070936
0
VERTEX
8
1
10
11.565634
20
8.899734
42
-0.201398
0
VERTEX
8
1
10
11.701725
20
8.913445
42
-0.043973
0
VERTEX
8
1
10
11.906253
20
8.832727
42
0.039315
0
VERTEX
8
1
10
11.968595
20
8.814873
0
VERTEX
8
1
10
11.974679
20
8.864197
0
VERTEX
8
1
10
11.957407
20
8.913956
0
VERTEX
8
1
10
11.922410
20
8.952370
0
VERTEX
8
1
10
11.873098
20
8.981430
42
0.062721
0
VERTEX
8
1
10
11.562737
20
9.049216
42
-0.042229
0
VERTEX
8
1
10
11.413533
20
9.088188
0
VERTEX
8
1
10
11.372462
20
9.113274
0
VERTEX
8
1
10
11.347767
20
9.146729
0
VERTEX
8
1
10
11.342856
20
9.190521
42
0.184330
0
VERTEX
8
1
10
11.553549
20
9.226034
42
-0.105189
0
VERTEX
8
1
10
11.725934
20
9.261475
42
-0.034902
0
VERTEX
8
1
10
11.590083
20
9.354546
0
VERTEX
8
1
10
11.578082
20
9.360199
42
-0.253403
0
VERTEX
8
1
10
11.363755
20
9.351814
42
0.024269
0
VERTEX
8
1
10
11.182201
20
9.443077
0
VERTEX
8
1
10
11.149746
20
9.451279
0
VERTEX
8
1
10
11.120852
20
9.455666
42
-0.102731
0
VERTEX
8
1
10
11.066301
20
9.577698
0
VERTEX
8
1
10
11.070620
20
9.585144
0
VERTEX
8
1
10
11.092507
20
9.589203
42
-0.093276
0
VERTEX
8
1
10
11.407192
20
9.541389
0
VERTEX
8
1
10
11.412556
20
9.547493
42
0.132249
0
VERTEX
8
1
10
11.195189
20
9.688587
42
-0.052881
0
VERTEX
8
1
10
11.003506
20
9.797478
0
VERTEX
8
1
10
10.995152
20
9.816696
42
-0.205561
0
VERTEX
8
1
10
11.193496
20
9.898682
0
VERTEX
8
1
10
11.217284
20
9.900032
0
VERTEX
8
1
10
11.221910
20
9.902847
42
-0.024874
0
VERTEX
8
1
10
11.092799
20
9.990715
42
-0.149711
0
VERTEX
8
1
10
10.940723
20
10.008088
42
-0.097334
0
VERTEX
8
1
10
10.816913
20
10.080055
0
VERTEX
8
1
10
10.848830
20
10.090828
42
0.045261
0
VERTEX
8
1
10
11.465748
20
10.268906
0
VERTEX
8
1
10
11.476058
20
10.260742
42
-0.154581
0
VERTEX
8
1
10
11.436219
20
10.111153
0
VERTEX
8
1
10
11.427356
20
10.093658
42
-0.044559
0
VERTEX
8
1
10
11.919011
20
10.181233
42
-0.063476
0
VERTEX
8
1
10
12.057923
20
10.167068
42
-0.215722
0
VERTEX
8
1
10
11.850739
20
10.004265
0
VERTEX
8
1
10
11.881273
20
10.002853
42
-0.019513
0
VERTEX
8
1
10
12.279124
20
10.014201
42
-0.059468
0
VERTEX
8
1
10
12.390563
20
9.991814
0
VERTEX
8
1
10
12.421155
20
9.974457
0
VERTEX
8
1
10
12.440642
20
9.951141
0
VERTEX
8
1
10
12.444816
20
9.926506
42
0.029712
0
VERTEX
8
1
10
12.322886
20
9.863708
0
VERTEX
8
1
10
12.318227
20
9.855431
42
0.196721
0
VERTEX
8
1
10
12.409745
20
9.815941
42
0.110446
0
VERTEX
8
1
10
12.696420
20
9.855881
0
VERTEX
8
1
10
12.713991
20
9.859314
42
-0.034917
0
VERTEX
8
1
10
12.887782
20
9.764755
0
VERTEX
8
1
10
12.910809
20
9.752899
0
VERTEX
8
1
10
12.915645
20
9.746643
42
0.088112
0
VERTEX
8
1
10
12.844599
20
9.650841
0
VERTEX
8
1
10
12.858496
20
9.647644
42
-0.054453
0
VERTEX
8
1
10
13.242188
20
9.597633
0
VERTEX
8
1
10
13.270504
20
9.587662
0
VERTEX
8
1
10
13.279576
20
9.574326
42
-0.254268
0
VERTEX
8
1
10
13.186181
20
9.474157
42
-0.016898
0
VERTEX
8
1
10
13.150072
20
9.457199
0
VERTEX
8
1
10
13.164839
20
9.448364
42
0.158031
0
VERTEX
8
1
10
13.323802
20
9.457205
42
-0.091842
0
VERTEX
8
1
10
13.450641
20
9.465631
42
-0.092585
0
VERTEX
8
1
10
13.479962
20
9.449623
0
VERTEX
8
1
10
13.642068
20
9.449623
42
-0.108974
0
VERTEX
8
1
10
13.884226
20
9.393181
42
-0.067400
0
VERTEX
8
1
10
13.509683
20
9.305710
42
0.104637
0
VERTEX
8
1
10
13.530115
20
9.262955
42
-0.048732
0
VERTEX
8
1
10
13.193547
20
9.348013
42
0.095167
0
VERTEX
8
1
10
12.998458
20
9.365807
0
VERTEX
8
1
10
12.986404
20
9.349030
42
0.140001
0
VERTEX
8
1
10
13.122153
20
9.219734
42
-0.030768
0
VERTEX
8
1
10
13.368937
20
9.072838
0
VERTEX
8
1
10
13.397771
20
9.047531
0
VERTEX
8
1
10
13.403766
20
9.031219
0
VERTEX
8
1
10
13.385719
20
9.029228
42
0.014190
0
VERTEX
8
1
10
13.211243
20
9.049688
42
0.181997
0
VERTEX
8
1
10
13.153872
20
9.019470
0
VERTEX
8
1
10
13.167775
20
8.992584
0
VERTEX
8
1
10
13.203874
20
8.959826
42
0.024622
0
VERTEX
8
1
10
13.461652
20
8.776587
42
-0.076745
0
VERTEX
8
1
10
13.610693
20
8.622559
0
VERTEX
8
1
10
13.633746
20
8.580490
0
VERTEX
8
1
10
13.630800
20
8.569679
42
0.104332
0
VERTEX
8
1
10
13.515263
20
8.590096
0
VERTEX
8
1
10
13.426935
20
8.589500
0
VERTEX
8
1
10
13.409264
20
8.589806
0
VERTEX
8
1
10
13.419126
20
8.584053
42
-0.091717
0
VERTEX
8
1
10
13.660630
20
8.447542
42
-0.157411
0
VERTEX
8
1
10
13.696745
20
8.374878
0
VERTEX
8
1
10
13.671027
20
8.365677
42
-0.106925
0
VERTEX
8
1
10
13.463036
20
8.390831
42
0.080738
0
VERTEX
8
1
10
13.260616
20
8.415833
0
VERTEX
8
1
10
13.292039
20
8.394203
42
-0.020341
0
VERTEX
8
1
10
13.838145
20
8.075914
42
-0.038568
0
VERTEX
8
1
10
13.990377
20
7.951576
0
VERTEX
8
1
10
14.030397
20
7.903252
0
VERTEX
8
1
10
14.053409
20
7.857353
0
VERTEX
8
1
10
14.056110
20
7.815117
42
-0.239647
0
VERTEX
8
1
10
13.895110
20
7.798782
42
0.066438
0
VERTEX
8
1
10
13.731969
20
7.839890
0
VERTEX
8
1
10
13.702546
20
7.838371
0
VERTEX
8
1
10
13.677866
20
7.829636
42
0.128619
0
VERTEX
8
1
10
13.846797
20
7.701515
0
VERTEX
8
1
10
13.943106
20
7.656303
42
-0.168365
0
VERTEX
8
1
10
14.109978
20
7.511871
0
VERTEX
8
1
10
14.123847
20
7.476326
0
VERTEX
8
1
10
14.121959
20
7.450287
0
VERTEX
8
1
10
14.106581
20
7.432556
0
VERTEX
8
1
10
14.079981
20
7.421944
42
-0.086296
0
VERTEX
8
1
10
13.864079
20
7.433686
42
0.009726
0
VERTEX
8
1
10
13.735549
20
7.450661
0
VERTEX
8
1
10
13.723610
20
7.445755
42
0.057068
0
VERTEX
8
1
10
14.012271
20
7.295974
42
-0.003003
0
VERTEX
8
1
10
14.095034
20
7.258545
0
VERTEX
8
1
10
14.113033
20
7.245239
42
-0.065272
0
VERTEX
8
1
10
14.112260
20
7.070412
0
VERTEX
8
1
10
14.101072
20
7.070129
42
0.060146
0
VERTEX
8
1
10
13.742584
20
7.206009
42
0.017473
0
VERTEX
8
1
10
13.485450
20
7.303466
42
0.124013
0
VERTEX
8
1
10
13.341648
20
7.303802
42
0.305444
0
VERTEX
8
1
10
13.342402
20
7.260658
42
-0.134443
0
VERTEX
8
1
10
13.550121
20
7.173042
42
0.037673
0
VERTEX
8
1
10
13.876768
20
6.955308
42
-0.086550
0
VERTEX
8
1
10
14.083976
20
6.763763
42
-0.266012
0
VERTEX
8
1
10
13.802787
20
6.644508
0
VERTEX
8
1
10
13.738556
20
6.644897
42
-0.048044
0
VERTEX
8
1
10
13.931869
20
6.455003
42
-0.131321
0
VERTEX
8
1
10
13.975337
20
6.339493
0
VERTEX
8
1
10
13.970200
20
6.313889
42
-0.213180
0
VERTEX
8
1
10
13.756514
20
6.370270
42
0.013519
0
VERTEX
8
1
10
13.615254
20
6.464264
0
VERTEX
8
1
10
13.593992
20
6.466423
0
VERTEX
8
1
10
13.596031
20
6.427483
42
0.119772
0
VERTEX
8
1
10
13.685758
20
6.275902
42
-0.076301
0
VERTEX
8
1
10
13.814960
20
6.091153
42
-0.303360
0
VERTEX
8
1
10
13.771594
20
5.926994
42
-0.037961
0
VERTEX
8
1
10
13.611957
20
5.991176
42
0.035974
0
VERTEX
8
1
10
13.576272
20
5.999657
0
VERTEX
8
1
10
13.564356
20
5.994751
0
VERTEX
8
1
10
13.561810
20
5.980057
42
0.482502
0
VERTEX
8
1
10
13.624840
20
5.897812
0
VERTEX
8
1
10
13.644830
20
5.893570
0
VERTEX
8
1
10
13.617228
20
5.755554
42
-0.055601
0
VERTEX
8
1
10
13.670481
20
5.384611
0
VERTEX
8
1
10
13.669308
20
5.353546
0
VERTEX
8
1
10
13.665195
20
5.342667
42
-0.004055
0
VERTEX
8
1
10
13.594762
20
5.334442
0
VERTEX
8
1
10
13.594172
20
5.314842
42
0.030136
0
VERTEX
8
1
10
13.661228
20
5.060505
42
-0.075403
0
VERTEX
8
1
10
13.666703
20
4.965179
0
VERTEX
8
1
10
13.655808
20
4.951088
0
VERTEX
8
1
10
13.635727
20
4.949722
0
VERTEX
8
1
10
13.604989
20
4.963219
42
-0.092668
0
VERTEX
8
1
10
13.426255
20
5.145836
42
-0.035427
0
VERTEX
8
1
10
13.281782
20
5.381790
42
-0.056637
0
VERTEX
8
1
10
13.417570
20
5.370697
0
VERTEX
8
1
10
13.412262
20
5.398499
42
0.077830
0
VERTEX
8
1
10
13.238943
20
5.748886
0
VERTEX
8
1
10
13.226657
20
5.770645
42
-0.090322
0
VERTEX
8
1
10
13.382998
20
5.762970
0
VERTEX
8
1
10
13.388038
20
5.767639
0
VERTEX
8
1
10
13.310219
20
5.903702
42
-0.088111
0
VERTEX
8
1
10
13.181028
20
6.225876
0
VERTEX
8
1
10
13.182782
20
6.246544
42
0.122858
0
VERTEX
8
1
10
13.406089
20
6.097771
0
VERTEX
8
1
10
13.415361
20
6.111992
42
0.103247
0
VERTEX
8
1
10
13.268421
20
6.383861
42
0.094242
0
VERTEX
8
1
10
12.865628
20
6.745117
0
VERTEX
8
1
10
12.813088
20
6.769798
0
VERTEX
8
1
10
12.790748
20
6.772224
42
-0.091623
0
VERTEX
8
1
10
12.834999
20
6.598640
0
VERTEX
8
1
10
12.813877
20
6.586517
42
-0.247502
0
VERTEX
8
1
10
12.701089
20
6.616005
42
-0.039597
0
VERTEX
8
1
10
12.581691
20
6.753213
42
0.138599
0
VERTEX
8
1
10
12.492687
20
6.804955
0
VERTEX
8
1
10
12.487768
20
6.782593
42
0.072018
0
VERTEX
8
1
10
12.562290
20
6.633415
0
VERTEX
8
1
10
12.638852
20
6.517296
42
-0.098524
0
VERTEX
8
1
10
12.723098
20
6.329491
0
VERTEX
8
1
10
12.724136
20
6.294334
0
VERTEX
8
1
10
12.696847
20
6.289429
42
-0.192156
0
VERTEX
8
1
10
12.549540
20
6.391728
42
0.078451
0
VERTEX
8
1
10
12.435840
20
6.486862
0
VERTEX
8
1
10
12.407606
20
6.496719
0
VERTEX
8
1
10
12.376013
20
6.501427
0
VERTEX
8
1
10
12.381258
20
6.443016
0
VERTEX
8
1
10
12.405379
20
6.381653
42
0.101359
0
VERTEX
8
1
10
12.624538
20
6.149570
42
-0.058751
0
VERTEX
8
1
10
12.785499
20
5.976563
0
VERTEX
8
1
10
12.818296
20
5.914902
0
VERTEX
8
1
10
12.839355
20
5.845955
0
VERTEX
8
1
10
12.846132
20
5.768280
0
VERTEX
8
1
10
12.836088
20
5.680420
0
VERTEX
8
1
10
12.825379
20
5.677986
42
-0.024102
0
VERTEX
8
1
10
12.728633
20
5.684887
42
-0.053463
0
VERTEX
8
1
10
12.705668
20
5.695442
42
-0.028066
0
VERTEX
8
1
10
12.756845
20
5.531286
42
-0.186969
0
VERTEX
8
1
10
12.728006
20
5.434525
42
0.084576
0
VERTEX
8
1
10
12.626222
20
5.471664
0
VERTEX
8
1
10
12.621131
20
5.467529
42
0.232630
0
VERTEX
8
1
10
12.667286
20
5.350983
42
-0.097176
0
VERTEX
8
1
10
12.775108
20
5.208455
42
-0.131039
0
VERTEX
8
1
10
12.777160
20
5.148537
42
-0.019153
0
VERTEX
8
1
10
12.621810
20
5.172569
0
VERTEX
8
1
10
12.622117
20
5.166771
42
0.061166
0
VERTEX
8
1
10
12.905050
20
5.033409
42
-0.035269
0
VERTEX
8
1
10
13.072577
20
4.951317
0
VERTEX
8
1
10
13.080410
20
4.937363
0
VERTEX
8
1
10
13.069707
20
4.928307
42
-0.014884
0
VERTEX
8
1
10
12.949713
20
4.879431
42
0.424278
0
VERTEX
8
1
10
12.938066
20
4.801773
0
VERTEX
8
1
10
12.948838
20
4.787117
42
0.034314
0
VERTEX
8
1
10
13.074489
20
4.676117
0
VERTEX
8
1
10
13.085410
20
4.664177
0
VERTEX
8
1
10
13.093109
20
4.652931
42
-0.038121
0
VERTEX
8
1
10
13.362160
20
4.489426
42
0.083080
0
VERTEX
8
1
10
13.665286
20
4.359540
42
-0.055043
0
VERTEX
8
1
10
13.806627
20
4.291908
0
VERTEX
8
1
10
13.792717
20
4.282921
42
-0.041056
0
VERTEX
8
1
10
13.612028
20
4.249543
42
0.074094
0
VERTEX
8
1
10
13.544157
20
4.221649
0
VERTEX
8
1
10
13.585251
20
4.191833
42
0.058765
0
VERTEX
8
1
10
14.140330
20
3.936128
42
0.003509
0
VERTEX
8
1
10
14.280314
20
3.887177
42
-0.164865
0
VERTEX
8
1
10
14.110558
20
3.819862
42
-0.033902
0
VERTEX
8
1
10
14.005345
20
3.812164
0
VERTEX
8
1
10
13.998487
20
3.807335
42
0.006990
0
VERTEX
8
1
10
14.666660
20
3.534438
42
-0.027368
0
VERTEX
8
1
10
14.952223
20
3.390518
0
VERTEX
8
1
10
15.000867
20
3.357124
0
VERTEX
8
1
10
14.987495
20
3.351044
42
-0.044749
0
VERTEX
8
1
10
14.816844
20
3.325963
42
0.030670
0
VERTEX
8
1
10
14.777248
20
3.315804
0
VERTEX
8
1
10
14.779694
20
3.304245
42
0.044336
0
VERTEX
8
1
10
15.127742
20
3.167521
42
-0.081024
0
VERTEX
8
1
10
15.474141
20
2.975479
42
-0.026337
0
VERTEX
8
1
10
15.786452
20
2.712509
0
VERTEX
8
1
10
15.789511
20
2.697456
42
-0.075449
0
VERTEX
8
1
10
15.534274
20
2.747437
42
0.060710
0
VERTEX
8
1
10
15.261876
20
2.795906
42
-0.059101
0
VERTEX
8
1
10
15.031051
20
2.843849
0
VERTEX
8
1
10
15.006713
20
2.855637
0
VERTEX
8
1
10
14.990053
20
2.868210
42
-0.021477
0
VERTEX
8
1
10
15.284392
20
2.898026
0
VERTEX
8
1
10
15.299304
20
2.902184
42
-0.017467
0
VERTEX
8
1
10
15.111586
20
3.017375
0
VERTEX
8
1
10
15.090281
20
3.027499
42
0.200854
0
VERTEX
8
1
10
14.957135
20
3.035934
42
-0.013882
0
VERTEX
8
1
10
14.594070
20
2.991863
42
0.037956
0
VERTEX
8
1
10
14.476268
20
2.962540
0
VERTEX
8
1
10
14.460079
20
2.963554
42
-0.190148
0
VERTEX
8
1
10
14.590759
20
3.029396
0
VERTEX
8
1
10
14.650629
20
3.040054
42
0.164196
0
VERTEX
8
1
10
14.781622
20
3.101189
0
VERTEX
8
1
10
14.800310
20
3.127754
0
VERTEX
8
1
10
14.799374
20
3.150063
42
0.011091
0
VERTEX
8
1
10
14.587969
20
3.238166
42
0.031775
0
VERTEX
8
1
10
14.528271
20
3.269783
42
-0.100395
0
VERTEX
8
1
10
14.426908
20
3.275146
42
-0.174633
0
VERTEX
8
1
10
14.610906
20
3.316467
42
0.322756
0
VERTEX
8
1
10
14.524891
20
3.413800
42
0.095451
0
VERTEX
8
1
10
14.358001
20
3.440857
42
-0.063264
0
VERTEX
8
1
10
14.086525
20
3.477104
42
0.010017
0
VERTEX
8
1
10
13.787792
20
3.538727
0
VERTEX
8
1
10
13.800204
20
3.546532
42
-0.127682
0
VERTEX
8
1
10
14.113396
20
3.566063
42
0.225797
0
VERTEX
8
1
10
14.020985
20
3.625977
0
VERTEX
8
1
10
14.009603
20
3.629860
42
-0.066473
0
VERTEX
8
1
10
13.825825
20
3.753464
42
0.113684
0
VERTEX
8
1
10
13.503012
20
3.893818
42
-0.003157
0
VERTEX
8
1
10
13.428638
20
3.915009
0
VERTEX
8
1
10
13.410239
20
3.925339
42
-0.070527
0
VERTEX
8
1
10
13.654983
20
3.966888
42
0.010141
0
VERTEX
8
1
10
13.706023
20
3.973717
0
VERTEX
8
1
10
13.708510
20
3.984818
42
0.132875
0
VERTEX
8
1
10
13.497842
20
4.070396
42
-0.018593
0
VERTEX
8
1
10
13.264398
20
4.112602
42
-0.066863
0
VERTEX
8
1
10
13.062056
20
4.157951
42
-0.805920
0
VERTEX
8
1
10
13.073298
20
4.245872
42
-0.157351
0
VERTEX
8
1
10
13.219564
20
4.231979
42
0.465087
0
VERTEX
8
1
10
13.176351
20
4.335060
42
-0.062712
0
VERTEX
8
1
10
13.046950
20
4.392799
0
VERTEX
8
1
10
13.050789
20
4.394379
42
0.034925
0
VERTEX
8
1
10
13.168795
20
4.399658
42
0.189864
0
VERTEX
8
1
10
13.053144
20
4.479744
42
0.044922
0
VERTEX
8
1
10
12.737280
20
4.527534
42
-0.060292
0
VERTEX
8
1
10
12.625705
20
4.555717
42
-0.187803
0
VERTEX
8
1
10
12.517030
20
4.569695
42
0.021567
0
VERTEX
8
1
10
12.460171
20
4.587975
42
0.036558
0
VERTEX
8
1
10
12.624197
20
4.636688
42
-0.084857
0
VERTEX
8
1
10
12.717674
20
4.644608
42
0.041353
0
VERTEX
8
1
10
12.586842
20
4.741749
42
0.048928
0
VERTEX
8
1
10
12.546399
20
4.755730
42
-0.019080
0
VERTEX
8
1
10
12.688766
20
4.786949
0
VERTEX
8
1
10
12.696528
20
4.793739
42
0.198993
0
VERTEX
8
1
10
12.628280
20
4.861656
42
0.026080
0
VERTEX
8
1
10
12.332973
20
4.991486
0
VERTEX
8
1
10
12.326774
20
5.006546
42
-0.260092
0
VERTEX
8
1
10
12.471256
20
5.066727
42
-0.008588
0
VERTEX
8
1
10
12.598133
20
5.060280
0
VERTEX
8
1
10
12.597872
20
5.065262
42
-0.041640
0
VERTEX
8
1
10
12.411741
20
5.139901
42
-0.250436
0
VERTEX
8
1
10
12.369092
20
5.232117
0
VERTEX
8
1
10
12.359805
20
5.246712
42
-0.191047
0
VERTEX
8
1
10
12.234396
20
5.348389
0
VERTEX
8
1
10
12.232156
20
5.358582
0
VERTEX
8
1
10
12.245048
20
5.362724
0
VERTEX
8
1
10
12.280998
20
5.366844
42
0.191140
0
VERTEX
8
1
10
12.444951
20
5.440979
0
VERTEX
8
1
10
12.435351
20
5.448074
0
VERTEX
8
1
10
12.382138
20
5.467964
42
-0.131695
0
VERTEX
8
1
10
12.241575
20
5.553932
42
-0.304336
0
VERTEX
8
1
10
12.240110
20
5.668338
42
-0.218035
0
VERTEX
8
1
10
12.295566
20
5.691429
42
-0.021483
0
VERTEX
8
1
10
12.447625
20
5.677628
42
0.079729
0
VERTEX
8
1
10
12.220896
20
5.874029
42
-0.089138
0
VERTEX
8
1
10
12.093539
20
6.013161
42
-0.054238
0
VERTEX
8
1
10
12.120271
20
6.080643
0
VERTEX
8
1
10
12.127356
20
6.084167
42
-0.105338
0
VERTEX
8
1
10
12.346722
20
6.035027
42
-0.058727
0
VERTEX
8
1
10
12.598326
20
5.899101
42
0.152809
0
VERTEX
8
1
10
12.640293
20
5.939705
0
VERTEX
8
1
10
12.629294
20
5.951241
0
VERTEX
8
1
10
12.588670
20
5.975647
42
-0.024420
0
VERTEX
8
1
10
12.178609
20
6.213185
42
-0.062252
0
VERTEX
8
1
10
12.047387
20
6.337204
0
VERTEX
8
1
10
12.022447
20
6.380096
0
VERTEX
8
1
10
12.010575
20
6.423294
0
VERTEX
8
1
10
12.017917
20
6.444138
42
-0.072957
0
VERTEX
8
1
10
12.158573
20
6.368900
42
0.054960
0
VERTEX
8
1
10
12.217717
20
6.345001
0
VERTEX
8
1
10
12.213146
20
6.368332
42
0.067707
0
VERTEX
8
1
10
12.039877
20
6.607892
42
-0.140275
0
VERTEX
8
1
10
11.918250
20
6.895927
42
0.207566
0
VERTEX
8
1
10
11.669990
20
7.301682
0
VERTEX
8
1
10
11.632413
20
7.329094
0
VERTEX
8
1
10
11.622571
20
7.311256
42
0.077624
0
VERTEX
8
1
10
11.650665
20
7.186249
0
VERTEX
8
1
10
11.686730
20
7.091713
42
-0.114731
0
VERTEX
8
1
10
11.723212
20
6.875351
0
VERTEX
8
1
10
11.712461
20
6.876076
42
0.044542
0
VERTEX
8
1
10
11.538864
20
6.972984
42
-0.088952
0
VERTEX
8
1
10
11.797479
20
6.558622
42
-0.104353
0
VERTEX
8
1
10
11.805536
20
6.452934
42
0.040976
0
VERTEX
8
1
10
11.607258
20
6.605370
0
VERTEX
8
1
10
11.594474
20
6.609879
0
VERTEX
8
1
10
11.603434
20
6.582054
42
0.069566
0
VERTEX
8
1
10
11.771215
20
6.336220
42
-0.028245
0
VERTEX
8
1
10
11.826038
20
6.253738
0
VERTEX
8
1
10
11.830322
20
6.232887
42
-0.142513
0
VERTEX
8
1
10
11.705061
20
6.270861
42
-0.031448
0
VERTEX
8
1
10
11.530200
20
6.380900
42
0.028273
0
VERTEX
8
1
10
11.473322
20
6.410454
0
VERTEX
8
1
10
11.460012
20
6.403244
42
0.119953
0
VERTEX
8
1
10
11.589893
20
6.244141
42
-0.040210
0
VERTEX
8
1
10
11.849956
20
6.022259
42
-0.115193
0
VERTEX
8
1
10
11.920658
20
5.880348
0
VERTEX
8
1
10
11.919095
20
5.852242
42
0.045285
0
VERTEX
8
1
10
11.733104
20
5.936745
0
VERTEX
8
1
10
11.727712
20
5.916023
42
0.205014
0
VERTEX
8
1
10
11.818490
20
5.777588
42
-0.000612
0
VERTEX
8
1
10
12.000956
20
5.650329
42
-0.230065
0
VERTEX
8
1
10
12.060779
20
5.501060
0
VERTEX
8
1
10
12.045679
20
5.480164
42
-0.083219
0
VERTEX
8
1
10
11.902731
20
5.510032
42
0.241364
0
VERTEX
8
1
10
11.818707
20
5.488693
0
VERTEX
8
1
10
11.826702
20
5.478996
42
-0.151447
0
VERTEX
8
1
10
12.029196
20
5.292175
0
VERTEX
8
1
10
11.989326
20
5.283119
42
-0.140866
0
VERTEX
8
1
10
11.801951
20
5.327515
42
-0.037875
0
VERTEX
8
1
10
11.572362
20
5.485859
42
0.070729
0
VERTEX
8
1
10
11.431358
20
5.555801
0
VERTEX
8
1
10
11.431602
20
5.530182
0
VERTEX
8
1
10
11.444046
20
5.499474
42
0.105930
0
VERTEX
8
1
10
11.610879
20
5.324862
42
-0.001233
0
VERTEX
8
1
10
11.958697
20
5.085774
0
VERTEX
8
1
10
11.979440
20
5.067065
42
-0.237950
0
VERTEX
8
1
10
12.085733
20
4.787281
0
VERTEX
8
1
10
12.082458
20
4.758972
0
VERTEX
8
1
10
12.053413
20
4.764229
42
-0.087481
0
VERTEX
8
1
10
11.847391
20
4.877266
42
0.071691
0
VERTEX
8
1
10
11.712684
20
4.949242
42
0.007860
0
VERTEX
8
1
10
11.836018
20
4.765892
42
0.135599
0
VERTEX
8
1
10
12.006759
20
4.651314
42
-0.255185
0
VERTEX
8
1
10
12.175442
20
4.456004
42
-0.432623
0
VERTEX
8
1
10
12.021001
20
4.275986
0
VERTEX
8
1
10
11.978287
20
4.274498
0
VERTEX
8
1
10
11.976441
20
4.265343
42
-0.125010
0
VERTEX
8
1
10
12.072328
20
4.192729
42
-0.351283
0
VERTEX
8
1
10
12.062114
20
4.149971
0
VERTEX
8
1
10
12.043629
20
4.136719
42
-0.082218
0
VERTEX
8
1
10
11.838817
20
4.085258
0
VERTEX
8
1
10
11.828601
20
4.075386
42
-0.178651
0
VERTEX
8
1
10
11.865753
20
3.971118
42
0.138534
0
VERTEX
8
1
10
11.896502
20
3.896660
0
VERTEX
8
1
10
11.909183
20
3.889404
0
VERTEX
8
1
10
11.925617
20
3.885590
0
VERTEX
8
1
10
11.921872
20
3.872200
42
0.090536
0
VERTEX
8
1
10
11.867234
20
3.751923
42
-0.185720
0
VERTEX
8
1
10
11.788318
20
3.662567
0
VERTEX
8
1
10
11.781872
20
3.662071
42
0.106084
0
VERTEX
8
1
10
11.779119
20
3.722923
42
-0.224163
0
VERTEX
8
1
10
11.306049
20
3.798911
42
-0.050569
0
VERTEX
8
1
10
11.185382
20
3.892609
42
0.022744
0
VERTEX
8
1
10
11.336280
20
3.899940
42
0.069057
0
VERTEX
8
1
10
11.174180
20
4.051490
42
-0.035556
0
VERTEX
8
1
10
10.876130
20
4.294381
42
-0.104308
0
VERTEX
8
1
10
10.793605
20
4.433151
0
VERTEX
8
1
10
10.790314
20
4.472549
42
0.100773
0
VERTEX
8
1
10
11.042662
20
4.319084
0
VERTEX
8
1
10
11.055692
20
4.320839
0
VERTEX
8
1
10
11.038086
20
4.349724
0
VERTEX
8
1
10
11.012821
20
4.382683
42
-0.020079
0
VERTEX
8
1
10
10.785937
20
4.648934
42
-0.073415
0
VERTEX
8
1
10
10.739683
20
4.747307
0
VERTEX
8
1
10
10.737458
20
4.782616
0
VERTEX
8
1
10
10.747499
20
4.814331
0
VERTEX
8
1
10
10.769128
20
4.831375
42
0.035602
0
VERTEX
8
1
10
11.011818
20
4.711959
42
0.038064
0
VERTEX
8
1
10
11.065183
20
4.699921
0
VERTEX
8
1
10
11.072635
20
4.703384
42
-0.074898
0
VERTEX
8
1
10
10.898369
20
4.908742
0
VERTEX
8
1
10
10.888094
20
4.922413
0
VERTEX
8
1
10
10.877693
20
4.935989
0
VERTEX
8
1
10
10.883917
20
4.942184
0
VERTEX
8
1
10
10.911864
20
4.933543
42
-0.065115
0
VERTEX
8
1
10
11.063949
20
4.850257
42
0.168362
0
VERTEX
8
1
10
11.239480
20
4.812820
0
VERTEX
8
1
10
11.250371
20
4.821266
42
0.133028
0
VERTEX
8
1
10
11.144018
20
4.922943
0
VERTEX
8
1
10
11.006169
20
5.088364
42
-0.072731
0
VERTEX
8
1
10
10.767122
20
5.341476
42
0.051549
0
VERTEX
8
1
10
10.571934
20
5.553581
0
VERTEX
8
1
10
10.567388
20
5.539299
42
0.021773
0
VERTEX
8
1
10
10.616630
20
5.347948
42
-0.101709
0
VERTEX
8
1
10
10.612018
20
5.259415
0
VERTEX
8
1
10
10.579294
20
5.277374
0
VERTEX
8
1
10
10.547711
20
5.300339
42
-0.072697
0
VERTEX
8
1
10
10.358289
20
5.530563
42
0.037111
0
VERTEX
8
1
10
10.254743
20
5.660896
42
0.107806
0
VERTEX
8
1
10
10.315811
20
5.474602
42
-0.064986
0
VERTEX
8
1
10
10.419865
20
5.228640
42
-0.101222
0
VERTEX
8
1
10
10.416531
20
5.147934
42
-0.096480
0
VERTEX
8
1
10
10.274608
20
5.224533
0
VERTEX
8
1
10
10.267930
20
5.226341
42
-0.019144
0
VERTEX
8
1
10
10.333002
20
5.011406
0
VERTEX
8
1
10
10.334849
20
4.993065
0
VERTEX
8
1
10
10.323722
20
4.981567
42
-0.165843
0
VERTEX
8
1
10
10.198662
20
5.041199
42
-0.049121
0
VERTEX
8
1
10
10.051750
20
5.217743
42
0.049949
0
VERTEX
8
1
10
9.973901
20
5.295334
0
VERTEX
8
1
10
9.952751
20
5.301125
42
0.311281
0
VERTEX
8
1
10
9.944672
20
5.209091
42
-0.059814
0
VERTEX
8
1
10
9.972406
20
5.127808
0
VERTEX
8
1
10
9.970724
20
5.120277
42
-0.093058
0
VERTEX
8
1
10
9.898466
20
5.153465
42
0.124038
0
VERTEX
8
1
10
10.050146
20
4.978732
42
0.134829
0
VERTEX
8
1
10
10.106880
20
4.968079
42
-0.028282
0
VERTEX
8
1
10
10.109923
20
4.930481
0
VERTEX
8
1
10
10.131089
20
4.933174
0
VERTEX
8
1
10
10.131914
20
4.931267
0
VERTEX
8
1
10
10.140539
20
4.898949
42
-0.224666
0
VERTEX
8
1
10
10.157394
20
4.913414
42
-0.106118
0
VERTEX
8
1
10
10.162651
20
4.878563
42
-0.278338
0
VERTEX
8
1
10
10.177790
20
4.892693
42
0.051115
0
VERTEX
8
1
10
10.188202
20
4.852020
42
-0.345030
0
VERTEX
8
1
10
10.204827
20
4.865349
42
-0.056437
0
VERTEX
8
1
10
10.214257
20
4.808266
42
0.305024
0
VERTEX
8
1
10
10.246249
20
4.809967
42
-1.669084
0
VERTEX
8
1
10
10.246655
20
4.805317
42
0.208066
0
VERTEX
8
1
10
10.237977
20
4.791321
42
-0.270370
0
VERTEX
8
1
10
10.269249
20
4.787079
0
VERTEX
8
1
10
10.291719
20
4.804123
0
VERTEX
8
1
10
10.293585
20
4.804810
42
-0.019578
0
VERTEX
8
1
10
10.274961
20
4.752792
0
VERTEX
8
1
10
10.298424
20
4.767044
42
0.107598
0
VERTEX
8
1
10
10.290765
20
4.705719
42
-0.092384
0
VERTEX
8
1
10
10.321565
20
4.712074
42
0.096318
0
VERTEX
8
1
10
10.419062
20
4.597977
0
VERTEX
8
1
10
10.409620
20
4.593391
42
-0.161627
0
VERTEX
8
1
10
10.157565
20
4.708929
42
-0.041266
0
VERTEX
8
1
10
10.014882
20
4.847443
0
VERTEX
8
1
10
9.930944
20
4.941010
42
0.085242
0
VERTEX
8
1
10
9.604289
20
5.213629
42
0.153006
0
VERTEX
8
1
10
9.548463
20
5.217735
0
VERTEX
8
1
10
9.538752
20
5.206108
0
VERTEX
8
1
10
9.534956
20
5.185852
42
0.164874
0
VERTEX
8
1
10
9.612439
20
5.009438
42
-0.033992
0
VERTEX
8
1
10
9.757729
20
4.815826
0
VERTEX
8
1
10
9.750275
20
4.813080
42
0.014974
0
VERTEX
8
1
10
9.448042
20
4.988731
0
VERTEX
8
1
10
9.441377
20
4.995415
42
-0.070799
0
VERTEX
8
1
10
9.478515
20
5.034882
42
0.342775
0
VERTEX
8
1
10
9.414815
20
4.948166
42
0.330257
0
VERTEX
8
1
10
9.462188
20
4.912704
42
-0.022934
0
VERTEX
8
1
10
9.498754
20
4.812317
42
-0.082597
0
VERTEX
8
1
10
9.543308
20
4.803314
42
0.317740
0
VERTEX
8
1
10
9.579966
20
4.684685
0
VERTEX
8
1
10
9.597404
20
4.665971
42
0.016613
0
VERTEX
8
1
10
9.774395
20
4.424161
42
0.084225
0
VERTEX
8
1
10
9.861991
20
4.360909
0
VERTEX
8
1
10
9.882865
20
4.355148
42
-0.008144
0
VERTEX
8
1
10
9.869934
20
4.325310
0
VERTEX
8
1
10
9.874657
20
4.319885
42
-0.037818
0
VERTEX
8
1
10
9.989338
20
4.102310
0
VERTEX
8
1
10
9.975749
20
4.104477
42
-0.087266
0
VERTEX
8
1
10
9.500065
20
4.479200
42
0.003444
0
VERTEX
8
1
10
9.310080
20
4.733979
42
0.071487
0
VERTEX
8
1
10
9.235580
20
4.796432
0
VERTEX
8
1
10
9.227262
20
4.790672
42
0.125237
0
VERTEX
8
1
10
9.240766
20
4.599632
42
0.042285
0
VERTEX
8
1
10
8.963132
20
4.818428
42
-0.074799
0
VERTEX
8
1
10
8.790682
20
4.976147
42
0.191213
0
VERTEX
8
1
10
8.616274
20
5.046607
42
-0.002768
0
VERTEX
8
1
10
8.477620
20
5.055603
42
-0.025284
0
VERTEX
8
1
10
8.483198
20
5.240891
42
0.048906
0
VERTEX
8
1
10
8.434525
20
5.470367
0
VERTEX
8
1
10
8.435781
20
5.479012
42
-0.157335
0
VERTEX
8
1
10
8.531022
20
5.343277
42
0.082055
0
VERTEX
8
1
10
8.584957
20
5.250938
0
VERTEX
8
1
10
8.597539
20
5.246452
42
0.112279
0
VERTEX
8
1
10
8.645608
20
5.398796
42
0.095680
0
VERTEX
8
1
10
8.642873
20
5.845985
0
VERTEX
8
1
10
8.645965
20
5.845482
42
-0.008086
0
VERTEX
8
1
10
8.788177
20
5.582710
42
0.033116
0
VERTEX
8
1
10
8.893010
20
5.335261
42
0.106179
0
VERTEX
8
1
10
8.963959
20
5.265724
0
VERTEX
8
1
10
8.972946
20
5.270439
42
0.119177
0
VERTEX
8
1
10
8.994841
20
5.437332
42
0.068478
0
VERTEX
8
1
10
9.122948
20
5.267317
42
0.110281
0
VERTEX
8
1
10
9.177075
20
5.242310
0
VERTEX
8
1
10
9.190752
20
5.278999
42
0.115709
0
VERTEX
8
1
10
9.181085
20
5.506645
42
-0.031283
0
VERTEX
8
1
10
9.122785
20
5.791016
0
VERTEX
8
1
10
9.121154
20
5.836823
0
VERTEX
8
1
10
9.124318
20
5.881645
42
-0.105200
0
VERTEX
8
1
10
9.235281
20
5.728470
42
0.038654
0
VERTEX
8
1
10
9.384194
20
5.447397
42
0.115203
0
VERTEX
8
1
10
9.492677
20
5.358009
0
VERTEX
8
1
10
9.533721
20
5.347664
42
0.119147
0
VERTEX
8
1
10
9.517963
20
5.535995
42
-0.057364
0
VERTEX
8
1
10
9.494906
20
5.668945
42
0.183981
0
VERTEX
8
1
10
9.596543
20
5.565819
42
-0.122690
0
VERTEX
8
1
10
9.564469
20
5.743912
0
VERTEX
8
1
10
9.567891
20
5.751129
42
-0.086617
0
VERTEX
8
1
10
9.636693
20
5.750923
0
VERTEX
8
1
10
9.644458
20
5.743362
42
0.003978
0
VERTEX
8
1
10
9.716784
20
5.589218
42
0.117093
0
VERTEX
8
1
10
9.770177
20
5.539680
0
VERTEX
8
1
10
9.785206
20
5.566055
42
0.162516
0
VERTEX
8
1
10
9.740608
20
5.781067
42
0.005915
0
VERTEX
8
1
10
9.582281
20
6.045673
42
-0.080539
0
VERTEX
8
1
10
9.533669
20
6.202209
0
VERTEX
8
1
10
9.534642
20
6.257996
0
VERTEX
8
1
10
9.548643
20
6.279640
42
0.003061
0
VERTEX
8
1
10
9.770277
20
6.287987
0
VERTEX
8
1
10
9.764428
20
6.295609
42
-0.293136
0
VERTEX
8
1
10
9.677847
20
6.471611
0
VERTEX
8
1
10
9.688329
20
6.465416
42
0.141665
0
VERTEX
8
1
10
9.888813
20
6.369987
42
0.234757
0
VERTEX
8
1
10
9.851512
20
6.540520
42
0.052243
0
VERTEX
8
1
10
9.690955
20
6.705585
42
-0.083750
0
VERTEX
8
1
10
9.598333
20
6.829956
0
VERTEX
8
1
10
9.586954
20
6.870056
0
VERTEX
8
1
10
9.586462
20
6.912163
42
-0.074605
0
VERTEX
8
1
10
9.730473
20
6.922150
0
VERTEX
8
1
10
9.779593
20
6.898468
42
0.013021
0
VERTEX
8
1
10
9.777048
20
6.911728
42
-0.103135
0
VERTEX
8
1
10
9.814843
20
6.887886
42
0.020395
0
VERTEX
8
1
10
9.886644
20
6.886955
0
VERTEX
8
1
10
9.886768
20
6.894501
0
VERTEX
8
1
10
9.880445
20
6.910285
42
-0.019647
0
VERTEX
8
1
10
9.794041
20
7.071381
42
-0.081263
0
VERTEX
8
1
10
9.790347
20
7.106178
0
VERTEX
8
1
10
9.801690
20
7.107254
42
-0.013709
0
VERTEX
8
1
10
9.999744
20
6.977526
42
0.111701
0
VERTEX
8
1
10
10.091624
20
6.949974
0
VERTEX
8
1
10
10.091954
20
6.965805
0
VERTEX
8
1
10
10.079213
20
6.991562
42
-0.010491
0
VERTEX
8
1
10
9.882264
20
7.295148
42
-0.112881
0
VERTEX
8
1
10
9.868731
20
7.368286
0
VERTEX
8
1
10
9.871617
20
7.372185
0
VERTEX
8
1
10
9.897357
20
7.369171
42
0.129756
0
VERTEX
8
1
10
10.079188
20
7.299716
42
0.061286
0
VERTEX
8
1
10
10.116385
20
7.304626
42
0.302850
0
VERTEX
8
1
10
10.077697
20
7.418030
42
-0.061268
0
VERTEX
8
1
10
9.969772
20
7.514337
42
-0.222659
0
VERTEX
8
1
10
9.952010
20
7.638466
42
-0.061094
0
VERTEX
8
1
10
10.016928
20
7.811356
42
0.197044
0
VERTEX
8
1
10
10.177037
20
7.626366
42
0.086671
0
VERTEX
8
1
10
10.225421
20
7.616615
0
VERTEX
8
1
10
10.244916
20
7.628510
42
0.124686
0
VERTEX
8
1
10
10.280263
20
8.288658
42
0.083426
0
VERTEX
8
1
10
10.226039
20
8.494858
42
0.220599
0
VERTEX
8
1
10
10.141482
20
8.549446
0
VERTEX
8
1
10
10.145644
20
8.527580
42
-0.102821
0
VERTEX
8
1
10
10.196776
20
7.902618
0
VERTEX
8
1
10
10.189502
20
7.881813
42
-0.110026
0
VERTEX
8
1
10
10.100663
20
7.885246
42
0.033106
0
VERTEX
8
1
10
9.992031
20
8.253438
42
-0.017676
0
VERTEX
8
1
10
9.965112
20
8.355042
42
-0.060679
0
VERTEX
8
1
10
9.851012
20
7.506519
42
-0.070690
0
VERTEX
8
1
10
9.665769
20
7.100250
0
VERTEX
8
1
10
9.601203
20
7.016586
0
VERTEX
8
1
10
9.528115
20
6.942245
0
VERTEX
8
1
10
9.516456
20
7.016029
42
-0.084183
0
VERTEX
8
1
10
9.600007
20
7.372787
0
VERTEX
8
1
10
9.669184
20
7.552620
42
0.076691
0
VERTEX
8
1
10
9.760514
20
7.916710
0
VERTEX
8
1
10
9.758703
20
8.008881
0
VERTEX
8
1
10
9.741942
20
8.101578
0
VERTEX
8
1
10
9.707687
20
8.194847
42
0.116107
0
VERTEX
8
1
10
9.559698
20
7.934532
42
-0.023841
0
VERTEX
8
1
10
9.431984
20
7.551680
42
-0.057137
0
VERTEX
8
1
10
9.357574
20
7.432434
0
VERTEX
8
1
10
9.361672
20
7.473320
0
VERTEX
8
1
10
9.371472
20
7.526199
42
0.024169
0
VERTEX
8
1
10
9.471217
20
8.014762
42
0.055541
0
VERTEX
8
1
10
9.468802
20
8.181969
0
VERTEX
8
1
10
9.453137
20
8.234833
0
VERTEX
8
1
10
9.426679
20
8.275711
0
VERTEX
8
1
10
9.389922
20
8.301384
0
VERTEX
8
1
10
9.357183
20
8.303383
0
VERTEX
8
1
10
9.325852
20
8.285522
0
VERTEX
8
1
10
9.296049
20
8.250610
0
VERTEX
8
1
10
9.267895
20
8.201546
0
VERTEX
8
1
10
9.241511
20
8.141167
42
0.049464
0
VERTEX
8
1
10
9.108691
20
7.593384
0
VERTEX
8
1
10
9.100293
20
7.575653
42
-0.100800
0
VERTEX
8
1
10
9.072514
20
7.682358
42
-0.040903
0
VERTEX
8
1
10
9.094774
20
8.069218
42
0.092295
0
VERTEX
8
1
10
9.064442
20
8.356678
42
0.076399
0
VERTEX
8
1
10
8.988920
20
8.490364
0
VERTEX
8
1
10
8.919337
20
8.585945
0
VERTEX
8
1
10
8.894059
20
8.591354
0
VERTEX
8
1
10
8.874201
20
8.556381
42
0.092743
0
VERTEX
8
1
10
8.825681
20
8.271072
42
-0.031551
0
VERTEX
8
1
10
8.807626
20
7.985329
0
VERTEX
8
1
10
8.798555
20
7.989258
42
0.021086
0
VERTEX
8
1
10
8.715942
20
8.229866
0
VERTEX
8
1
10
8.636128
20
8.435890
0
VERTEX
8
1
10
8.600424
20
8.424019
0
VERTEX
8
1
10
8.564837
20
8.374802
0
VERTEX
8
1
10
8.541372
20
8.311455
42
0.070203
0
VERTEX
8
1
10
8.526361
20
7.964478
42
-0.027815
0
VERTEX
8
1
10
8.535712
20
7.582497
0
VERTEX
8
1
10
8.525952
20
7.499466
0
VERTEX
8
1
10
8.507112
20
7.426208
0
VERTEX
8
1
10
8.477070
20
7.365105
0
VERTEX
8
1
10
8.462871
20
7.407478
42
0.043801
0
VERTEX
8
1
10
8.371357
20
8.035735
42
0.075680
0
VERTEX
8
1
10
8.194734
20
8.432106
42
0.064170
0
VERTEX
8
1
10
7.845861
20
8.890378
42
0.087446
0
VERTEX
8
1
10
7.679110
20
8.993279
0
VERTEX
8
1
10
7.626549
20
9.003807
0
VERTEX
8
1
10
7.618260
20
8.966438
42
0.120767
0
VERTEX
8
1
10
7.662848
20
8.793365
42
0.032366
0
VERTEX
8
1
10
7.823490
20
8.525551
0
VERTEX
8
1
10
7.848118
20
8.484055
0
VERTEX
8
1
10
7.869414
20
8.444298
42
-0.115641
0
VERTEX
8
1
10
8.004579
20
7.723434
42
0.172499
0
VERTEX
8
1
10
7.882771
20
8.003891
42
-0.035258
0
VERTEX
8
1
10
7.760349
20
8.160339
0
VERTEX
8
1
10
7.739405
20
8.179192
42
0.019673
0
VERTEX
8
1
10
7.707676
20
7.681212
42
-0.025374
0
VERTEX
8
1
10
7.682740
20
7.484238
0
VERTEX
8
1
10
7.671399
20
7.456223
0
VERTEX
8
1
10
7.660176
20
7.476776
0
VERTEX
8
1
10
7.650900
20
7.500031
42
-0.062009
0
VERTEX
8
1
10
7.617218
20
7.782768
42
0.126771
0
VERTEX
8
1
10
7.450639
20
8.289502
42
0.064379
0
VERTEX
8
1
10
7.082975
20
8.758209
0
VERTEX
8
1
10
7.069963
20
8.745895
42
0.084168
0
VERTEX
8
1
10
7.154692
20
8.307907
0
VERTEX
8
1
10
7.132538
20
8.315994
42
-0.028488
0
VERTEX
8
1
10
6.905566
20
8.528898
42
0.120396
0
VERTEX
8
1
10
6.696496
20
8.644485
0
VERTEX
8
1
10
6.650866
20
8.650826
0
VERTEX
8
1
10
6.649740
20
8.621314
42
-0.003052
0
VERTEX
8
1
10
6.781013
20
8.270023
42
-0.086627
0
VERTEX
8
1
10
6.799394
20
8.076370
0
VERTEX
8
1
10
6.788388
20
8.083267
42
0.054962
0
VERTEX
8
1
10
6.629546
20
8.235129
42
0.003870
0
VERTEX
8
1
10
6.724226
20
7.826828
42
-0.050137
0
VERTEX
8
1
10
6.744865
20
7.588097
42
0.031488
0
VERTEX
8
1
10
6.420820
20
7.968117
0
VERTEX
8
1
10
6.397282
20
7.986267
42
0.103106
0
VERTEX
8
1
10
6.425377
20
7.748337
0
VERTEX
8
1
10
6.456410
20
7.648575
0
VERTEX
8
1
10
6.459066
20
7.634193
42
0.063943
0
VERTEX
8
1
10
6.299269
20
7.780296
0
VERTEX
8
1
10
6.288375
20
7.767212
42
0.031985
0
VERTEX
8
1
10
6.293848
20
7.366688
42
-0.069735
0
VERTEX
8
1
10
6.263961
20
7.131111
0
VERTEX
8
1
10
6.243843
20
7.112282
0
VERTEX
8
1
10
6.220037
20
7.128777
42
-0.022282
0
VERTEX
8
1
10
6.063916
20
7.280800
42
0.074177
0
VERTEX
8
1
10
5.968081
20
7.346283
0
VERTEX
8
1
10
5.951574
20
7.340904
42
0.170998
0
VERTEX
8
1
10
5.979935
20
7.105820
0
VERTEX
8
1
10
5.992278
20
7.077446
0
VERTEX
8
1
10
5.985266
20
7.081848
42
0.083334
0
VERTEX
8
1
10
5.818852
20
7.236247
42
0.055157
0
VERTEX
8
1
10
5.776577
20
7.251709
0
VERTEX
8
1
10
5.773540
20
7.226608
0
VERTEX
8
1
10
5.779140
20
7.190109
42
0.076088
0
VERTEX
8
1
10
5.956249
20
6.775871
0
VERTEX
8
1
10
5.982218
20
6.730087
0
VERTEX
8
1
10
5.962675
20
6.729942
42
-0.114598
0
VERTEX
8
1
10
5.672735
20
6.909691
0
VERTEX
8
1
10
5.645673
20
6.934189
0
VERTEX
8
1
10
5.657784
20
6.901398
42
-0.048556
0
VERTEX
8
1
10
5.802739
20
6.485651
42
-0.078131
0
VERTEX
8
1
10
5.806113
20
6.342735
42
-0.065198
0
VERTEX
8
1
10
5.703894
20
6.140312
42
-0.125191
0
VERTEX
8
1
10
5.628359
20
5.964302
42
0.046141
0
VERTEX
8
1
10
5.472646
20
5.668877
42
0.094449
0
VERTEX
8
1
10
5.452571
20
5.527504
0
VERTEX
8
1
10
5.458219
20
5.507271
42
0.078352
0
VERTEX
8
1
10
5.579522
20
5.596977
0
VERTEX
8
1
10
5.594970
20
5.609268
0
VERTEX
8
1
10
5.602079
20
5.607224
42
0.042409
0
VERTEX
8
1
10
5.610555
20
5.412499
0
VERTEX
8
1
10
5.613953
20
5.400362
0
VERTEX
8
1
10
5.617984
20
5.388420
0
VERTEX
8
1
10
5.630715
20
5.383560
42
0.222544
0
VERTEX
8
1
10
5.704102
20
5.468346
42
-0.110597
0
VERTEX
8
1
10
5.749025
20
5.538116
0
VERTEX
8
1
10
5.768412
20
5.549545
0
VERTEX
8
1
10
5.773448
20
5.571121
42
-0.546490
0
VERTEX
8
1
10
5.815180
20
5.507690
42
0.304062
0
VERTEX
8
1
10
5.851566
20
5.546555
42
0.011921
0
VERTEX
8
1
10
5.891561
20
5.721031
0
VERTEX
8
1
10
5.898010
20
5.738113
0
VERTEX
8
1
10
5.905655
20
5.751846
42
-0.069068
0
VERTEX
8
1
10
5.922678
20
5.536477
42
0.166800
0
VERTEX
8
1
10
5.970365
20
5.427902
42
-0.098550
0
VERTEX
8
1
10
6.010392
20
5.353569
42
0.315207
0
VERTEX
8
1
10
6.061750
20
5.403587
42
-0.009459
0
VERTEX
8
1
10
6.081182
20
5.460243
42
-0.226255
0
VERTEX
8
1
10
6.102458
20
5.374870
42
0.143416
0
VERTEX
8
1
10
6.142900
20
5.223251
0
VERTEX
8
1
10
6.155487
20
5.223099
42
0.254154
0
VERTEX
8
1
10
6.228115
20
5.330139
42
-0.024922
0
VERTEX
8
1
10
6.244217
20
5.487229
0
VERTEX
8
1
10
6.251439
20
5.519188
0
VERTEX
8
1
10
6.262700
20
5.542328
0
VERTEX
8
1
10
6.273543
20
5.547310
42
0.040897
0
VERTEX
8
1
10
6.350885
20
5.335617
0
VERTEX
8
1
10
6.355646
20
5.341301
42
-0.056004
0
VERTEX
8
1
10
6.413570
20
5.561012
42
0.054501
0
VERTEX
8
1
10
6.449840
20
5.769123
42
-0.105906
0
VERTEX
8
1
10
6.528014
20
5.970612
0
VERTEX
8
1
10
6.532158
20
5.947495
42
-0.028376
0
VERTEX
8
1
10
6.536371
20
5.572052
42
-0.039307
0
VERTEX
8
1
10
6.476949
20
5.259128
42
0.133265
0
VERTEX
8
1
10
6.492332
20
5.068703
0
VERTEX
8
1
10
6.508498
20
5.039246
0
VERTEX
8
1
10
6.530059
20
5.010925
0
VERTEX
8
1
10
6.532642
20
5.014397
42
-0.159596
0
VERTEX
8
1
10
6.566286
20
5.085434
42
-0.268736
0
VERTEX
8
1
10
6.654138
20
5.009102
0
VERTEX
8
1
10
6.678043
20
4.960091
0
VERTEX
8
1
10
6.684199
20
4.950325
42
0.145974
0
VERTEX
8
1
10
6.717979
20
5.029762
42
0.022926
0
VERTEX
8
1
10
6.739253
20
5.034416
42
0.149490
0
VERTEX
8
1
10
6.762506
20
5.187828
0
VERTEX
8
1
10
6.757043
20
5.246597
42
-0.135860
0
VERTEX
8
1
10
6.775942
20
5.425240
0
VERTEX
8
1
10
6.788307
20
5.436378
42
0.039371
0
VERTEX
8
1
10
6.902433
20
5.182198
0
VERTEX
8
1
10
6.914517
20
5.165741
0
VERTEX
8
1
10
6.922181
20
5.163490
42
0.023168
0
VERTEX
8
1
10
6.966825
20
5.303101
0
VERTEX
8
1
10
6.979663
20
5.306870
0
VERTEX
8
1
10
6.997177
20
5.307579
42
0.543532
0
VERTEX
8
1
10
7.029036
20
5.363144
42
-0.114306
0
VERTEX
8
1
10
6.995513
20
5.624565
0
VERTEX
8
1
10
7.008206
20
5.618172
0
VERTEX
8
1
10
7.022001
20
5.603897
42
-0.137408
0
VERTEX
8
1
10
7.077607
20
5.420763
42
0.136210
0
VERTEX
8
1
10
7.170881
20
5.221887
42
-0.082149
0
VERTEX
8
1
10
7.239742
20
5.075974
0
VERTEX
8
1
10
7.242347
20
5.051010
0
VERTEX
8
1
10
7.245096
20
5.058823
42
-0.723667
0
VERTEX
8
1
10
7.308948
20
5.069756
0
VERTEX
8
1
10
7.313076
20
5.065430
42
0.048962
0
VERTEX
8
1
10
7.330508
20
5.169097
0
VERTEX
8
1
10
7.333735
20
5.175823
0
VERTEX
8
1
10
7.337962
20
5.181969
42
-0.040706
0
VERTEX
8
1
10
7.431588
20
5.005829
0
VERTEX
8
1
10
7.439481
20
4.999374
42
0.177426
0
VERTEX
8
1
10
7.441135
20
5.146271
42
-0.187095
0
VERTEX
8
1
10
7.476926
20
5.317534
42
0.014460
0
VERTEX
8
1
10
7.504335
20
5.380836
0
VERTEX
8
1
10
7.509068
20
5.379669
42
-0.054442
0
VERTEX
8
1
10
7.549176
20
5.115753
0
VERTEX
8
1
10
7.553380
20
5.133995
42
-0.105614
0
VERTEX
8
1
10
7.644436
20
5.249748
42
0.095908
0
VERTEX
8
1
10
7.691968
20
5.317642
0
VERTEX
8
1
10
7.700163
20
5.328903
42
0.038785
0
VERTEX
8
1
10
7.832936
20
5.433792
0
VERTEX
8
1
10
7.833326
20
5.425766
42
0.035530
0
VERTEX
8
1
10
7.800025
20
5.245667
0
VERTEX
8
1
10
7.801059
20
5.230659
0
VERTEX
8
1
10
7.811823
20
5.235031
42
0.008928
0
VERTEX
8
1
10
7.923308
20
5.361031
42
-0.236007
0
VERTEX
8
1
10
7.989782
20
5.377365
42
-0.125057
0
VERTEX
8
1
10
7.770851
20
5.002174
42
-0.172144
0
VERTEX
8
1
10
7.735606
20
5.090174
42
0.067907
0
VERTEX
8
1
10
7.727718
20
5.109276
42
0.106920
0
VERTEX
8
1
10
7.585843
20
4.896690
42
0.007089
0
VERTEX
8
1
10
7.470215
20
4.612350
42
-0.116751
0
VERTEX
8
1
10
7.416543
20
4.464500
0
VERTEX
8
1
10
7.406013
20
4.455193
0
VERTEX
8
1
10
7.397722
20
4.456879
42
0.062790
0
VERTEX
8
1
10
7.332581
20
4.645593
42
0.012483
0
VERTEX
8
1
10
7.267457
20
4.837969
42
0.124771
0
VERTEX
8
1
10
7.221054
20
4.888893
0
VERTEX
8
1
10
7.213495
20
4.888115
42
-0.164173
0
VERTEX
8
1
10
7.164558
20
4.812302
42
0.107988
0
VERTEX
8
1
10
7.084074
20
4.988564
42
-0.115900
0
VERTEX
8
1
10
7.045834
20
5.121239
0
VERTEX
8
1
10
7.033813
20
5.125725
0
VERTEX
8
1
10
7.018843
20
5.119507
42
0.165699
0
VERTEX
8
1
10
6.954058
20
5.015892
42
-0.052844
0
VERTEX
8
1
10
6.859376
20
4.775841
42
0.068240
0
VERTEX
8
1
10
6.823806
20
4.659386
0
VERTEX
8
1
10
6.811439
20
4.663567
42
-0.080722
0
VERTEX
8
1
10
6.709201
20
4.770396
42
0.073620
0
VERTEX
8
1
10
6.661448
20
4.807442
42
0.048731
0
VERTEX
8
1
10
6.604234
20
4.421616
0
VERTEX
8
1
10
6.599444
20
4.396408
42
-0.144354
0
VERTEX
8
1
10
6.520216
20
4.594315
42
-0.015463
0
VERTEX
8
1
10
6.505823
20
4.851181
0
VERTEX
8
1
10
6.501359
20
4.864151
42
0.102072
0
VERTEX
8
1
10
6.423110
20
4.855591
42
-0.382114
0
VERTEX
8
1
10
6.367393
20
4.900337
0
VERTEX
8
1
10
6.361577
20
4.935140
42
0.032767
0
VERTEX
8
1
10
6.337074
20
5.060712
42
0.488779
0
VERTEX
8
1
10
6.291751
20
5.070801
42
0.226427
0
VERTEX
8
1
10
6.153056
20
4.805036
42
-0.045463
0
VERTEX
8
1
10
6.082758
20
4.558607
0
VERTEX
8
1
10
6.077084
20
4.540085
42
0.052555
0
VERTEX
8
1
10
6.054533
20
4.769241
42
-0.056002
0
VERTEX
8
1
10
6.050059
20
4.923653
42
0.128484
0
VERTEX
8
1
10
5.968289
20
5.197289
0
VERTEX
8
1
10
5.954842
20
5.213020
0
VERTEX
8
1
10
5.940773
20
5.224617
0
VERTEX
8
1
10
5.929336
20
5.204765
0
VERTEX
8
1
10
5.918596
20
5.178619
42
-0.029681
0
VERTEX
8
1
10
5.825396
20
4.894553
42
-0.124763
0
VERTEX
8
1
10
5.766353
20
4.831871
0
VERTEX
8
1
10
5.745355
20
4.827637
42
0.133561
0
VERTEX
8
1
10
5.804109
20
5.207850
42
0.093631
0
VERTEX
8
1
10
5.775701
20
5.277664
0
VERTEX
8
1
10
5.757728
20
5.289268
42
-0.075617
0
VERTEX
8
1
10
5.512027
20
5.006073
0
VERTEX
8
1
10
5.495618
20
4.996101
42
0.011504
0
VERTEX
8
1
10
5.477878
20
5.200317
0
VERTEX
8
1
10
5.466914
20
5.205360
42
0.113826
0
VERTEX
8
1
10
5.369714
20
5.093269
42
-0.052476
0
VERTEX
8
1
10
5.215775
20
4.857735
42
-0.107542
0
VERTEX
8
1
10
5.142044
20
4.812401
0
VERTEX
8
1
10
5.127856
20
4.818771
42
0.010574
0
VERTEX
8
1
10
5.237959
20
5.117546
42
0.094188
0
VERTEX
8
1
10
5.341667
20
5.480003
42
-0.008591
0
VERTEX
8
1
10
5.325198
20
5.721657
42
-0.110763
0
VERTEX
8
1
10
5.378764
20
5.929543
42
-0.059676
0
VERTEX
8
1
10
5.501661
20
6.180194
42
-0.271597
0
VERTEX
8
1
10
5.528946
20
6.184799
42
0.162951
0
VERTEX
8
1
10
5.601449
20
6.461538
42
0.078399
0
SEQEND
0
ENDSEC
0
EOF
