0
SECTION
2
HEADER
9
$EXTMIN
10
0.946777
20
0.183214
9
$EXTMAX
10
14.022232
20
12.367605
0
ENDSEC
0
SECTION
2
TABLES
0
TABLE
2
LTYPE
70
1
0
LTYPE
2
0
70
0
3
Solid Line
72
65
73
0
40
0.0
0
ENDTAB
0
TABLE
2
LAYER
70
1
0
LAYER
2
1
70
0
62
7
6
0
0
ENDTAB
0
ENDSEC
0
SECTION
2
BLOCKS
0
ENDSEC
0
SECTION
2
ENTITIES
0
POLYLINE
8
1
66
1
70
1
0
VERTEX
8
1
10
13.265442
20
3.887489
42
-0.001440
0
VERTEX
8
1
10
13.492340
20
3.102617
42
-0.044951
0
VERTEX
8
1
10
13.896301
20
3.124128
42
-0.161080
0
VERTEX
8
1
10
14.014374
20
3.090040
0
VERTEX
8
1
10
14.022232
20
3.073502
0
VERTEX
8
1
10
14.018570
20
3.053082
0
VERTEX
8
1
10
14.001923
20
3.028437
0
VERTEX
8
1
10
13.970810
20
2.999229
0
VERTEX
8
1
10
13.949295
20
2.974756
42
-0.169394
0
VERTEX
8
1
10
13.768585
20
2.860273
42
0.058607
0
VERTEX
8
1
10
13.595886
20
2.794559
0
VERTEX
8
1
10
13.583893
20
2.782488
0
VERTEX
8
1
10
13.656845
20
2.526762
42
0.030139
0
VERTEX
8
1
10
13.706573
20
2.486515
0
VERTEX
8
1
10
13.692734
20
2.463539
0
VERTEX
8
1
10
13.671173
20
2.436193
0
VERTEX
8
1
10
13.646286
20
2.410257
42
-0.087292
0
VERTEX
8
1
10
13.347641
20
2.235231
42
0.004865
0
VERTEX
8
1
10
13.069092
20
2.120342
0
VERTEX
8
1
10
13.049301
20
2.100683
42
0.230594
0
VERTEX
8
1
10
13.146057
20
1.966600
42
0.065662
0
VERTEX
8
1
10
13.322998
20
1.898432
42
-0.064174
0
VERTEX
8
1
10
13.524506
20
1.827066
0
VERTEX
8
1
10
13.493805
20
1.806765
42
-0.073176
0
VERTEX
8
1
10
12.902283
20
1.589836
42
-0.053852
0
VERTEX
8
1
10
12.592087
20
1.572008
42
0.097772
0
VERTEX
8
1
10
12.353363
20
1.516994
0
VERTEX
8
1
10
12.326431
20
1.500345
42
0.346342
0
VERTEX
8
1
10
12.267410
20
1.328218
0
VERTEX
8
1
10
12.282928
20
1.285143
42
-0.061515
0
VERTEX
8
1
10
12.338379
20
1.061026
42
0.088892
0
VERTEX
8
1
10
12.399979
20
0.863821
0
VERTEX
8
1
10
12.413345
20
0.843857
0
VERTEX
8
1
10
12.428604
20
0.825516
0
VERTEX
8
1
10
12.432709
20
0.815012
42
-0.105848
0
VERTEX
8
1
10
12.230347
20
0.873940
42
0.056764
0
VERTEX
8
1
10
12.033722
20
0.930046
42
-0.075496
0
VERTEX
8
1
10
11.745697
20
1.037863
42
0.052106
0
VERTEX
8
1
10
11.469147
20
1.152416
42
0.145584
0
VERTEX
8
1
10
11.466202
20
0.938425
0
VERTEX
8
1
10
11.483200
20
0.864328
42
-0.128672
0
VERTEX
8
1
10
11.486389
20
0.794725
42
-0.343177
0
VERTEX
8
1
10
11.434891
20
0.768934
0
VERTEX
8
1
10
11.409348
20
0.770666
0
VERTEX
8
1
10
11.396362
20
0.849430
42
-0.001708
0
VERTEX
8
1
10
11.536804
20
3.334217
0
VERTEX
8
1
10
11.407455
20
3.183313
0
VERTEX
8
1
10
11.406921
20
3.178957
0
VERTEX
8
1
10
11.270508
20
0.805532
42
-0.087583
0
VERTEX
8
1
10
11.035233
20
0.936785
42
0.008687
0
VERTEX
8
1
10
10.915024
20
1.022530
42
0.225880
0
VERTEX
8
1
10
10.994965
20
1.086103
42
0.041033
0
VERTEX
8
1
10
11.018158
20
1.130129
42
0.002328
0
VERTEX
8
1
10
11.061432
20
3.443260
0
VERTEX
8
1
10
11.060211
20
3.475096
0
VERTEX
8
1
10
11.056854
20
3.504311
0
VERTEX
8
1
10
11.051590
20
3.531006
42
0.248292
0
VERTEX
8
1
10
10.910156
20
3.703474
42
0.023465
0
VERTEX
8
1
10
10.857971
20
4.498449
42
0.095403
0
VERTEX
8
1
10
10.823212
20
4.630985
0
VERTEX
8
1
10
10.814163
20
4.630308
0
VERTEX
8
1
10
10.806656
20
4.617306
0
VERTEX
8
1
10
10.800583
20
4.593241
0
VERTEX
8
1
10
10.795776
20
4.559374
0
VERTEX
8
1
10
10.792114
20
4.516964
0
VERTEX
8
1
10
10.789459
20
4.467278
42
0.000359
0
VERTEX
8
1
10
10.784348
20
3.762342
0
VERTEX
8
1
10
10.781906
20
3.732801
0
VERTEX
8
1
10
10.767624
20
3.720957
42
0.272791
0
VERTEX
8
1
10
10.586090
20
3.550201
42
-0.001244
0
VERTEX
8
1
10
10.609222
20
1.368238
42
0.117254
0
VERTEX
8
1
10
10.666992
20
1.116873
42
0.133175
0
VERTEX
8
1
10
10.729645
20
1.051363
42
0.082286
0
VERTEX
8
1
10
10.743240
20
0.921291
0
VERTEX
8
1
10
10.761673
20
0.847271
0
VERTEX
8
1
10
10.762634
20
0.842648
0
VERTEX
8
1
10
10.766068
20
0.655766
42
-0.060645
0
VERTEX
8
1
10
10.765701
20
0.653248
42
-0.017035
0
VERTEX
8
1
10
10.059158
20
1.071381
42
-0.001724
0
VERTEX
8
1
10
9.893417
20
2.000578
0
VERTEX
8
1
10
9.885666
20
2.031115
0
VERTEX
8
1
10
9.876450
20
2.057844
0
VERTEX
8
1
10
9.865982
20
2.081011
42
0.364161
0
VERTEX
8
1
10
9.700302
20
2.167479
42
0.016796
0
VERTEX
8
1
10
9.502396
20
3.043596
42
0.049408
0
VERTEX
8
1
10
9.468521
20
3.135077
0
VERTEX
8
1
10
9.460510
20
3.139544
0
VERTEX
8
1
10
9.452179
20
3.131857
0
VERTEX
8
1
10
9.446075
20
3.114048
42
0.057035
0
VERTEX
8
1
10
9.448181
20
2.847555
42
0.031934
0
VERTEX
8
1
10
9.546143
20
2.178934
0
VERTEX
8
1
10
9.535034
20
2.164627
42
0.293056
0
VERTEX
8
1
10
9.397751
20
2.016052
42
-0.005595
0
VERTEX
8
1
10
9.573242
20
1.287830
0
VERTEX
8
1
10
9.571518
20
1.272886
0
VERTEX
8
1
10
9.445770
20
1.274479
0
VERTEX
8
1
10
9.437088
20
1.272902
42
-0.032999
0
VERTEX
8
1
10
9.226120
20
1.171047
42
-0.025040
0
VERTEX
8
1
10
9.188644
20
1.159821
0
VERTEX
8
1
10
9.183624
20
1.163431
42
-0.064380
0
VERTEX
8
1
10
9.141754
20
1.278612
0
VERTEX
8
1
10
8.947372
20
1.281572
0
VERTEX
8
1
10
8.940140
20
1.282202
0
VERTEX
8
1
10
8.927841
20
1.985277
0
VERTEX
8
1
10
9.458725
20
4.652874
0
VERTEX
8
1
10
9.460434
20
4.662189
0
VERTEX
8
1
10
9.343643
20
4.804970
0
VERTEX
8
1
10
8.903259
20
2.849255
0
VERTEX
8
1
10
8.901840
20
2.843939
0
VERTEX
8
1
10
8.888870
20
3.765421
42
0.329444
0
VERTEX
8
1
10
9.053894
20
3.845852
42
0.125887
0
VERTEX
8
1
10
9.111221
20
4.075762
42
0.008108
0
VERTEX
8
1
10
9.120636
20
5.495274
42
0.001530
0
VERTEX
8
1
10
9.109329
20
7.313898
42
0.181143
0
VERTEX
8
1
10
8.972992
20
7.490168
42
0.097754
0
VERTEX
8
1
10
8.914642
20
7.507053
0
VERTEX
8
1
10
8.900238
20
7.522808
42
-0.017097
0
VERTEX
8
1
10
8.862869
20
8.365118
42
0.146665
0
VERTEX
8
1
10
8.753967
20
8.192743
42
0.074211
0
VERTEX
8
1
10
8.719101
20
7.983181
42
0.010299
0
VERTEX
8
1
10
8.706940
20
7.507586
42
0.211970
0
VERTEX
8
1
10
8.615738
20
7.461735
42
0.134342
0
VERTEX
8
1
10
8.527664
20
7.278421
42
0.064590
0
VERTEX
8
1
10
8.499115
20
6.946819
42
0.001646
0
VERTEX
8
1
10
8.525040
20
3.869480
42
0.189898
0
VERTEX
8
1
10
8.653549
20
3.753134
42
0.107688
0
VERTEX
8
1
10
8.698776
20
3.750832
0
VERTEX
8
1
10
8.708038
20
3.740461
42
-0.008803
0
VERTEX
8
1
10
8.736435
20
2.821922
42
-0.001079
0
VERTEX
8
1
10
8.767975
20
1.224249
42
0.078996
0
VERTEX
8
1
10
8.504578
20
0.909571
42
0.076943
0
VERTEX
8
1
10
8.447571
20
0.725630
42
-0.055927
0
VERTEX
8
1
10
8.285263
20
0.330191
42
-0.125527
0
VERTEX
8
1
10
8.166061
20
0.198351
0
VERTEX
8
1
10
8.143600
20
0.188343
0
VERTEX
8
1
10
8.121613
20
0.183214
0
VERTEX
8
1
10
7.589203
20
6.420162
0
VERTEX
8
1
10
7.589096
20
6.429556
42
0.217792
0
VERTEX
8
1
10
7.802261
20
6.534626
42
0.183904
0
VERTEX
8
1
10
7.847961
20
6.744982
42
-0.000449
0
VERTEX
8
1
10
7.666138
20
9.080666
42
0.225922
0
VERTEX
8
1
10
7.516754
20
9.216551
42
0.103498
0
VERTEX
8
1
10
7.453613
20
9.215874
0
VERTEX
8
1
10
7.432861
20
9.216047
42
0.073491
0
VERTEX
8
1
10
7.344574
20
10.016901
42
0.082510
0
VERTEX
8
1
10
7.309509
20
10.092871
0
VERTEX
8
1
10
7.298752
20
10.099094
0
VERTEX
8
1
10
7.288788
20
10.094294
0
VERTEX
8
1
10
7.279785
20
10.077585
0
VERTEX
8
1
10
7.271835
20
10.049145
0
VERTEX
8
1
10
7.264709
20
10.013098
42
0.030850
0
VERTEX
8
1
10
7.227173
20
9.424208
0
VERTEX
8
1
10
7.225388
20
9.317173
0
VERTEX
8
1
10
7.224564
20
9.210125
42
0.235267
0
VERTEX
8
1
10
7.100800
20
9.150997
42
0.138726
0
VERTEX
8
1
10
7.009201
20
8.939648
42
0.060894
0
VERTEX
8
1
10
6.993561
20
8.654810
42
0.007216
0
VERTEX
8
1
10
7.146652
20
6.559454
42
0.151760
0
VERTEX
8
1
10
7.250015
20
6.430943
42
0.233853
0
VERTEX
8
1
10
7.323120
20
6.427052
0
VERTEX
8
1
10
7.339539
20
6.364668
0
VERTEX
8
1
10
7.357727
20
6.243036
42
-0.008621
0
VERTEX
8
1
10
7.591171
20
4.102757
0
VERTEX
8
1
10
7.629211
20
3.707111
0
VERTEX
8
1
10
7.666290
20
3.311373
0
VERTEX
8
1
10
7.406677
20
4.168068
0
VERTEX
8
1
10
7.405716
20
4.168726
0
VERTEX
8
1
10
7.199631
20
4.168728
0
VERTEX
8
1
10
7.198761
20
4.168125
0
VERTEX
8
1
10
7.692032
20
2.246971
0
VERTEX
8
1
10
7.693039
20
2.238962
0
VERTEX
8
1
10
7.867615
20
0.524050
0
VERTEX
8
1
10
7.867554
20
0.518150
0
VERTEX
8
1
10
7.838531
20
0.587839
42
0.033096
0
VERTEX
8
1
10
7.638794
20
0.947273
42
0.128292
0
VERTEX
8
1
10
7.498535
20
1.078974
42
0.469733
0
VERTEX
8
1
10
7.340790
20
1.009863
0
VERTEX
8
1
10
7.333069
20
0.989376
42
0.058562
0
VERTEX
8
1
10
7.294479
20
0.697557
0
VERTEX
8
1
10
7.292358
20
0.670002
0
VERTEX
8
1
10
7.290070
20
0.642458
0
VERTEX
8
1
10
7.286911
20
0.647179
0
VERTEX
8
1
10
6.715210
20
3.060974
0
VERTEX
8
1
10
6.712662
20
3.070932
0
VERTEX
8
1
10
6.383224
20
3.250637
0
VERTEX
8
1
10
6.950562
20
1.219696
0
VERTEX
8
1
10
6.952515
20
1.212154
0
VERTEX
8
1
10
6.652985
20
1.421812
42
0.017814
0
VERTEX
8
1
10
5.959412
20
2.511654
42
0.062527
0
VERTEX
8
1
10
5.798126
20
2.703621
0
VERTEX
8
1
10
5.777252
20
2.711477
0
VERTEX
8
1
10
5.755844
20
2.700066
0
VERTEX
8
1
10
5.731293
20
2.671022
0
VERTEX
8
1
10
5.704086
20
2.626417
0
VERTEX
8
1
10
5.674713
20
2.568314
0
VERTEX
8
1
10
5.643631
20
2.498779
42
0.024953
0
VERTEX
8
1
10
5.345917
20
1.625168
0
VERTEX
8
1
10
5.303864
20
1.482096
42
0.017839
0
VERTEX
8
1
10
5.309402
20
1.346178
0
VERTEX
8
1
10
5.512848
20
1.447926
42
-0.021569
0
VERTEX
8
1
10
5.814056
20
2.440475
42
-0.038446
0
VERTEX
8
1
10
6.273254
20
1.748707
42
-0.056536
0
VERTEX
8
1
10
6.373215
20
1.506735
0
VERTEX
8
1
10
6.382538
20
1.457020
0
VERTEX
8
1
10
6.338348
20
1.464697
42
-0.010057
0
VERTEX
8
1
10
5.939102
20
1.607346
42
0.106330
0
VERTEX
8
1
10
5.744736
20
1.639992
42
0.134627
0
VERTEX
8
1
10
5.675018
20
1.611984
0
VERTEX
8
1
10
5.688400
20
1.595459
0
VERTEX
8
1
10
5.756363
20
1.573536
0
VERTEX
8
1
10
5.832001
20
1.543604
0
VERTEX
8
1
10
5.914017
20
1.506710
42
-0.031590
0
VERTEX
8
1
10
6.741364
20
1.024193
42
-0.007441
0
VERTEX
8
1
10
7.042648
20
0.822302
0
VERTEX
8
1
10
7.138214
20
0.392357
42
-0.265652
0
VERTEX
8
1
10
6.987808
20
0.420511
42
-0.088460
0
VERTEX
8
1
10
6.808914
20
0.635309
42
0.077067
0
VERTEX
8
1
10
6.572601
20
0.935429
42
0.061241
0
VERTEX
8
1
10
6.393707
20
1.053213
0
VERTEX
8
1
10
6.368027
20
1.058262
42
0.043377
0
VERTEX
8
1
10
6.150558
20
0.934692
42
-0.078222
0
VERTEX
8
1
10
5.996292
20
0.865383
42
0.059046
0
VERTEX
8
1
10
5.867447
20
0.995161
42
0.042028
0
VERTEX
8
1
10
5.634521
20
1.175011
0
VERTEX
8
1
10
5.618484
20
1.183315
0
VERTEX
8
1
10
5.606094
20
1.187796
42
0.240740
0
VERTEX
8
1
10
5.445358
20
1.105282
42
-0.007726
0
VERTEX
8
1
10
5.363907
20
1.021507
42
0.012380
0
VERTEX
8
1
10
5.372910
20
0.996824
42
-0.075713
0
VERTEX
8
1
10
5.250595
20
0.821228
42
-0.406897
0
VERTEX
8
1
10
5.010178
20
0.829115
42
-0.040210
0
VERTEX
8
1
10
4.884247
20
0.972794
0
VERTEX
8
1
10
4.862991
20
0.995596
0
VERTEX
8
1
10
4.840866
20
1.016220
0
VERTEX
8
1
10
4.817627
20
1.033978
42
0.358553
0
VERTEX
8
1
10
4.628510
20
1.025703
42
0.043461
0
VERTEX
8
1
10
4.398727
20
0.779301
42
-0.055561
0
VERTEX
8
1
10
4.316818
20
0.697397
42
0.141286
0
VERTEX
8
1
10
4.216171
20
0.894991
42
-0.035237
0
VERTEX
8
1
10
4.090820
20
1.057039
0
VERTEX
8
1
10
4.058289
20
1.051697
42
-0.062927
0
VERTEX
8
1
10
3.239151
20
0.784431
42
-0.079871
0
VERTEX
8
1
10
2.854172
20
0.773420
42
-0.035096
0
VERTEX
8
1
10
2.994354
20
1.175217
42
0.034948
0
VERTEX
8
1
10
3.081665
20
1.432446
0
VERTEX
8
1
10
3.063873
20
1.447796
42
0.051753
0
VERTEX
8
1
10
2.707306
20
1.533100
42
-0.029285
0
VERTEX
8
1
10
2.178543
20
1.642088
42
0.053138
0
VERTEX
8
1
10
1.762466
20
1.704985
0
VERTEX
8
1
10
1.751953
20
1.714069
0
VERTEX
8
1
10
1.753418
20
1.727495
42
-0.165728
0
VERTEX
8
1
10
1.853683
20
1.866524
42
-0.026204
0
VERTEX
8
1
10
1.954956
20
1.940712
0
VERTEX
8
1
10
1.928879
20
2.058064
42
-0.112940
0
VERTEX
8
1
10
1.218124
20
2.235092
42
-0.089809
0
VERTEX
8
1
10
0.953156
20
2.442949
0
VERTEX
8
1
10
0.947601
20
2.464544
42
0.015631
0
VERTEX
8
1
10
1.057846
20
2.683508
42
0.159848
0
VERTEX
8
1
10
1.067581
20
2.762156
0
VERTEX
8
1
10
1.061295
20
2.771523
0
VERTEX
8
1
10
1.051529
20
2.778114
42
-0.048333
0
VERTEX
8
1
10
0.958679
20
2.807850
0
VERTEX
8
1
10
0.946777
20
2.821537
0
VERTEX
8
1
10
0.948090
20
2.836014
0
VERTEX
8
1
10
0.961029
20
2.851078
0
VERTEX
8
1
10
0.984009
20
2.866526
0
VERTEX
8
1
10
1.015442
20
2.882151
42
-0.045367
0
VERTEX
8
1
10
1.473251
20
3.009144
42
0.002327
0
VERTEX
8
1
10
1.700058
20
3.018078
0
VERTEX
8
1
10
1.228928
20
4.704252
0
VERTEX
8
1
10
1.230194
20
4.704098
0
VERTEX
8
1
10
1.535446
20
4.537575
0
VERTEX
8
1
10
1.536880
20
4.535910
0
VERTEX
8
1
10
1.895126
20
3.023354
0
VERTEX
8
1
10
1.898605
20
3.022997
0
VERTEX
8
1
10
1.974991
20
3.024977
0
VERTEX
8
1
10
1.978149
20
3.025305
0
VERTEX
8
1
10
1.992828
20
3.041138
0
VERTEX
8
1
10
1.991882
20
3.056793
0
VERTEX
8
1
10
1.789215
20
5.954735
0
VERTEX
8
1
10
1.788361
20
5.964399
42
-0.243959
0
VERTEX
8
1
10
1.724533
20
5.987036
42
-0.134297
0
VERTEX
8
1
10
1.645172
20
6.117592
0
VERTEX
8
1
10
1.629761
20
6.164289
42
-0.059621
0
VERTEX
8
1
10
1.565277
20
6.647654
42
0.014760
0
VERTEX
8
1
10
1.453857
20
8.108339
42
0.001798
0
VERTEX
8
1
10
1.396866
20
8.656288
42
-0.259838
0
VERTEX
8
1
10
1.607697
20
8.967083
0
VERTEX
8
1
10
1.644043
20
8.985350
0
VERTEX
8
1
10
1.640991
20
9.050533
42
-0.012671
0
VERTEX
8
1
10
1.555740
20
10.414762
42
-0.001846
0
VERTEX
8
1
10
1.536774
20
10.862646
42
-0.220964
0
VERTEX
8
1
10
1.687027
20
10.560278
42
-0.006623
0
VERTEX
8
1
10
1.816757
20
8.959436
42
-0.247682
0
VERTEX
8
1
10
1.913498
20
8.914948
42
-0.129028
0
VERTEX
8
1
10
1.990036
20
8.751116
42
-0.040989
0
VERTEX
8
1
10
2.012146
20
8.599583
42
0.001683
0
VERTEX
8
1
10
2.208267
20
6.160069
42
-0.107348
0
VERTEX
8
1
10
2.091965
20
5.986238
42
-0.166842
0
VERTEX
8
1
10
2.041000
20
5.964451
0
VERTEX
8
1
10
2.042419
20
5.921652
42
0.003225
0
VERTEX
8
1
10
2.200882
20
3.380964
0
VERTEX
8
1
10
2.218262
20
3.285162
42
0.000834
0
VERTEX
8
1
10
2.737595
20
3.849909
42
-0.065462
0
VERTEX
8
1
10
2.670273
20
3.935057
42
-0.001363
0
VERTEX
8
1
10
2.642242
20
7.294718
42
-0.083745
0
VERTEX
8
1
10
2.692978
20
7.674732
42
-0.174419
0
VERTEX
8
1
10
2.808365
20
7.836309
42
-0.120339
0
VERTEX
8
1
10
2.866180
20
7.854292
42
-0.013161
0
VERTEX
8
1
10
2.883423
20
8.430737
0
VERTEX
8
1
10
2.888367
20
8.471336
0
VERTEX
8
1
10
2.894867
20
8.509001
42
-0.152782
0
VERTEX
8
1
10
3.019775
20
8.765312
42
-0.143309
0
VERTEX
8
1
10
3.034149
20
8.775887
42
0.015253
0
VERTEX
8
1
10
3.072159
20
7.892843
0
VERTEX
8
1
10
3.077621
20
7.853777
42
-0.248415
0
VERTEX
8
1
10
3.249374
20
7.743608
42
-0.060193
0
VERTEX
8
1
10
3.299927
20
7.644140
42
-0.003816
0
VERTEX
8
1
10
3.310074
20
4.477255
0
VERTEX
8
1
10
3.488770
20
4.674421
0
VERTEX
8
1
10
3.492584
20
4.679214
0
VERTEX
8
1
10
3.551956
20
4.942774
0
VERTEX
8
1
10
3.636978
20
4.838806
42
0.011768
0
VERTEX
8
1
10
4.651321
20
5.998327
42
0.041403
0
VERTEX
8
1
10
4.780533
20
6.177483
0
VERTEX
8
1
10
4.783447
20
6.191811
42
0.108849
0
VERTEX
8
1
10
4.710693
20
6.369596
42
0.034186
0
VERTEX
8
1
10
4.476501
20
6.691896
0
VERTEX
8
1
10
4.726257
20
6.608643
0
VERTEX
8
1
10
4.727798
20
6.607809
0
VERTEX
8
1
10
5.681305
20
5.144674
0
VERTEX
8
1
10
5.704758
20
5.176735
42
-0.042704
0
VERTEX
8
1
10
5.872864
20
5.329121
42
0.147218
0
VERTEX
8
1
10
5.975357
20
5.469067
0
VERTEX
8
1
10
5.972214
20
5.487553
0
VERTEX
8
1
10
5.945374
20
5.495890
42
-0.383382
0
VERTEX
8
1
10
5.898712
20
5.561235
0
VERTEX
8
1
10
5.903152
20
5.577642
0
VERTEX
8
1
10
5.910965
20
5.594700
0
VERTEX
8
1
10
5.921585
20
5.612206
42
-0.026593
0
VERTEX
8
1
10
6.065231
20
5.768141
42
0.231551
0
VERTEX
8
1
10
6.128967
20
6.030453
42
-0.042009
0
VERTEX
8
1
10
6.115753
20
6.215113
42
-0.186629
0
VERTEX
8
1
10
5.960846
20
6.168083
42
0.023639
0
VERTEX
8
1
10
5.994614
20
6.359743
42
-0.027565
0
VERTEX
8
1
10
6.004578
20
6.401766
0
VERTEX
8
1
10
6.000122
20
6.412039
42
-0.083755
0
VERTEX
8
1
10
5.887405
20
6.459904
42
-0.305337
0
VERTEX
8
1
10
5.881805
20
6.503323
42
-0.094567
0
VERTEX
8
1
10
5.938217
20
6.631435
42
0.096802
0
VERTEX
8
1
10
5.977478
20
6.700565
42
0.367572
0
VERTEX
8
1
10
5.952362
20
6.740681
0
VERTEX
8
1
10
5.937775
20
6.746962
0
VERTEX
8
1
10
5.903702
20
6.757477
42
-0.148198
0
VERTEX
8
1
10
5.903244
20
6.857985
42
0.130618
0
VERTEX
8
1
10
6.084732
20
6.892822
0
VERTEX
8
1
10
6.091583
20
6.909548
0
VERTEX
8
1
10
6.091049
20
6.948717
42
0.128816
0
VERTEX
8
1
10
5.992020
20
7.167978
42
-0.039596
0
VERTEX
8
1
10
5.851608
20
7.380323
42
-0.257327
0
VERTEX
8
1
10
5.852280
20
7.639910
42
0.032022
0
VERTEX
8
1
10
5.923996
20
7.779074
42
0.109859
0
VERTEX
8
1
10
5.905380
20
7.934162
42
0.060385
0
VERTEX
8
1
10
5.851089
20
8.127716
42
0.360080
0
VERTEX
8
1
10
5.751129
20
8.182486
0
VERTEX
8
1
10
5.729691
20
8.175907
0
VERTEX
8
1
10
5.706055
20
8.164581
42
0.113310
0
VERTEX
8
1
10
5.325470
20
8.190437
42
0.051036
0
VERTEX
8
1
10
4.810776
20
8.051687
0
VERTEX
8
1
10
4.782455
20
8.045925
42
0.126697
0
VERTEX
8
1
10
4.641327
20
8.063293
42
-0.161029
0
VERTEX
8
1
10
4.498169
20
8.089596
42
0.045410
0
VERTEX
8
1
10
4.393417
20
8.166082
42
0.175787
0
VERTEX
8
1
10
4.356186
20
8.170006
0
VERTEX
8
1
10
4.326401
20
8.163643
0
VERTEX
8
1
10
4.291748
20
8.160435
42
-0.142781
0
VERTEX
8
1
10
3.747253
20
8.327023
42
-0.169167
0
VERTEX
8
1
10
3.627029
20
8.479475
0
VERTEX
8
1
10
3.624481
20
8.481638
42
0.016893
0
VERTEX
8
1
10
3.582672
20
8.491028
42
0.069109
0
VERTEX
8
1
10
3.469238
20
8.700909
42
-0.173495
0
VERTEX
8
1
10
3.403275
20
8.928965
0
VERTEX
8
1
10
3.387421
20
8.934599
42
-0.111990
0
VERTEX
8
1
10
3.238342
20
9.078438
42
-0.079707
0
VERTEX
8
1
10
3.081024
20
9.354649
42
-0.318394
0
VERTEX
8
1
10
3.209152
20
9.736322
42
-0.058154
0
VERTEX
8
1
10
3.424377
20
9.858372
42
0.018372
0
VERTEX
8
1
10
3.661087
20
9.970490
0
VERTEX
8
1
10
4.160385
20
10.164541
0
VERTEX
8
1
10
4.164978
20
10.166792
42
-0.074023
0
VERTEX
8
1
10
4.430069
20
10.304779
42
0.101278
0
VERTEX
8
1
10
4.683640
20
10.452444
42
0.189886
0
VERTEX
8
1
10
4.763901
20
10.677797
42
-0.048906
0
VERTEX
8
1
10
4.779846
20
10.920053
42
-0.134824
0
VERTEX
8
1
10
4.887604
20
11.091354
42
-0.009663
0
VERTEX
8
1
10
5.158600
20
11.342453
0
VERTEX
8
1
10
5.213165
20
11.396566
42
-0.062015
0
VERTEX
8
1
10
5.567764
20
11.688544
42
-0.082002
0
VERTEX
8
1
10
6.189087
20
11.913071
42
0.007698
0
VERTEX
8
1
10
6.740646
20
12.030007
42
-0.034884
0
VERTEX
8
1
10
7.196198
20
12.066325
0
VERTEX
8
1
10
7.235748
20
12.068501
0
VERTEX
8
1
10
7.275299
20
12.070996
42
-0.102857
0
VERTEX
8
1
10
7.820404
20
12.016704
0
VERTEX
8
1
10
7.831665
20
12.013040
0
VERTEX
8
1
10
8.131973
20
11.946465
42
-0.039999
0
VERTEX
8
1
10
8.325989
20
11.856667
0
VERTEX
8
1
10
8.352814
20
11.838089
42
0.098821
0
VERTEX
8
1
10
8.489716
20
11.754800
42
0.088753
0
VERTEX
8
1
10
8.579742
20
11.752498
0
VERTEX
8
1
10
8.591705
20
11.750395
0
VERTEX
8
1
10
8.589890
20
11.734129
42
0.416896
0
VERTEX
8
1
10
8.646484
20
11.655046
42
-0.025863
0
VERTEX
8
1
10
8.736649
20
11.628002
0
VERTEX
8
1
10
8.737625
20
11.623416
42
0.034430
0
VERTEX
8
1
10
8.705353
20
11.529471
42
0.041554
0
VERTEX
8
1
10
8.823608
20
11.447945
42
-0.194634
0
VERTEX
8
1
10
8.884735
20
11.373140
42
-0.180671
0
VERTEX
8
1
10
8.874161
20
11.334995
0
VERTEX
8
1
10
8.873413
20
11.325750
42
0.231175
0
VERTEX
8
1
10
8.930832
20
11.273634
42
-0.251195
0
VERTEX
8
1
10
8.964432
20
11.224281
42
0.083777
0
VERTEX
8
1
10
8.998627
20
11.118252
42
0.105840
0
VERTEX
8
1
10
9.093399
20
11.045986
42
-0.172176
0
VERTEX
8
1
10
9.156128
20
10.974524
0
VERTEX
8
1
10
9.155228
20
10.961969
42
0.397749
0
VERTEX
8
1
10
9.137955
20
10.840940
0
VERTEX
8
1
10
9.142471
20
10.832327
42
-0.037461
0
VERTEX
8
1
10
9.241409
20
10.661758
42
0.371726
0
VERTEX
8
1
10
9.298325
20
10.640072
42
0.000962
0
VERTEX
8
1
10
9.369675
20
10.660444
42
-0.181627
0
VERTEX
8
1
10
9.376144
20
10.501509
42
-0.272151
0
VERTEX
8
1
10
9.494431
20
10.490906
0
VERTEX
8
1
10
9.437973
20
10.377197
42
-0.182967
0
VERTEX
8
1
10
9.598511
20
10.214321
0
VERTEX
8
1
10
9.598511
20
10.207867
42
0.071565
0
VERTEX
8
1
10
9.510498
20
10.180407
0
VERTEX
8
1
10
9.501236
20
10.178234
42
-0.008107
0
VERTEX
8
1
10
9.648438
20
9.981056
0
VERTEX
8
1
10
9.659348
20
9.962872
0
VERTEX
8
1
10
9.661026
20
9.956423
42
0.094185
0
VERTEX
8
1
10
9.543137
20
9.969738
42
0.041016
0
VERTEX
8
1
10
9.612747
20
9.708864
42
-0.105423
0
VERTEX
8
1
10
9.643982
20
9.464521
0
VERTEX
8
1
10
9.640564
20
9.450310
42
-0.340379
0
VERTEX
8
1
10
9.607040
20
9.451155
0
VERTEX
8
1
10
9.599167
20
9.487013
42
0.298919
0
VERTEX
8
1
10
9.539307
20
9.407677
0
VERTEX
8
1
10
9.536896
20
9.381639
0
VERTEX
8
1
10
9.537674
20
9.353540
0
VERTEX
8
1
10
9.541290
20
9.323793
42
0.072579
0
VERTEX
8
1
10
9.670059
20
8.989494
42
0.137638
0
VERTEX
8
1
10
9.752182
20
9.031698
42
-0.105098
0
VERTEX
8
1
10
9.866821
20
9.108114
0
VERTEX
8
1
10
9.873138
20
9.102926
42
-0.059046
0
VERTEX
8
1
10
9.858551
20
8.941246
42
0.059757
0
VERTEX
8
1
10
9.858795
20
8.884106
42
-0.176934
0
VERTEX
8
1
10
10.020386
20
8.883335
0
VERTEX
8
1
10
10.037064
20
8.878513
0
VERTEX
8
1
10
10.037582
20
8.871881
42
0.092133
0
VERTEX
8
1
10
9.950882
20
8.739100
42
0.241003
0
VERTEX
8
1
10
9.964645
20
8.654251
42
-0.505037
0
VERTEX
8
1
10
10.009476
20
8.589630
0
VERTEX
8
1
10
10.004944
20
8.573019
42
-0.054801
0
VERTEX
8
1
10
9.895203
20
8.392031
0
VERTEX
8
1
10
9.886597
20
8.377874
0
VERTEX
8
1
10
9.879974
20
8.365423
0
VERTEX
8
1
10
9.882980
20
8.359186
42
0.025110
0
VERTEX
8
1
10
10.005234
20
8.313276
42
0.041240
0
VERTEX
8
1
10
10.040634
20
8.310751
42
-0.266365
0
VERTEX
8
1
10
9.991501
20
8.190548
0
VERTEX
8
1
10
9.994812
20
8.182554
42
-0.164312
0
VERTEX
8
1
10
10.055298
20
8.079235
0
VERTEX
8
1
10
10.055450
20
8.069950
42
-0.233549
0
VERTEX
8
1
10
9.982224
20
7.934950
0
VERTEX
8
1
10
9.980331
20
7.930639
0
VERTEX
8
1
10
9.979416
20
7.925438
42
0.260726
0
VERTEX
8
1
10
10.144867
20
7.718277
42
0.013880
0
VERTEX
8
1
10
10.349777
20
7.636963
0
VERTEX
8
1
10
10.339401
20
7.629812
42
-0.047075
0
VERTEX
8
1
10
10.171188
20
7.556416
42
0.023204
0
VERTEX
8
1
10
10.138626
20
7.539902
0
VERTEX
8
1
10
10.144592
20
7.535391
42
-0.002387
0
VERTEX
8
1
10
10.346741
20
7.461279
42
0.043696
0
VERTEX
8
1
10
10.419022
20
7.448574
42
0.002106
0
VERTEX
8
1
10
10.362106
20
7.334387
42
-0.147588
0
VERTEX
8
1
10
10.432129
20
7.271210
42
0.252894
0
VERTEX
8
1
10
10.503113
20
7.239956
42
-0.146659
0
VERTEX
8
1
10
10.479248
20
7.142315
42
0.009910
0
VERTEX
8
1
10
10.447159
20
7.135246
42
0.437572
0
VERTEX
8
1
10
10.524094
20
7.066368
42
-0.013138
0
VERTEX
8
1
10
10.675644
20
7.075880
0
VERTEX
8
1
10
10.688477
20
7.073612
0
VERTEX
8
1
10
10.691528
20
7.066467
0
VERTEX
8
1
10
10.691315
20
7.040520
0
VERTEX
8
1
10
10.690933
20
7.027252
42
0.210427
0
VERTEX
8
1
10
10.721695
20
6.910463
42
0.230703
0
VERTEX
8
1
10
10.791672
20
6.900188
42
-0.513526
0
VERTEX
8
1
10
10.836670
20
6.865511
0
VERTEX
8
1
10
10.838257
20
6.852346
0
VERTEX
8
1
10
10.836975
20
6.848875
42
-0.011158
0
VERTEX
8
1
10
10.803284
20
6.840733
42
0.259644
0
VERTEX
8
1
10
10.881256
20
6.761396
42
-0.289283
0
VERTEX
8
1
10
10.963928
20
6.664721
0
VERTEX
8
1
10
10.951080
20
6.651255
42
0.394256
0
VERTEX
8
1
10
10.943573
20
6.564075
42
0.070474
0
VERTEX
8
1
10
11.073120
20
6.428850
42
-0.077883
0
VERTEX
8
1
10
11.110931
20
6.387497
42
0.003341
0
VERTEX
8
1
10
11.033127
20
6.379078
42
-0.097367
0
VERTEX
8
1
10
11.141541
20
6.244410
42
-0.026906
0
VERTEX
8
1
10
11.172150
20
6.198662
42
-0.162677
0
VERTEX
8
1
10
11.075867
20
6.169643
42
0.105829
0
VERTEX
8
1
10
11.139221
20
6.062679
42
-0.219945
0
VERTEX
8
1
10
11.179092
20
5.900187
42
-0.030328
0
VERTEX
8
1
10
11.129715
20
5.799194
42
0.015546
0
VERTEX
8
1
10
11.096191
20
5.789642
42
-0.086511
0
VERTEX
8
1
10
11.102707
20
5.753675
42
-0.187584
0
VERTEX
8
1
10
11.174484
20
5.629519
0
VERTEX
8
1
10
11.174194
20
5.614935
0
VERTEX
8
1
10
11.172882
20
5.609953
0
VERTEX
8
1
10
11.139053
20
5.603100
42
0.098462
0
VERTEX
8
1
10
11.229095
20
5.303272
0
VERTEX
8
1
10
11.229126
20
5.294964
42
-0.003874
0
VERTEX
8
1
10
11.075546
20
5.288483
42
0.093531
0
VERTEX
8
1
10
11.094147
20
5.172035
42
0.000058
0
VERTEX
8
1
10
11.135132
20
5.031868
42
-0.056733
0
VERTEX
8
1
10
11.281372
20
4.912786
42
-0.780541
0
VERTEX
8
1
10
11.277435
20
4.891512
0
VERTEX
8
1
10
11.273376
20
4.886248
42
0.118198
0
VERTEX
8
1
10
11.273636
20
4.754807
0
VERTEX
8
1
10
11.277603
20
4.729469
0
VERTEX
8
1
10
11.282227
20
4.704243
42
0.033063
0
VERTEX
8
1
10
11.400589
20
4.564444
42
-0.193075
0
VERTEX
8
1
10
11.449783
20
4.447626
0
VERTEX
8
1
10
11.446945
20
4.434185
42
0.026675
0
VERTEX
8
1
10
11.390411
20
4.426826
42
0.113461
0
VERTEX
8
1
10
11.479126
20
4.239048
42
-0.010449
0
VERTEX
8
1
10
11.539047
20
4.149382
0
VERTEX
8
1
10
11.543518
20
4.164045
42
-0.000080
0
VERTEX
8
1
10
11.080765
20
7.727770
42
-0.195964
0
VERTEX
8
1
10
10.993073
20
7.764620
42
-0.122255
0
VERTEX
8
1
10
10.880600
20
7.940374
42
-0.059610
0
VERTEX
8
1
10
10.799744
20
8.270864
42
0.000285
0
VERTEX
8
1
10
10.465561
20
10.471594
42
-0.240740
0
VERTEX
8
1
10
10.581421
20
10.686611
42
-0.087152
0
VERTEX
8
1
10
10.661682
20
10.718113
0
VERTEX
8
1
10
10.688080
20
10.729143
42
-0.025829
0
VERTEX
8
1
10
10.506836
20
12.063993
42
-0.050988
0
VERTEX
8
1
10
10.508133
20
12.335693
0
VERTEX
8
1
10
10.517532
20
12.367605
0
VERTEX
8
1
10
10.533615
20
12.352326
0
VERTEX
8
1
10
10.553207
20
12.304225
0
VERTEX
8
1
10
10.574493
20
12.239498
0
VERTEX
8
1
10
10.597137
20
12.160371
0
VERTEX
8
1
10
10.620819
20
12.069068
42
-0.016065
0
VERTEX
8
1
10
10.885468
20
10.750784
42
-0.206138
0
VERTEX
8
1
10
11.015610
20
10.676611
42
-0.114118
0
VERTEX
8
1
10
11.112228
20
10.481829
0
VERTEX
8
1
10
11.124359
20
10.432102
0
VERTEX
8
1
10
11.134644
20
10.376593
42
0.001572
0
VERTEX
8
1
10
11.501160
20
7.951679
42
-0.110033
0
VERTEX
8
1
10
11.362411
20
7.743855
0
VERTEX
8
1
10
11.349609
20
7.735329
0
VERTEX
8
1
10
11.336700
20
7.729080
0
VERTEX
8
1
10
11.339447
20
7.684938
0
VERTEX
8
1
10
11.351120
20
7.600569
42
-0.001679
0
VERTEX
8
1
10
11.922791
20
3.132442
0
VERTEX
8
1
10
11.948837
20
3.181494
42
-0.005593
0
VERTEX
8
1
10
12.022964
20
4.982821
42
0.030047
0
VERTEX
8
1
10
12.029388
20
5.103737
42
0.058310
0
VERTEX
8
1
10
11.943787
20
5.218040
42
-0.133537
0
VERTEX
8
1
10
11.877625
20
5.394205
42
-0.054767
0
VERTEX
8
1
10
11.879944
20
5.828369
42
0.018166
0
VERTEX
8
1
10
11.989929
20
7.590509
0
VERTEX
8
1
10
11.998245
20
7.855204
0
VERTEX
8
1
10
12.005051
20
8.119940
42
-0.125075
0
VERTEX
8
1
10
12.127899
20
8.384586
42
-0.182935
0
VERTEX
8
1
10
12.306015
20
8.482721
0
VERTEX
8
1
10
12.317017
20
8.523588
42
-0.001740
0
VERTEX
8
1
10
12.449982
20
10.288246
42
-0.021025
0
VERTEX
8
1
10
12.527664
20
10.945044
0
VERTEX
8
1
10
12.542175
20
10.997198
0
VERTEX
8
1
10
12.556046
20
11.013575
0
VERTEX
8
1
10
12.568985
20
10.986532
42
-0.040111
0
VERTEX
8
1
10
12.595169
20
10.574596
42
-0.012574
0
VERTEX
8
1
10
12.549011
20
8.770220
0
VERTEX
8
1
10
12.536865
20
8.511953
42
-0.150370
0
VERTEX
8
1
10
12.794647
20
8.279306
42
-0.159143
0
VERTEX
8
1
10
12.842987
20
8.016237
42
0.001756
0
VERTEX
8
1
10
12.647781
20
5.347490
42
-0.078275
0
VERTEX
8
1
10
12.416260
20
5.144087
42
-0.004818
0
VERTEX
8
1
10
12.367371
20
5.120277
0
VERTEX
8
1
10
12.363266
20
5.102966
42
0.020730
0
VERTEX
8
1
10
12.308075
20
4.538553
42
0.002756
0
VERTEX
8
1
10
12.254211
20
3.763453
0
VERTEX
8
1
10
12.276398
20
3.796709
42
-0.002134
0
VERTEX
8
1
10
12.666687
20
4.520685
0
VERTEX
8
1
10
12.816742
20
5.264666
0
VERTEX
8
1
10
13.012177
20
5.292618
0
VERTEX
8
1
10
13.012527
20
5.292084
0
VERTEX
8
1
10
12.825897
20
4.415497
0
VERTEX
8
1
10
12.842575
20
4.410213
42
-0.096811
0
VERTEX
8
1
10
13.091599
20
4.325508
42
-0.214702
0
VERTEX
8
1
10
13.166275
20
4.217098
42
-0.005303
0
SEQEND
0
POLYLINE
8
1
66
1
70
1
0
VERTEX
8
1
10
1.760040
20
2.803364
0
VERTEX
8
1
10
1.736664
20
2.886988
0
VERTEX
8
1
10
1.647598
20
2.886423
0
VERTEX
8
1
10
1.640045
20
2.885897
0
VERTEX
8
1
10
1.759857
20
2.802006
0
SEQEND
0
POLYLINE
8
1
66
1
70
1
0
VERTEX
8
1
10
1.336716
20
2.751062
42
-0.034226
0
VERTEX
8
1
10
1.300003
20
2.631577
0
VERTEX
8
1
10
1.324493
20
2.611012
42
0.108259
0
VERTEX
8
1
10
1.807526
20
2.438934
42
-0.025662
0
VERTEX
8
1
10
1.819916
20
2.453159
0
VERTEX
8
1
10
1.816788
20
2.456785
42
0.010317
0
VERTEX
8
1
10
1.366364
20
2.751865
0
VERTEX
8
1
10
1.339157
20
2.762392
0
SEQEND
0
POLYLINE
8
1
66
1
70
1
0
VERTEX
8
1
10
1.994080
20
3.025442
0
VERTEX
8
1
10
1.993607
20
3.031925
0
VERTEX
8
1
10
1.986755
20
3.025265
0
SEQEND
0
POLYLINE
8
1
66
1
70
1
0
VERTEX
8
1
10
1.928543
20
2.882301
0
VERTEX
8
1
10
2.005692
20
2.556501
0
VERTEX
8
1
10
2.024734
20
2.562990
0
VERTEX
8
1
10
2.026306
20
2.564157
0
VERTEX
8
1
10
2.003830
20
2.885599
0
VERTEX
8
1
10
1.999695
20
2.888065
0
VERTEX
8
1
10
1.929153
20
2.887888
0
SEQEND
0
POLYLINE
8
1
66
1
70
1
0
VERTEX
8
1
10
2.797882
20
3.813229
0
VERTEX
8
1
10
2.209900
20
3.242035
0
VERTEX
8
1
10
2.223679
20
3.030325
42
-0.006259
0
VERTEX
8
1
10
2.892609
20
3.034557
42
0.008666
0
VERTEX
8
1
10
2.867538
20
3.793804
0
VERTEX
8
1
10
2.866180
20
3.809175
42
-0.151891
0
SEQEND
0
POLYLINE
8
1
66
1
70
1
0
VERTEX
8
1
10
2.896210
20
2.881588
42
0.004391
0
VERTEX
8
1
10
2.232986
20
2.888086
0
VERTEX
8
1
10
2.250824
20
2.614986
42
-0.009450
0
VERTEX
8
1
10
2.900299
20
2.700600
0
SEQEND
0
POLYLINE
8
1
66
1
70
1
0
VERTEX
8
1
10
2.911118
20
2.184553
0
VERTEX
8
1
10
2.904129
20
2.522984
0
VERTEX
8
1
10
2.864075
20
2.527283
42
0.063338
0
VERTEX
8
1
10
2.296829
20
2.405045
0
VERTEX
8
1
10
2.265427
20
2.392006
0
VERTEX
8
1
10
2.266022
20
2.382933
0
VERTEX
8
1
10
2.267014
20
2.382420
0
VERTEX
8
1
10
2.810043
20
2.353184
0
VERTEX
8
1
10
2.809433
20
2.351877
0
VERTEX
8
1
10
2.582825
20
2.171520
42
0.003460
0
VERTEX
8
1
10
2.893097
20
2.175192
0
SEQEND
0
POLYLINE
8
1
66
1
70
1
0
VERTEX
8
1
10
2.603348
20
1.926668
42
-0.000233
0
VERTEX
8
1
10
2.917221
20
1.874157
0
VERTEX
8
1
10
2.913055
20
2.088335
42
-0.001425
0
VERTEX
8
1
10
2.460739
20
2.074324
0
VERTEX
8
1
10
2.349411
20
1.985701
42
0.010661
0
SEQEND
0
POLYLINE
8
1
66
1
70
1
0
VERTEX
8
1
10
4.048920
20
2.434351
0
VERTEX
8
1
10
4.018494
20
2.205441
0
VERTEX
8
1
10
4.413925
20
2.218637
0
VERTEX
8
1
10
4.439423
20
2.223843
0
VERTEX
8
1
10
4.433365
20
2.429739
0
VERTEX
8
1
10
4.413452
20
2.438543
42
-0.011086
0
VERTEX
8
1
10
4.055923
20
2.449606
0
SEQEND
0
POLYLINE
8
1
66
1
70
1
0
VERTEX
8
1
10
4.444366
20
2.055952
0
VERTEX
8
1
10
4.441803
20
2.142982
0
VERTEX
8
1
10
4.034805
20
2.127979
0
VERTEX
8
1
10
4.007736
20
2.124151
0
VERTEX
8
1
10
3.992722
20
2.010519
0
VERTEX
8
1
10
4.010803
20
2.008541
42
-0.018305
0
VERTEX
8
1
10
4.434738
20
2.049398
0
SEQEND
0
POLYLINE
8
1
66
1
70
1
0
VERTEX
8
1
10
4.336441
20
2.546383
42
0.037636
0
VERTEX
8
1
10
4.428574
20
2.591482
0
VERTEX
8
1
10
4.363663
20
4.788843
42
0.000108
0
VERTEX
8
1
10
4.117706
20
2.950268
42
-0.104922
0
VERTEX
8
1
10
4.293427
20
2.881046
42
-0.470885
0
VERTEX
8
1
10
4.304031
20
2.795326
42
-0.140221
0
VERTEX
8
1
10
4.184372
20
2.704210
42
-0.033461
0
VERTEX
8
1
10
4.079559
20
2.664534
0
VERTEX
8
1
10
4.054184
20
2.473902
42
0.057524
0
SEQEND
0
POLYLINE
8
1
66
1
70
1
0
VERTEX
8
1
10
4.272751
20
5.245955
0
VERTEX
8
1
10
3.648087
20
4.639143
0
VERTEX
8
1
10
3.327072
20
3.026312
42
-0.023735
0
VERTEX
8
1
10
3.960754
20
2.978357
0
VERTEX
8
1
10
3.974335
20
3.023638
42
-0.025393
0
VERTEX
8
1
10
4.239380
20
5.088991
42
-0.007679
0
SEQEND
0
POLYLINE
8
1
66
1
70
1
0
VERTEX
8
1
10
3.158798
20
2.180769
42
0.002001
0
VERTEX
8
1
10
3.936493
20
2.202810
42
-0.016369
0
VERTEX
8
1
10
3.947983
20
2.630611
42
-0.039721
0
VERTEX
8
1
10
3.232437
20
2.550684
0
SEQEND
0
POLYLINE
8
1
66
1
70
1
0
VERTEX
8
1
10
3.295609
20
2.868277
0
VERTEX
8
1
10
3.270844
20
2.743717
42
0.023344
0
VERTEX
8
1
10
3.666153
20
2.801664
0
VERTEX
8
1
10
3.688232
20
2.808842
0
VERTEX
8
1
10
3.699768
20
2.815828
0
VERTEX
8
1
10
3.700134
20
2.822651
0
VERTEX
8
1
10
3.688660
20
2.829344
0
VERTEX
8
1
10
3.664703
20
2.835930
42
0.030477
0
SEQEND
0
POLYLINE
8
1
66
1
70
1
0
VERTEX
8
1
10
3.070663
20
3.821566
0
VERTEX
8
1
10
3.062103
20
3.823185
0
VERTEX
8
1
10
3.073196
20
3.034494
0
VERTEX
8
1
10
3.074692
20
3.032335
0
VERTEX
8
1
10
3.121567
20
3.031450
0
VERTEX
8
1
10
3.436630
20
4.430767
0
VERTEX
8
1
10
3.437134
20
4.434210
0
VERTEX
8
1
10
3.306473
20
4.307262
42
-0.033698
0
VERTEX
8
1
10
3.288177
20
4.041885
42
-0.146828
0
VERTEX
8
1
10
3.206207
20
3.867420
42
-0.233872
0
SEQEND
0
POLYLINE
8
1
66
1
70
1
0
VERTEX
8
1
10
3.075439
20
2.876419
0
VERTEX
8
1
10
3.076096
20
2.829533
0
VERTEX
8
1
10
3.086578
20
2.876087
42
0.284471
0
SEQEND
0
POLYLINE
8
1
66
1
70
1
0
VERTEX
8
1
10
3.108551
20
1.829241
42
-0.029908
0
VERTEX
8
1
10
3.242920
20
1.781683
0
VERTEX
8
1
10
3.274918
20
1.800072
42
-0.078422
0
VERTEX
8
1
10
3.841049
20
1.981585
0
VERTEX
8
1
10
3.906921
20
1.992989
0
VERTEX
8
1
10
3.944748
20
2.002958
42
-0.012818
0
VERTEX
8
1
10
3.938309
20
2.114857
0
VERTEX
8
1
10
3.927719
20
2.124065
42
-0.000481
0
VERTEX
8
1
10
3.150085
20
2.096375
0
VERTEX
8
1
10
3.141403
20
2.093445
0
VERTEX
8
1
10
3.104111
20
1.905363
0
VERTEX
8
1
10
3.105408
20
1.830894
0
SEQEND
0
POLYLINE
8
1
66
1
70
1
0
VERTEX
8
1
10
3.680954
20
1.258829
42
0.030284
0
VERTEX
8
1
10
4.168579
20
1.467909
42
-0.028623
0
VERTEX
8
1
10
3.404282
20
1.572081
42
-0.049027
0
VERTEX
8
1
10
3.268936
20
1.151213
0
VERTEX
8
1
10
3.308243
20
1.154329
42
0.036257
0
SEQEND
0
POLYLINE
8
1
66
1
70
1
0
VERTEX
8
1
10
3.963882
20
1.856291
42
0.015586
0
VERTEX
8
1
10
3.870865
20
1.845551
42
0.208106
0
VERTEX
8
1
10
3.755508
20
1.754635
0
VERTEX
8
1
10
3.751633
20
1.725475
0
VERTEX
8
1
10
3.762985
20
1.696278
0
VERTEX
8
1
10
3.792175
20
1.668312
0
VERTEX
8
1
10
3.841843
20
1.642849
0
VERTEX
8
1
10
3.914597
20
1.621151
0
VERTEX
8
1
10
4.013077
20
1.604488
42
0.034731
0
VERTEX
8
1
10
4.457230
20
1.595060
0
VERTEX
8
1
10
4.457336
20
1.614878
0
VERTEX
8
1
10
4.449875
20
1.868238
0
VERTEX
8
1
10
4.435379
20
1.884020
42
0.011704
0
VERTEX
8
1
10
3.972641
20
1.856649
0
VERTEX
8
1
10
3.971741
20
1.849941
0
VERTEX
8
1
10
3.969559
20
1.856554
0
SEQEND
0
POLYLINE
8
1
66
1
70
1
0
VERTEX
8
1
10
4.373718
20
1.281460
42
0.022418
0
VERTEX
8
1
10
4.414749
20
1.229069
42
-0.013885
0
VERTEX
8
1
10
4.464584
20
1.279785
0
VERTEX
8
1
10
4.466751
20
1.293726
0
VERTEX
8
1
10
4.462814
20
1.428274
0
VERTEX
8
1
10
4.457703
20
1.444016
42
-0.002206
0
VERTEX
8
1
10
4.277039
20
1.458830
0
VERTEX
8
1
10
4.274933
20
1.455156
42
0.022862
0
VERTEX
8
1
10
4.370255
20
1.286570
0
SEQEND
0
POLYLINE
8
1
66
1
70
1
0
VERTEX
8
1
10
4.669037
20
2.657278
0
VERTEX
8
1
10
4.630844
20
2.607391
0
VERTEX
8
1
10
4.633423
20
2.546139
0
VERTEX
8
1
10
4.919327
20
2.550915
42
0.037728
0
VERTEX
8
1
10
4.945038
20
2.661333
0
SEQEND
0
POLYLINE
8
1
66
1
70
1
0
VERTEX
8
1
10
4.873047
20
2.434780
42
-0.001177
0
VERTEX
8
1
10
4.638031
20
2.435991
0
VERTEX
8
1
10
4.646362
20
2.236744
0
VERTEX
8
1
10
4.656799
20
2.227091
0
VERTEX
8
1
10
4.860107
20
2.234344
42
-0.040963
0
VERTEX
8
1
10
4.883484
20
2.425501
0
SEQEND
0
POLYLINE
8
1
66
1
70
1
0
VERTEX
8
1
10
4.840469
20
2.157822
0
VERTEX
8
1
10
4.649933
20
2.150713
0
VERTEX
8
1
10
4.653366
20
2.067972
0
VERTEX
8
1
10
4.659668
20
2.060429
42
-0.004070
0
VERTEX
8
1
10
4.849548
20
2.065817
0
VERTEX
8
1
10
4.861008
20
2.071339
42
-0.011915
0
VERTEX
8
1
10
4.858566
20
2.155861
0
SEQEND
0
POLYLINE
8
1
66
1
70
1
0
VERTEX
8
1
10
4.684586
20
1.415701
42
-0.017440
0
VERTEX
8
1
10
4.728195
20
1.424482
0
VERTEX
8
1
10
4.686661
20
1.427299
42
1.276231
0
SEQEND
0
POLYLINE
8
1
66
1
70
1
0
VERTEX
8
1
10
4.661118
20
1.881254
0
VERTEX
8
1
10
4.672836
20
1.597002
42
-0.001937
0
VERTEX
8
1
10
4.965302
20
1.596169
0
VERTEX
8
1
10
4.978180
20
1.607269
42
0.025747
0
VERTEX
8
1
10
4.969376
20
1.836374
42
0.072617
0
VERTEX
8
1
10
4.948486
20
1.903114
42
0.001123
0
VERTEX
8
1
10
4.671463
20
1.893496
0
SEQEND
0
POLYLINE
8
1
66
1
70
1
0
VERTEX
8
1
10
5.018051
20
1.406206
0
VERTEX
8
1
10
4.884872
20
1.414318
42
-0.099324
0
VERTEX
8
1
10
5.039581
20
1.335217
42
-0.014843
0
SEQEND
0
POLYLINE
8
1
66
1
70
1
0
VERTEX
8
1
10
5.161026
20
1.213726
0
VERTEX
8
1
10
5.183182
20
1.186493
0
VERTEX
8
1
10
5.187027
20
1.193092
42
0.153568
0
VERTEX
8
1
10
5.169678
20
1.223394
0
VERTEX
8
1
10
5.160965
20
1.218466
0
SEQEND
0
POLYLINE
8
1
66
1
70
1
0
VERTEX
8
1
10
5.111420
20
4.231173
42
-0.091770
0
VERTEX
8
1
10
5.222748
20
4.293360
0
VERTEX
8
1
10
5.234024
20
4.322733
42
-0.073274
0
VERTEX
8
1
10
5.459106
20
4.662359
42
0.010764
0
VERTEX
8
1
10
5.533127
20
4.756063
0
VERTEX
8
1
10
4.841080
20
5.794060
0
VERTEX
8
1
10
4.838531
20
5.795582
0
VERTEX
8
1
10
4.438461
20
5.406925
42
-0.009673
0
VERTEX
8
1
10
4.503601
20
5.292681
0
VERTEX
8
1
10
4.505875
20
5.280155
0
VERTEX
8
1
10
4.508881
20
5.247028
0
VERTEX
8
1
10
4.512573
20
5.194271
42
-0.004182
0
VERTEX
8
1
10
4.616791
20
2.940369
0
VERTEX
8
1
10
4.625717
20
2.768059
42
0.013324
0
VERTEX
8
1
10
4.940811
20
2.770304
0
VERTEX
8
1
10
4.956161
20
2.779863
0
VERTEX
8
1
10
4.957138
20
2.807819
0
VERTEX
8
1
10
4.957901
20
2.835783
0
VERTEX
8
1
10
4.958481
20
2.863749
42
-0.093467
0
VERTEX
8
1
10
5.038223
20
3.363258
42
0.036582
0
VERTEX
8
1
10
5.127472
20
3.679190
42
0.225823
0
VERTEX
8
1
10
5.062256
20
3.881472
42
-0.027401
0
VERTEX
8
1
10
4.990723
20
3.982107
0
VERTEX
8
1
10
4.982590
20
4.002604
42
-0.056612
0
VERTEX
8
1
10
5.110168
20
4.042366
42
0.345911
0
VERTEX
8
1
10
5.212082
20
4.163286
42
0.347313
0
VERTEX
8
1
10
5.153549
20
4.211309
42
0.074885
0
VERTEX
8
1
10
5.094009
20
4.210928
0
VERTEX
8
1
10
5.093658
20
4.214523
42
-0.025321
0
SEQEND
0
CIRCLE
8
1
10
11.466490
20
1.154734
40
0.001638
0
POLYLINE
8
1
66
1
70
1
0
VERTEX
8
1
10
11.554306
20
4.025715
42
-0.149083
0
VERTEX
8
1
10
11.516968
20
4.007660
0
VERTEX
8
1
10
11.516342
20
3.988373
42
0.129087
0
VERTEX
8
1
10
11.577591
20
3.852888
0
VERTEX
8
1
10
11.584702
20
3.847649
0
VERTEX
8
1
10
11.561691
20
4.024258
0
VERTEX
8
1
10
11.558167
20
4.029219
0
SEQEND
0
POLYLINE
8
1
66
1
70
1
0
VERTEX
8
1
10
12.842987
20
4.206150
42
0.065799
0
VERTEX
8
1
10
12.784119
20
4.219250
0
VERTEX
8
1
10
12.530960
20
3.031918
0
VERTEX
8
1
10
12.532990
20
2.986742
0
VERTEX
8
1
10
13.295609
20
3.010406
0
VERTEX
8
1
10
13.296402
20
3.052387
42
-0.002999
0
VERTEX
8
1
10
12.956329
20
4.145334
42
0.067817
0
SEQEND
0
POLYLINE
8
1
66
1
70
1
0
VERTEX
8
1
10
12.515305
20
3.793228
42
-0.002222
0
VERTEX
8
1
10
12.217712
20
3.182289
0
VERTEX
8
1
10
12.205643
20
2.983150
0
VERTEX
8
1
10
12.210220
20
2.976793
0
VERTEX
8
1
10
12.356216
20
2.981279
0
VERTEX
8
1
10
12.522842
20
3.807537
0
SEQEND
0
POLYLINE
8
1
66
1
70
1
0
VERTEX
8
1
10
12.154572
20
2.105682
0
VERTEX
8
1
10
12.144958
20
1.933821
0
VERTEX
8
1
10
12.180069
20
2.107893
0
SEQEND
0
POLYLINE
8
1
66
1
70
1
0
VERTEX
8
1
10
12.165726
20
2.301891
0
VERTEX
8
1
10
12.219986
20
2.305851
0
VERTEX
8
1
10
12.245331
20
2.431501
0
VERTEX
8
1
10
12.173035
20
2.429224
0
SEQEND
0
POLYLINE
8
1
66
1
70
1
0
VERTEX
8
1
10
12.191986
20
2.753736
0
VERTEX
8
1
10
12.177948
20
2.514143
0
VERTEX
8
1
10
12.258148
20
2.516537
0
VERTEX
8
1
10
12.262924
20
2.518694
0
VERTEX
8
1
10
12.313522
20
2.769583
0
VERTEX
8
1
10
12.193771
20
2.767807
0
SEQEND
0
POLYLINE
8
1
66
1
70
1
0
VERTEX
8
1
10
12.686203
20
1.936514
42
0.070816
0
VERTEX
8
1
10
12.955902
20
1.958330
42
-0.151686
0
VERTEX
8
1
10
12.855286
20
2.181515
42
-0.011774
0
VERTEX
8
1
10
12.336578
20
2.122080
0
VERTEX
8
1
10
12.276901
20
1.843422
0
VERTEX
8
1
10
12.321106
20
1.866282
42
-0.104529
0
SEQEND
0
POLYLINE
8
1
66
1
70
1
0
VERTEX
8
1
10
12.834030
20
2.366753
0
VERTEX
8
1
10
12.833633
20
2.370361
0
VERTEX
8
1
10
12.991989
20
2.447933
42
0.014214
0
VERTEX
8
1
10
12.419724
20
2.436819
0
VERTEX
8
1
10
12.402023
20
2.428097
0
VERTEX
8
1
10
12.380264
20
2.326313
0
VERTEX
8
1
10
12.388336
20
2.319088
42
0.015543
0
SEQEND
0
POLYLINE
8
1
66
1
70
1
0
VERTEX
8
1
10
13.005310
20
2.532408
42
-0.011192
0
VERTEX
8
1
10
13.184647
20
2.529999
42
0.024488
0
VERTEX
8
1
10
13.398666
20
2.623594
42
-0.045347
0
VERTEX
8
1
10
13.316971
20
2.784040
0
VERTEX
8
1
10
13.313614
20
2.784266
0
VERTEX
8
1
10
12.476929
20
2.771978
0
VERTEX
8
1
10
12.472870
20
2.759672
0
VERTEX
8
1
10
12.422562
20
2.524157
42
0.003000
0
VERTEX
8
1
10
12.914734
20
2.531603
0
SEQEND
0
ENDSEC
0
EOF
