0
SECTION
2
HEADER
9
$EXTMIN
10
1.341530
20
0.219142
9
$EXTMAX
10
13.291296
20
20.038712
0
ENDSEC
0
SECTION
2
TABLES
0
TABLE
2
LTYPE
70
1
0
LTYPE
2
0
70
0
3
Solid Line
72
65
73
0
40
0.0
0
ENDTAB
0
TABLE
2
LAYER
70
1
0
LAYER
2
1
70
0
62
7
6
0
0
ENDTAB
0
ENDSEC
0
SECTION
2
BLOCKS
0
ENDSEC
0
SECTION
2
ENTITIES
0
POLYLINE
8
1
66
1
70
1
0
VERTEX
8
1
10
13.080132
20
12.139481
0
VERTEX
8
1
10
13.059176
20
12.115017
42
0.141873
0
VERTEX
8
1
10
12.928787
20
11.836117
0
VERTEX
8
1
10
12.923042
20
11.800720
0
VERTEX
8
1
10
12.914818
20
11.767456
42
-0.190869
0
VERTEX
8
1
10
12.759280
20
11.525945
42
-0.046260
0
VERTEX
8
1
10
12.551872
20
11.391617
42
-0.047644
0
VERTEX
8
1
10
12.335558
20
11.279180
42
0.022082
0
VERTEX
8
1
10
12.094664
20
11.164417
42
0.158170
0
VERTEX
8
1
10
11.970573
20
11.008789
42
-0.277837
0
VERTEX
8
1
10
11.781944
20
10.857361
42
-0.137957
0
VERTEX
8
1
10
11.281497
20
10.934286
42
0.109893
0
VERTEX
8
1
10
11.070473
20
10.969925
42
-0.070759
0
VERTEX
8
1
10
10.867855
20
10.955071
42
-0.234147
0
VERTEX
8
1
10
10.796898
20
11.013000
0
VERTEX
8
1
10
10.775368
20
11.038116
42
-0.107261
0
VERTEX
8
1
10
10.317101
20
11.195587
0
VERTEX
8
1
10
10.275230
20
11.218613
0
VERTEX
8
1
10
10.235909
20
11.238251
42
-0.095212
0
VERTEX
8
1
10
10.001259
20
11.231247
42
0.221145
0
VERTEX
8
1
10
9.943659
20
11.325255
42
0.123071
0
VERTEX
8
1
10
9.721413
20
11.435638
0
VERTEX
8
1
10
9.708946
20
11.435043
0
VERTEX
8
1
10
9.588341
20
11.388611
0
VERTEX
8
1
10
9.574150
20
11.372620
42
0.015921
0
VERTEX
8
1
10
9.460689
20
11.177007
42
-0.121344
0
VERTEX
8
1
10
9.376137
20
11.098129
42
-0.240913
0
VERTEX
8
1
10
9.351173
20
11.144989
42
-0.069771
0
VERTEX
8
1
10
9.367180
20
11.265381
0
VERTEX
8
1
10
9.363396
20
11.270569
42
0.131951
0
VERTEX
8
1
10
9.281883
20
11.269318
42
-0.100564
0
VERTEX
8
1
10
9.062172
20
11.033432
42
-0.086127
0
VERTEX
8
1
10
9.035316
20
10.982117
0
VERTEX
8
1
10
9.031960
20
10.988815
42
-0.083012
0
VERTEX
8
1
10
9.038277
20
11.071899
0
VERTEX
8
1
10
9.056633
20
11.150391
42
0.156727
0
VERTEX
8
1
10
9.050865
20
11.246399
42
0.082109
0
VERTEX
8
1
10
8.941826
20
11.221130
42
-0.093659
0
VERTEX
8
1
10
8.893211
20
11.145538
42
-0.075221
0
VERTEX
8
1
10
8.832752
20
11.182545
42
-0.284572
0
VERTEX
8
1
10
8.831367
20
11.211395
42
-0.040145
0
VERTEX
8
1
10
8.920206
20
11.278639
0
VERTEX
8
1
10
8.928981
20
11.288143
42
0.257455
0
VERTEX
8
1
10
8.941701
20
11.348805
42
-0.152160
0
VERTEX
8
1
10
8.961648
20
11.404117
42
0.491562
0
VERTEX
8
1
10
8.936333
20
11.443526
0
VERTEX
8
1
10
8.917824
20
11.447586
42
-0.251011
0
VERTEX
8
1
10
8.789593
20
11.524160
0
VERTEX
8
1
10
8.776994
20
11.541167
0
VERTEX
8
1
10
8.764549
20
11.558289
42
0.000366
0
VERTEX
8
1
10
8.696633
20
11.591813
0
VERTEX
8
1
10
8.686501
20
11.600540
42
-0.004899
0
VERTEX
8
1
10
8.581903
20
11.753830
42
0.156619
0
VERTEX
8
1
10
8.609154
20
11.869765
42
0.046285
0
VERTEX
8
1
10
8.595734
20
12.056829
42
-0.058812
0
VERTEX
8
1
10
8.595741
20
12.267380
42
0.420698
0
VERTEX
8
1
10
8.665230
20
12.285095
42
0.116470
0
VERTEX
8
1
10
8.729994
20
12.477651
42
0.422513
0
VERTEX
8
1
10
8.689732
20
12.502692
42
-0.291434
0
VERTEX
8
1
10
8.616673
20
12.546777
42
-0.382175
0
VERTEX
8
1
10
8.645103
20
12.604966
42
-0.102332
0
VERTEX
8
1
10
8.777159
20
12.660491
42
0.121816
0
VERTEX
8
1
10
8.925299
20
12.747565
42
0.403132
0
VERTEX
8
1
10
8.917107
20
12.793549
0
VERTEX
8
1
10
8.863609
20
12.837006
42
0.173048
0
VERTEX
8
1
10
8.819069
20
12.850494
0
VERTEX
8
1
10
8.581413
20
12.851120
42
-0.408630
0
VERTEX
8
1
10
8.590797
20
12.930634
42
0.006799
0
VERTEX
8
1
10
8.709220
20
13.022882
42
0.384351
0
VERTEX
8
1
10
8.701057
20
13.066208
42
0.063052
0
VERTEX
8
1
10
8.568504
20
13.169815
42
0.013282
0
VERTEX
8
1
10
8.554407
20
13.602804
0
VERTEX
8
1
10
8.548098
20
13.650764
0
VERTEX
8
1
10
8.539925
20
13.698441
0
VERTEX
8
1
10
8.531059
20
13.713715
0
VERTEX
8
1
10
8.520531
20
13.705414
0
VERTEX
8
1
10
8.508324
20
13.670776
42
0.065890
0
VERTEX
8
1
10
8.457863
20
13.198151
42
-0.250006
0
VERTEX
8
1
10
8.425179
20
13.118652
42
0.150657
0
VERTEX
8
1
10
8.324663
20
13.059296
42
0.358717
0
VERTEX
8
1
10
8.337406
20
12.967319
42
0.309042
0
VERTEX
8
1
10
8.397957
20
12.951431
0
VERTEX
8
1
10
8.398018
20
12.947174
42
0.129517
0
VERTEX
8
1
10
8.383252
20
12.796027
42
-0.128305
0
VERTEX
8
1
10
8.370125
20
12.742264
42
0.789858
0
VERTEX
8
1
10
8.385684
20
12.732899
42
0.063008
0
VERTEX
8
1
10
8.413445
20
12.742569
42
-0.072879
0
VERTEX
8
1
10
8.153891
20
12.562814
42
0.128723
0
VERTEX
8
1
10
8.130821
20
12.532303
0
VERTEX
8
1
10
8.133232
20
12.521164
42
0.042173
0
VERTEX
8
1
10
8.199683
20
12.460085
42
-0.160599
0
VERTEX
8
1
10
8.215370
20
12.416718
0
VERTEX
8
1
10
8.219002
20
12.415512
42
-0.094108
0
VERTEX
8
1
10
8.338963
20
12.418594
42
-0.272660
0
VERTEX
8
1
10
8.386131
20
12.365051
42
-0.067532
0
VERTEX
8
1
10
8.361635
20
12.172936
42
-0.310467
0
VERTEX
8
1
10
8.169827
20
12.067207
42
0.310497
0
VERTEX
8
1
10
8.130684
20
12.035370
42
-0.069149
0
VERTEX
8
1
10
8.077870
20
11.869314
42
0.363819
0
VERTEX
8
1
10
8.097450
20
11.840209
0
VERTEX
8
1
10
8.124290
20
11.833038
42
-0.564191
0
VERTEX
8
1
10
8.138452
20
11.811941
42
0.627151
0
VERTEX
8
1
10
8.144296
20
11.811890
0
VERTEX
8
1
10
8.241859
20
11.843521
42
-0.414081
0
VERTEX
8
1
10
8.317534
20
11.821433
42
-0.234217
0
VERTEX
8
1
10
8.338890
20
11.642288
42
-0.431001
0
VERTEX
8
1
10
8.241151
20
11.563065
42
0.183113
0
VERTEX
8
1
10
8.173328
20
11.534835
42
-0.209737
0
VERTEX
8
1
10
8.054085
20
11.514954
0
VERTEX
8
1
10
8.053520
20
11.512421
42
0.027093
0
VERTEX
8
1
10
8.119713
20
11.432037
0
VERTEX
8
1
10
8.112801
20
11.418594
0
VERTEX
8
1
10
8.033195
20
11.300980
42
-0.101344
0
VERTEX
8
1
10
7.896690
20
11.168411
0
VERTEX
8
1
10
7.882988
20
11.167267
42
-0.008269
0
VERTEX
8
1
10
7.922290
20
11.302856
42
0.112793
0
VERTEX
8
1
10
7.924493
20
11.451073
42
0.531618
0
VERTEX
8
1
10
7.783231
20
11.482088
42
0.074527
0
VERTEX
8
1
10
7.674339
20
11.380173
0
VERTEX
8
1
10
7.600670
20
11.293762
0
VERTEX
8
1
10
7.587440
20
11.285812
42
-0.150790
0
VERTEX
8
1
10
7.567343
20
11.407601
42
0.089266
0
VERTEX
8
1
10
7.550529
20
11.524780
0
VERTEX
8
1
10
7.540611
20
11.540131
0
VERTEX
8
1
10
7.500203
20
11.507311
42
-0.000861
0
VERTEX
8
1
10
7.356808
20
11.382831
42
-0.390786
0
VERTEX
8
1
10
7.261434
20
11.394646
42
-0.215293
0
VERTEX
8
1
10
7.255882
20
11.433716
0
VERTEX
8
1
10
7.337135
20
11.455566
42
0.112810
0
VERTEX
8
1
10
7.515223
20
11.570330
42
0.403338
0
VERTEX
8
1
10
7.501735
20
11.619488
42
0.135939
0
VERTEX
8
1
10
7.408348
20
11.669113
42
-0.127293
0
VERTEX
8
1
10
7.285255
20
11.690170
0
VERTEX
8
1
10
7.158440
20
11.726364
42
-0.278509
0
VERTEX
8
1
10
7.098167
20
11.772781
0
VERTEX
8
1
10
7.099556
20
11.781403
42
-0.048401
0
VERTEX
8
1
10
7.171431
20
11.834108
42
0.449930
0
VERTEX
8
1
10
7.163369
20
11.872178
42
-0.105777
0
VERTEX
8
1
10
7.087776
20
11.951797
42
0.118809
0
VERTEX
8
1
10
7.013237
20
12.007080
42
-0.181665
0
VERTEX
8
1
10
6.935785
20
12.152184
42
-0.441034
0
VERTEX
8
1
10
6.957726
20
12.162201
42
-0.020660
0
VERTEX
8
1
10
7.196256
20
12.076030
42
0.174233
0
VERTEX
8
1
10
7.258980
20
12.079773
42
0.091263
0
VERTEX
8
1
10
7.335977
20
12.177669
42
0.435676
0
VERTEX
8
1
10
7.304131
20
12.225952
0
VERTEX
8
1
10
7.214928
20
12.258575
42
-0.152458
0
VERTEX
8
1
10
7.169144
20
12.290391
42
-0.358446
0
VERTEX
8
1
10
7.178200
20
12.313110
42
0.003033
0
VERTEX
8
1
10
7.304530
20
12.385147
42
0.174849
0
VERTEX
8
1
10
7.325996
20
12.423386
0
VERTEX
8
1
10
7.321098
20
12.442322
42
-0.104050
0
VERTEX
8
1
10
7.349554
20
12.503424
42
0.424049
0
VERTEX
8
1
10
7.333565
20
12.534668
42
0.017559
0
VERTEX
8
1
10
7.207260
20
12.559055
42
-0.130755
0
VERTEX
8
1
10
7.126717
20
12.611023
0
VERTEX
8
1
10
7.093910
20
12.648254
42
0.156316
0
VERTEX
8
1
10
7.043767
20
12.669016
42
-0.189009
0
VERTEX
8
1
10
6.937147
20
12.743486
42
0.012902
0
VERTEX
8
1
10
6.839073
20
12.850952
42
0.189173
0
VERTEX
8
1
10
6.875639
20
12.960923
42
0.064153
0
VERTEX
8
1
10
6.857779
20
13.155128
42
-0.079320
0
VERTEX
8
1
10
6.857582
20
13.364655
42
0.363365
0
VERTEX
8
1
10
6.962852
20
13.394974
42
0.122290
0
VERTEX
8
1
10
7.037448
20
13.570947
42
0.375273
0
VERTEX
8
1
10
7.003136
20
13.599854
42
-0.177472
0
VERTEX
8
1
10
6.892843
20
13.631481
42
-0.491479
0
VERTEX
8
1
10
6.905144
20
13.692963
0
VERTEX
8
1
10
6.920998
20
13.702393
42
-0.043673
0
VERTEX
8
1
10
7.158558
20
13.774576
42
0.077712
0
VERTEX
8
1
10
7.285388
20
13.831827
42
0.106219
0
VERTEX
8
1
10
7.307152
20
13.862930
0
VERTEX
8
1
10
7.303978
20
13.876175
42
0.088900
0
VERTEX
8
1
10
7.188834
20
13.944919
0
VERTEX
8
1
10
7.173957
20
13.947295
0
VERTEX
8
1
10
7.158897
20
13.947693
0
VERTEX
8
1
10
6.838646
20
13.948242
42
-0.464682
0
VERTEX
8
1
10
6.837395
20
14.014786
42
-0.117037
0
VERTEX
8
1
10
6.898866
20
14.056055
42
0.014342
0
VERTEX
8
1
10
7.009002
20
14.118252
42
0.481462
0
VERTEX
8
1
10
7.003029
20
14.160020
42
0.050821
0
VERTEX
8
1
10
6.820290
20
14.268448
42
0.036947
0
VERTEX
8
1
10
6.793694
20
14.755600
0
VERTEX
8
1
10
6.784142
20
14.792358
0
VERTEX
8
1
10
6.772545
20
14.810242
0
VERTEX
8
1
10
6.758705
20
14.805069
0
VERTEX
8
1
10
6.742500
20
14.773193
42
0.089269
0
VERTEX
8
1
10
6.672874
20
14.296341
42
-0.286969
0
VERTEX
8
1
10
6.630730
20
14.216614
42
0.175109
0
VERTEX
8
1
10
6.485638
20
14.143085
42
0.390588
0
VERTEX
8
1
10
6.502357
20
14.074249
42
0.310586
0
VERTEX
8
1
10
6.589745
20
14.050018
42
-0.412587
0
VERTEX
8
1
10
6.590721
20
14.037537
0
VERTEX
8
1
10
6.572151
20
13.986374
42
0.172860
0
VERTEX
8
1
10
6.571826
20
13.901818
42
-0.187519
0
VERTEX
8
1
10
6.555442
20
13.840805
0
VERTEX
8
1
10
6.555992
20
13.832367
0
VERTEX
8
1
10
6.561989
20
13.828659
42
0.060888
0
VERTEX
8
1
10
6.614723
20
13.839447
42
-0.059995
0
VERTEX
8
1
10
6.273170
20
13.662170
0
VERTEX
8
1
10
6.253380
20
13.651489
42
0.574855
0
VERTEX
8
1
10
6.242171
20
13.611355
42
-0.027059
0
VERTEX
8
1
10
6.332868
20
13.551678
42
-0.057140
0
VERTEX
8
1
10
6.348954
20
13.512594
0
VERTEX
8
1
10
6.352648
20
13.510969
42
-0.109349
0
VERTEX
8
1
10
6.532603
20
13.509887
42
-0.355215
0
VERTEX
8
1
10
6.576085
20
13.435954
42
-0.072776
0
VERTEX
8
1
10
6.545744
20
13.274604
42
-0.209915
0
VERTEX
8
1
10
6.450611
20
13.193418
42
-0.086387
0
VERTEX
8
1
10
6.268105
20
13.161129
42
0.273657
0
VERTEX
8
1
10
6.228691
20
13.118790
42
-0.101892
0
VERTEX
8
1
10
6.166303
20
12.973513
42
0.513566
0
VERTEX
8
1
10
6.187584
20
12.938004
0
VERTEX
8
1
10
6.223717
20
12.930710
0
VERTEX
8
1
10
6.235603
20
12.927002
42
-0.561991
0
VERTEX
8
1
10
6.244659
20
12.908920
42
0.644236
0
VERTEX
8
1
10
6.251427
20
12.908936
0
VERTEX
8
1
10
6.381065
20
12.940308
0
VERTEX
8
1
10
6.395177
20
12.944695
42
-0.368659
0
VERTEX
8
1
10
6.502773
20
12.895533
0
VERTEX
8
1
10
6.511597
20
12.879753
42
-0.224250
0
VERTEX
8
1
10
6.516461
20
12.750527
0
VERTEX
8
1
10
6.510139
20
12.729812
0
VERTEX
8
1
10
6.503730
20
12.709122
42
-0.237328
0
VERTEX
8
1
10
6.384420
20
12.660187
42
0.131665
0
VERTEX
8
1
10
6.278792
20
12.627971
42
-0.154036
0
VERTEX
8
1
10
6.131737
20
12.612320
0
VERTEX
8
1
10
6.130394
20
12.610107
42
0.029447
0
VERTEX
8
1
10
6.278481
20
12.480816
42
-0.169655
0
VERTEX
8
1
10
6.299065
20
12.430862
0
VERTEX
8
1
10
6.302071
20
12.424026
42
0.194673
0
VERTEX
8
1
10
6.348213
20
12.418991
42
0.013519
0
VERTEX
8
1
10
6.150842
20
12.310623
42
0.090495
0
VERTEX
8
1
10
6.026878
20
12.175995
42
0.068342
0
VERTEX
8
1
10
5.963127
20
12.086029
0
VERTEX
8
1
10
5.954597
20
12.076218
42
-0.011297
0
VERTEX
8
1
10
5.822395
20
12.006836
42
0.738012
0
VERTEX
8
1
10
5.820030
20
11.984863
42
0.089982
0
VERTEX
8
1
10
6.088524
20
11.983078
42
-0.032961
0
VERTEX
8
1
10
6.221146
20
12.025495
42
-0.232715
0
VERTEX
8
1
10
6.332849
20
11.983096
42
-0.336861
0
VERTEX
8
1
10
6.328199
20
11.950265
42
-0.196905
0
VERTEX
8
1
10
6.123261
20
11.816429
42
0.106314
0
VERTEX
8
1
10
6.026497
20
11.771530
42
0.073695
0
VERTEX
8
1
10
5.794039
20
11.602996
42
-0.090361
0
VERTEX
8
1
10
5.743645
20
11.577682
0
VERTEX
8
1
10
5.737480
20
11.582016
42
0.014533
0
VERTEX
8
1
10
5.694389
20
11.781982
0
VERTEX
8
1
10
5.683983
20
11.804810
42
0.491910
0
VERTEX
8
1
10
5.610374
20
11.814377
42
0.101676
0
VERTEX
8
1
10
5.448560
20
11.597687
42
-0.102030
0
VERTEX
8
1
10
5.307091
20
11.437439
0
VERTEX
8
1
10
5.305191
20
11.464432
42
0.027834
0
VERTEX
8
1
10
5.308815
20
11.735580
42
0.171199
0
VERTEX
8
1
10
5.261955
20
11.841736
42
0.099211
0
VERTEX
8
1
10
5.223427
20
11.807175
42
0.001072
0
VERTEX
8
1
10
5.116096
20
11.639142
0
VERTEX
8
1
10
5.104965
20
11.642975
42
-0.017334
0
VERTEX
8
1
10
4.986816
20
11.735413
0
VERTEX
8
1
10
4.984970
20
11.755920
0
VERTEX
8
1
10
4.983925
20
11.756378
0
VERTEX
8
1
10
4.966263
20
11.752777
42
-0.104858
0
VERTEX
8
1
10
4.929871
20
11.794966
42
-0.520675
0
VERTEX
8
1
10
4.950562
20
11.810150
42
0.188394
0
VERTEX
8
1
10
5.120749
20
11.844171
42
0.446711
0
VERTEX
8
1
10
5.114723
20
11.912079
42
0.051723
0
VERTEX
8
1
10
4.993646
20
11.977509
42
-0.197350
0
VERTEX
8
1
10
4.793396
20
12.228485
0
VERTEX
8
1
10
4.774689
20
12.287674
0
VERTEX
8
1
10
4.773750
20
12.336700
42
-0.227015
0
VERTEX
8
1
10
4.950468
20
12.252135
42
-0.038906
0
VERTEX
8
1
10
5.009041
20
12.179077
42
0.682737
0
VERTEX
8
1
10
5.036828
20
12.183718
42
-0.029701
0
VERTEX
8
1
10
5.078508
20
12.232120
42
-0.361203
0
VERTEX
8
1
10
5.108409
20
12.226517
0
VERTEX
8
1
10
5.120543
20
12.215775
42
0.108868
0
VERTEX
8
1
10
5.395523
20
11.953796
0
VERTEX
8
1
10
5.416786
20
11.947037
0
VERTEX
8
1
10
5.432083
20
11.948654
0
VERTEX
8
1
10
5.440109
20
11.959991
0
VERTEX
8
1
10
5.439569
20
11.982300
42
0.016142
0
VERTEX
8
1
10
5.317849
20
12.295212
42
0.122949
0
VERTEX
8
1
10
5.450406
20
12.384443
42
0.406875
0
VERTEX
8
1
10
5.436928
20
12.452682
0
VERTEX
8
1
10
5.408386
20
12.472046
42
-0.019648
0
VERTEX
8
1
10
5.012611
20
12.697815
42
0.101036
0
VERTEX
8
1
10
5.156952
20
12.744247
42
0.396339
0
VERTEX
8
1
10
5.172028
20
12.789337
0
VERTEX
8
1
10
5.155685
20
12.808014
0
VERTEX
8
1
10
5.125192
20
12.828598
42
-0.041996
0
VERTEX
8
1
10
4.723358
20
13.076955
42
-0.215625
0
VERTEX
8
1
10
4.681590
20
13.177853
42
-0.078904
0
VERTEX
8
1
10
4.693367
20
13.364746
42
0.133454
0
VERTEX
8
1
10
4.857803
20
13.417267
42
0.420992
0
VERTEX
8
1
10
4.858963
20
13.462097
42
-0.030282
0
VERTEX
8
1
10
4.747093
20
13.573403
42
-0.114762
0
VERTEX
8
1
10
4.713767
20
13.645032
42
-0.268946
0
VERTEX
8
1
10
4.734428
20
13.677979
42
-0.116690
0
VERTEX
8
1
10
4.942856
20
13.697998
42
0.065645
0
VERTEX
8
1
10
5.022827
20
13.558105
42
0.547544
0
VERTEX
8
1
10
5.049278
20
13.555862
42
-0.009495
0
VERTEX
8
1
10
5.065477
20
13.624808
42
-0.301695
0
VERTEX
8
1
10
5.097992
20
13.642914
42
0.051311
0
VERTEX
8
1
10
5.290156
20
13.605037
42
0.096470
0
VERTEX
8
1
10
5.338356
20
13.616562
0
VERTEX
8
1
10
5.346870
20
13.627533
42
0.203640
0
VERTEX
8
1
10
5.322762
20
13.691727
42
0.068429
0
VERTEX
8
1
10
4.984856
20
13.989471
0
VERTEX
8
1
10
5.045731
20
14.028473
42
0.103713
0
VERTEX
8
1
10
5.105960
20
14.091311
42
0.404951
0
VERTEX
8
1
10
5.084152
20
14.140579
0
VERTEX
8
1
10
5.054939
20
14.152451
42
-0.130989
0
VERTEX
8
1
10
4.748848
20
14.308716
42
0.119952
0
VERTEX
8
1
10
4.857346
20
14.352530
42
0.399119
0
VERTEX
8
1
10
4.855026
20
14.409698
42
-0.053941
0
VERTEX
8
1
10
4.768079
20
14.514583
42
-0.109527
0
VERTEX
8
1
10
4.748512
20
14.592499
0
VERTEX
8
1
10
4.746185
20
14.655518
42
-0.249840
0
VERTEX
8
1
10
4.861130
20
14.835587
42
0.363077
0
VERTEX
8
1
10
4.871656
20
14.881202
0
VERTEX
8
1
10
4.867607
20
14.893396
42
0.027945
0
VERTEX
8
1
10
4.805758
20
14.979233
42
-0.151793
0
VERTEX
8
1
10
4.762917
20
15.136810
42
0.027841
0
VERTEX
8
1
10
4.748459
20
15.540527
0
VERTEX
8
1
10
4.743355
20
15.560242
0
VERTEX
8
1
10
4.737122
20
15.561218
0
VERTEX
8
1
10
4.729668
20
15.539566
42
-0.004312
0
VERTEX
8
1
10
4.651192
20
15.059174
0
VERTEX
8
1
10
4.640576
20
15.057154
42
0.286349
0
VERTEX
8
1
10
4.574117
20
15.008096
42
0.199892
0
VERTEX
8
1
10
4.579865
20
14.965820
0
VERTEX
8
1
10
4.623405
20
14.878571
42
0.072020
0
VERTEX
8
1
10
4.524133
20
14.727724
42
0.072552
0
VERTEX
8
1
10
4.511414
20
14.663971
0
VERTEX
8
1
10
4.526184
20
14.573013
42
0.089395
0
VERTEX
8
1
10
4.337250
20
14.506271
42
0.654695
0
VERTEX
8
1
10
4.338295
20
14.456649
0
VERTEX
8
1
10
4.403610
20
14.404190
42
-0.378673
0
VERTEX
8
1
10
4.404968
20
14.359146
0
VERTEX
8
1
10
4.392601
20
14.343399
42
-0.095562
0
VERTEX
8
1
10
4.250275
20
14.259201
0
VERTEX
8
1
10
4.119644
20
14.207291
42
0.140316
0
VERTEX
8
1
10
4.081964
20
14.126434
42
0.339367
0
VERTEX
8
1
10
4.124420
20
14.076263
0
VERTEX
8
1
10
4.150566
20
14.070953
0
VERTEX
8
1
10
4.140060
20
14.051147
42
0.011086
0
VERTEX
8
1
10
3.932626
20
13.765962
0
VERTEX
8
1
10
3.911942
20
13.728806
0
VERTEX
8
1
10
3.900505
20
13.698669
0
VERTEX
8
1
10
3.900673
20
13.677597
0
VERTEX
8
1
10
3.914772
20
13.667633
42
0.090584
0
VERTEX
8
1
10
4.099617
20
13.728989
42
-0.304596
0
VERTEX
8
1
10
4.107958
20
13.680593
42
0.143420
0
VERTEX
8
1
10
4.111153
20
13.633133
0
VERTEX
8
1
10
4.118965
20
13.627350
42
0.138903
0
VERTEX
8
1
10
4.202484
20
13.627808
0
VERTEX
8
1
10
4.359512
20
13.656357
0
VERTEX
8
1
10
4.365913
20
13.650787
42
-0.637839
0
VERTEX
8
1
10
4.363243
20
13.588866
42
0.032352
0
VERTEX
8
1
10
4.246526
20
13.538014
42
0.420771
0
VERTEX
8
1
10
4.243797
20
13.481934
0
VERTEX
8
1
10
4.303955
20
13.406342
42
0.081690
0
VERTEX
8
1
10
4.108421
20
13.225601
0
VERTEX
8
1
10
4.099327
20
13.204727
0
VERTEX
8
1
10
4.099548
20
13.187515
0
VERTEX
8
1
10
4.110931
20
13.174973
42
0.016550
0
VERTEX
8
1
10
4.303963
20
13.128387
42
-0.212753
0
VERTEX
8
1
10
4.269166
20
13.020706
42
0.023010
0
VERTEX
8
1
10
4.035414
20
12.934465
42
0.040274
0
VERTEX
8
1
10
3.954933
20
12.885162
42
0.359836
0
VERTEX
8
1
10
3.940869
20
12.842342
42
-0.012756
0
VERTEX
8
1
10
3.964551
20
12.796757
0
VERTEX
8
1
10
3.964803
20
12.788947
0
VERTEX
8
1
10
3.963372
20
12.781265
42
-0.092731
0
VERTEX
8
1
10
3.886261
20
12.753220
0
VERTEX
8
1
10
3.862923
20
12.741547
42
0.093806
0
VERTEX
8
1
10
3.616692
20
12.497665
0
VERTEX
8
1
10
3.608253
20
12.475143
0
VERTEX
8
1
10
3.611404
20
12.460342
0
VERTEX
8
1
10
3.628112
20
12.455032
42
-0.008432
0
VERTEX
8
1
10
3.784513
20
12.492439
0
VERTEX
8
1
10
3.802042
20
12.492470
0
VERTEX
8
1
10
3.819412
20
12.490112
42
-0.456727
0
VERTEX
8
1
10
3.816032
20
12.460938
42
0.177203
0
VERTEX
8
1
10
3.779808
20
12.404373
42
0.528705
0
VERTEX
8
1
10
3.828964
20
12.377914
0
VERTEX
8
1
10
3.942757
20
12.406311
42
0.147790
0
VERTEX
8
1
10
3.903260
20
12.328815
42
0.408064
0
VERTEX
8
1
10
3.944000
20
12.295227
42
0.060273
0
VERTEX
8
1
10
4.219963
20
12.336349
0
VERTEX
8
1
10
4.067360
20
12.211578
42
0.077127
0
VERTEX
8
1
10
3.953918
20
12.111862
42
0.593060
0
VERTEX
8
1
10
3.960754
20
12.071045
0
VERTEX
8
1
10
3.995628
20
12.054626
42
-0.610833
0
VERTEX
8
1
10
3.994339
20
12.038437
0
VERTEX
8
1
10
3.982445
20
12.028534
42
0.036550
0
VERTEX
8
1
10
3.680519
20
11.786621
42
0.127539
0
VERTEX
8
1
10
3.633018
20
11.714828
0
VERTEX
8
1
10
3.639717
20
11.701691
0
VERTEX
8
1
10
3.661087
20
11.696014
42
0.018772
0
VERTEX
8
1
10
3.857185
20
11.725510
42
-0.028857
0
VERTEX
8
1
10
3.707370
20
11.544229
42
-0.233814
0
VERTEX
8
1
10
3.502693
20
11.490494
0
VERTEX
8
1
10
3.549545
20
11.600983
42
0.111214
0
VERTEX
8
1
10
3.644956
20
12.155348
42
0.089951
0
VERTEX
8
1
10
3.587296
20
12.347610
0
VERTEX
8
1
10
3.570038
20
12.350922
0
VERTEX
8
1
10
3.543320
20
12.344330
42
0.051640
0
VERTEX
8
1
10
3.385953
20
12.305963
0
VERTEX
8
1
10
3.355141
20
12.292267
0
VERTEX
8
1
10
3.346252
20
12.290924
42
-0.028385
0
VERTEX
8
1
10
3.215622
20
12.325424
0
VERTEX
8
1
10
3.220490
20
12.359451
42
0.184021
0
VERTEX
8
1
10
3.195564
20
12.522964
42
-0.234793
0
VERTEX
8
1
10
3.165147
20
12.805143
42
0.125135
0
VERTEX
8
1
10
3.173154
20
13.073071
42
0.095011
0
VERTEX
8
1
10
3.097377
20
13.226820
42
-0.233273
0
VERTEX
8
1
10
3.095772
20
13.365860
0
VERTEX
8
1
10
3.109184
20
13.400055
42
0.098772
0
VERTEX
8
1
10
3.146667
20
13.518326
0
VERTEX
8
1
10
3.140396
20
13.540451
0
VERTEX
8
1
10
3.123215
20
13.558472
0
VERTEX
8
1
10
3.092804
20
13.571793
0
VERTEX
8
1
10
3.079826
20
13.599884
42
0.199137
0
VERTEX
8
1
10
3.102778
20
13.837008
42
-0.007671
0
VERTEX
8
1
10
3.056963
20
14.023080
42
-0.174648
0
VERTEX
8
1
10
3.116242
20
14.285935
42
0.020566
0
VERTEX
8
1
10
3.195592
20
14.442767
42
0.147366
0
VERTEX
8
1
10
3.198769
20
14.552185
42
-0.189547
0
VERTEX
8
1
10
3.170403
20
14.701878
0
VERTEX
8
1
10
3.175494
20
14.732685
0
VERTEX
8
1
10
3.182983
20
14.763000
42
0.250483
0
VERTEX
8
1
10
3.169769
20
14.837204
0
VERTEX
8
1
10
3.129311
20
14.871323
0
VERTEX
8
1
10
3.137680
20
14.918442
42
-0.047601
0
VERTEX
8
1
10
3.234406
20
15.111465
0
VERTEX
8
1
10
3.259964
20
15.164246
42
0.181795
0
VERTEX
8
1
10
3.281052
20
15.413605
0
VERTEX
8
1
10
3.251595
20
15.488907
0
VERTEX
8
1
10
3.202492
20
15.570694
0
VERTEX
8
1
10
3.132019
20
15.658340
42
0.018394
0
VERTEX
8
1
10
2.833731
20
15.952736
42
-0.107209
0
VERTEX
8
1
10
2.587685
20
16.336548
0
VERTEX
8
1
10
2.687378
20
16.352402
42
0.045769
0
VERTEX
8
1
10
2.931870
20
16.397583
0
VERTEX
8
1
10
2.985977
20
16.418259
0
VERTEX
8
1
10
3.025482
20
16.443237
0
VERTEX
8
1
10
3.049812
20
16.473404
0
VERTEX
8
1
10
3.058449
20
16.509628
0
VERTEX
8
1
10
3.050812
20
16.552826
0
VERTEX
8
1
10
3.026352
20
16.603851
0
VERTEX
8
1
10
2.984528
20
16.663589
42
0.068824
0
VERTEX
8
1
10
2.611946
20
17.005173
0
VERTEX
8
1
10
2.548965
20
17.051758
42
-0.042775
0
VERTEX
8
1
10
2.192337
20
17.340973
0
VERTEX
8
1
10
2.148628
20
17.390717
0
VERTEX
8
1
10
2.112755
20
17.440796
0
VERTEX
8
1
10
2.125305
20
17.459167
0
VERTEX
8
1
10
2.369072
20
17.544479
0
VERTEX
8
1
10
2.419647
20
17.560898
0
VERTEX
8
1
10
2.431557
20
17.604172
0
VERTEX
8
1
10
2.425636
20
17.663925
42
0.152200
0
VERTEX
8
1
10
2.260008
20
17.929226
42
0.079328
0
VERTEX
8
1
10
1.855034
20
18.213501
42
-0.043739
0
VERTEX
8
1
10
1.634628
20
18.308578
0
VERTEX
8
1
10
1.609619
20
18.328781
42
-0.458468
0
VERTEX
8
1
10
1.613654
20
18.447781
42
-0.229035
0
VERTEX
8
1
10
1.764481
20
18.505112
42
0.051872
0
VERTEX
8
1
10
1.966727
20
18.508036
42
0.141635
0
VERTEX
8
1
10
2.073830
20
18.565720
0
VERTEX
8
1
10
2.085983
20
18.604492
42
0.163760
0
VERTEX
8
1
10
1.878247
20
18.812946
42
0.056708
0
VERTEX
8
1
10
1.569542
20
18.947220
0
VERTEX
8
1
10
1.426781
20
19.267944
42
-0.174283
0
VERTEX
8
1
10
1.369305
20
19.431240
42
0.031853
0
VERTEX
8
1
10
1.341530
20
19.574829
0
VERTEX
8
1
10
1.368935
20
19.575974
42
-0.174379
0
VERTEX
8
1
10
1.509373
20
19.496845
42
0.064776
0
VERTEX
8
1
10
1.680116
20
19.323093
42
0.218986
0
VERTEX
8
1
10
1.780244
20
19.305061
42
0.353041
0
VERTEX
8
1
10
1.833577
20
19.400398
42
-0.119485
0
VERTEX
8
1
10
1.852150
20
19.463959
42
-0.341283
0
VERTEX
8
1
10
1.967644
20
19.476334
42
-0.074260
0
VERTEX
8
1
10
2.141817
20
19.322578
42
0.172761
0
VERTEX
8
1
10
2.307418
20
19.241497
42
0.332365
0
VERTEX
8
1
10
2.357079
20
19.287949
42
0.004542
0
VERTEX
8
1
10
2.389580
20
19.466415
0
VERTEX
8
1
10
2.410164
20
19.474518
42
-0.160601
0
VERTEX
8
1
10
2.555412
20
19.373856
0
VERTEX
8
1
10
2.623039
20
19.292023
42
0.199812
0
VERTEX
8
1
10
2.971634
20
19.112747
0
VERTEX
8
1
10
2.989708
20
19.119827
42
0.029959
0
VERTEX
8
1
10
3.017370
20
19.224983
42
-0.211551
0
VERTEX
8
1
10
3.075562
20
19.280960
0
VERTEX
8
1
10
3.100655
20
19.264297
0
VERTEX
8
1
10
3.135696
20
19.215347
0
VERTEX
8
1
10
3.172630
20
19.170090
42
0.180142
0
VERTEX
8
1
10
3.471154
20
18.991917
42
0.180850
0
VERTEX
8
1
10
3.836151
20
19.075562
0
VERTEX
8
1
10
3.856880
20
19.085922
42
-0.370356
0
VERTEX
8
1
10
4.057312
20
19.053879
42
0.012081
0
VERTEX
8
1
10
4.169314
20
18.914501
42
0.231358
0
VERTEX
8
1
10
4.287270
20
18.882065
0
VERTEX
8
1
10
4.293892
20
19.024567
0
VERTEX
8
1
10
4.295494
20
19.036087
42
-0.239868
0
VERTEX
8
1
10
4.421577
20
18.997543
42
-0.048529
0
VERTEX
8
1
10
4.556998
20
18.825546
42
0.242829
0
VERTEX
8
1
10
4.855177
20
18.685141
42
0.173213
0
VERTEX
8
1
10
4.947243
20
18.733261
42
0.179861
0
VERTEX
8
1
10
4.968144
20
18.875385
42
-0.113150
0
VERTEX
8
1
10
4.986548
20
18.979218
0
VERTEX
8
1
10
4.998024
20
18.973206
42
0.059470
0
VERTEX
8
1
10
5.098671
20
18.892258
42
-0.125186
0
VERTEX
8
1
10
5.247933
20
18.712406
42
0.300411
0
VERTEX
8
1
10
5.484444
20
18.609940
42
0.133741
0
VERTEX
8
1
10
5.675194
20
18.738998
0
VERTEX
8
1
10
5.693916
20
18.732254
0
VERTEX
8
1
10
5.707649
20
18.693497
42
0.276523
0
VERTEX
8
1
10
5.884790
20
18.538912
42
0.109573
0
VERTEX
8
1
10
6.044884
20
18.537033
0
VERTEX
8
1
10
6.047813
20
18.549545
42
0.069976
0
VERTEX
8
1
10
6.076332
20
18.635132
0
VERTEX
8
1
10
6.085991
20
18.642822
42
-0.160348
0
VERTEX
8
1
10
6.181770
20
18.600632
42
-0.032852
0
VERTEX
8
1
10
6.355916
20
18.414692
42
0.111531
0
VERTEX
8
1
10
6.477913
20
18.334396
0
VERTEX
8
1
10
6.507683
20
18.333725
42
-0.202571
0
VERTEX
8
1
10
6.553607
20
18.437071
42
0.132621
0
VERTEX
8
1
10
6.608589
20
18.549423
42
-0.299982
0
VERTEX
8
1
10
6.713768
20
18.493561
42
0.509070
0
VERTEX
8
1
10
6.886726
20
18.464895
42
-0.199086
0
VERTEX
8
1
10
6.979073
20
18.484360
42
-0.037013
0
VERTEX
8
1
10
7.189323
20
18.401886
0
VERTEX
8
1
10
7.221779
20
18.391144
42
0.446731
0
VERTEX
8
1
10
7.350413
20
18.452322
42
0.081552
0
VERTEX
8
1
10
7.375359
20
18.539200
42
-0.574237
0
VERTEX
8
1
10
7.410715
20
18.551956
0
VERTEX
8
1
10
7.417091
20
18.546814
0
VERTEX
8
1
10
7.425072
20
18.511093
0
VERTEX
8
1
10
7.434974
20
18.508820
42
-0.009008
0
VERTEX
8
1
10
7.596474
20
18.510193
42
0.308323
0
VERTEX
8
1
10
7.675697
20
18.525681
42
0.087404
0
VERTEX
8
1
10
7.781837
20
18.667603
42
-0.228241
0
VERTEX
8
1
10
7.734190
20
18.774775
42
-0.067325
0
VERTEX
8
1
10
7.736885
20
18.885193
0
VERTEX
8
1
10
7.743706
20
18.897827
42
-0.261112
0
VERTEX
8
1
10
7.901619
20
18.842407
0
VERTEX
8
1
10
7.922783
20
18.843735
42
0.024182
0
VERTEX
8
1
10
8.132587
20
19.004883
42
-0.036007
0
VERTEX
8
1
10
8.496870
20
19.263491
42
-0.047766
0
VERTEX
8
1
10
8.643776
20
19.325348
0
VERTEX
8
1
10
8.762428
20
19.363541
42
0.112661
0
VERTEX
8
1
10
8.967890
20
19.483624
42
-0.033488
0
VERTEX
8
1
10
9.149467
20
19.615997
42
0.117990
0
VERTEX
8
1
10
9.171430
20
19.568285
42
-0.009853
0
VERTEX
8
1
10
9.208763
20
19.507324
42
0.026229
0
VERTEX
8
1
10
9.436633
20
19.702656
0
VERTEX
8
1
10
9.491221
20
19.748453
42
-0.094163
0
VERTEX
8
1
10
9.888851
20
19.975113
42
-0.054024
0
VERTEX
8
1
10
10.141762
20
20.037491
0
VERTEX
8
1
10
10.186211
20
20.038712
0
VERTEX
8
1
10
10.225212
20
20.034393
0
VERTEX
8
1
10
10.247261
20
20.005875
0
VERTEX
8
1
10
10.260323
20
19.967728
42
-0.102016
0
VERTEX
8
1
10
10.258249
20
19.657421
42
0.070942
0
VERTEX
8
1
10
10.256863
20
19.317944
42
-0.057145
0
VERTEX
8
1
10
10.260183
20
19.008017
42
-0.168009
0
VERTEX
8
1
10
10.152854
20
18.824837
42
0.150886
0
VERTEX
8
1
10
10.066154
20
18.639297
42
-0.135805
0
VERTEX
8
1
10
9.926491
20
18.330765
42
0.084148
0
VERTEX
8
1
10
9.716789
20
17.976563
42
0.149636
0
VERTEX
8
1
10
9.643700
20
17.524704
42
0.151782
0
VERTEX
8
1
10
9.780087
20
17.368307
42
-0.095512
0
VERTEX
8
1
10
9.895186
20
17.238823
42
0.057954
0
VERTEX
8
1
10
10.151360
20
16.956757
42
-0.033362
0
VERTEX
8
1
10
10.513544
20
16.605675
42
-0.095055
0
VERTEX
8
1
10
10.667627
20
16.309048
42
0.003048
0
VERTEX
8
1
10
10.768166
20
16.044065
42
0.155810
0
VERTEX
8
1
10
11.026314
20
15.725098
0
VERTEX
8
1
10
11.169075
20
15.625595
42
-0.107257
0
VERTEX
8
1
10
11.365380
20
15.424853
42
-0.169818
0
VERTEX
8
1
10
11.405556
20
15.186783
42
0.007621
0
VERTEX
8
1
10
11.370964
20
14.971298
42
0.107849
0
VERTEX
8
1
10
11.439949
20
14.577362
42
0.061891
0
VERTEX
8
1
10
11.695150
20
14.192735
42
-0.000006
0
VERTEX
8
1
10
11.859802
20
13.976001
42
0.104516
0
VERTEX
8
1
10
11.948448
20
13.915482
0
VERTEX
8
1
10
12.091301
20
13.823776
0
VERTEX
8
1
10
12.108345
20
13.781662
42
0.102018
0
VERTEX
8
1
10
12.286886
20
13.578533
42
-0.068727
0
VERTEX
8
1
10
12.522195
20
13.303141
42
0.051559
0
VERTEX
8
1
10
12.748320
20
13.041184
42
-0.030719
0
VERTEX
8
1
10
13.041162
20
12.716429
42
-0.129475
0
VERTEX
8
1
10
13.179427
20
12.365032
42
-0.171640
0
VERTEX
8
1
10
13.130657
20
12.205192
42
-0.046851
0
SEQEND
0
POLYLINE
8
1
66
1
70
1
0
VERTEX
8
1
10
7.651634
20
16.491333
42
-0.033309
0
VERTEX
8
1
10
7.840141
20
16.484940
0
VERTEX
8
1
10
7.841545
20
16.502975
42
0.036795
0
VERTEX
8
1
10
7.503083
20
17.061432
42
0.097771
0
VERTEX
8
1
10
7.227196
20
17.301327
42
0.235169
0
VERTEX
8
1
10
6.865166
20
17.295425
0
VERTEX
8
1
10
6.836388
20
17.308838
42
0.086785
0
VERTEX
8
1
10
6.261937
20
17.954258
42
0.082857
0
VERTEX
8
1
10
6.083214
20
18.038925
0
VERTEX
8
1
10
6.032433
20
18.043518
0
VERTEX
8
1
10
5.985970
20
18.034607
0
VERTEX
8
1
10
5.944633
20
18.010742
0
VERTEX
8
1
10
5.909157
20
17.970535
0
VERTEX
8
1
10
5.880348
20
17.912552
0
VERTEX
8
1
10
5.855614
20
17.844025
42
-0.112028
0
VERTEX
8
1
10
5.529486
20
17.893047
42
-0.007548
0
VERTEX
8
1
10
5.225643
20
17.996801
42
0.121027
0
VERTEX
8
1
10
4.882767
20
18.014954
0
VERTEX
8
1
10
4.839439
20
17.978149
42
0.107497
0
VERTEX
8
1
10
4.718720
20
17.481112
42
0.045154
0
VERTEX
8
1
10
4.730996
20
16.974060
42
-0.008630
0
VERTEX
8
1
10
4.784691
20
16.384201
0
VERTEX
8
1
10
4.779060
20
16.378113
42
0.070828
0
VERTEX
8
1
10
4.696332
20
16.418346
42
-0.042758
0
VERTEX
8
1
10
4.606262
20
16.463440
0
VERTEX
8
1
10
4.596825
20
16.453400
42
0.163578
0
VERTEX
8
1
10
4.645554
20
16.037109
42
0.066215
0
VERTEX
8
1
10
4.877389
20
15.635484
42
0.031895
0
VERTEX
8
1
10
5.314437
20
15.110657
0
VERTEX
8
1
10
5.422935
20
14.990005
0
VERTEX
8
1
10
5.615166
20
15.051743
0
VERTEX
8
1
10
5.604286
20
15.054321
42
-0.104641
0
VERTEX
8
1
10
5.521896
20
15.158844
42
-0.023492
0
VERTEX
8
1
10
5.273561
20
15.681320
42
-0.051922
0
VERTEX
8
1
10
5.150240
20
15.989981
42
-0.199056
0
VERTEX
8
1
10
5.197638
20
16.198330
42
-0.035398
0
VERTEX
8
1
10
5.323692
20
16.385391
0
VERTEX
8
1
10
5.321503
20
16.412415
42
-0.206253
0
VERTEX
8
1
10
5.175872
20
16.897049
42
0.042784
0
VERTEX
8
1
10
5.310479
20
16.916071
42
-0.039722
0
VERTEX
8
1
10
5.412376
20
16.921188
42
-0.208939
0
VERTEX
8
1
10
5.194984
20
17.240784
42
-0.078601
0
VERTEX
8
1
10
5.176163
20
17.693741
0
VERTEX
8
1
10
5.198952
20
17.697998
42
-0.103723
0
VERTEX
8
1
10
5.793907
20
17.409317
42
-0.021551
0
VERTEX
8
1
10
5.819801
20
17.510620
0
VERTEX
8
1
10
5.838513
20
17.526264
42
-0.315222
0
VERTEX
8
1
10
6.151244
20
17.536398
42
-0.110115
0
VERTEX
8
1
10
6.451268
20
17.195841
42
-0.031614
0
VERTEX
8
1
10
6.691582
20
16.744568
42
-0.082406
0
VERTEX
8
1
10
6.692101
20
16.913605
0
VERTEX
8
1
10
6.703972
20
16.950516
42
-0.361208
0
VERTEX
8
1
10
6.789779
20
16.999350
42
-0.139617
0
VERTEX
8
1
10
6.902336
20
16.954376
42
-0.142140
0
VERTEX
8
1
10
7.221245
20
16.559647
42
-0.068823
0
VERTEX
8
1
10
7.232704
20
16.894531
0
VERTEX
8
1
10
7.242104
20
16.892502
42
-0.078041
0
VERTEX
8
1
10
7.319607
20
16.791824
42
0.000649
0
VERTEX
8
1
10
7.441200
20
16.599579
42
0.223116
0
SEQEND
0
POLYLINE
8
1
66
1
70
1
0
VERTEX
8
1
10
9.697456
20
14.770126
42
0.037096
0
VERTEX
8
1
10
9.745583
20
14.764160
0
VERTEX
8
1
10
9.748802
20
14.757568
0
VERTEX
8
1
10
9.574867
20
14.423431
0
VERTEX
8
1
10
9.594246
20
14.411301
0
VERTEX
8
1
10
9.634972
20
14.406174
42
-0.378018
0
VERTEX
8
1
10
9.733925
20
14.286438
42
-0.023676
0
VERTEX
8
1
10
9.718620
20
14.089386
0
VERTEX
8
1
10
9.728539
20
14.088181
42
0.125446
0
VERTEX
8
1
10
9.805458
20
14.171875
42
0.115341
0
VERTEX
8
1
10
9.902503
20
14.172825
0
VERTEX
8
1
10
9.913881
20
14.178013
42
0.233074
0
VERTEX
8
1
10
9.960341
20
14.249290
0
VERTEX
8
1
10
9.958465
20
14.253419
0
VERTEX
8
1
10
9.955269
20
14.256638
42
0.138415
0
VERTEX
8
1
10
9.906075
20
14.239441
0
VERTEX
8
1
10
9.905586
20
14.258163
42
0.041509
0
VERTEX
8
1
10
9.931671
20
14.426944
42
-0.069798
0
VERTEX
8
1
10
9.986284
20
14.666524
42
-0.250453
0
VERTEX
8
1
10
10.216030
20
14.837715
42
-0.074751
0
VERTEX
8
1
10
10.422124
20
14.850653
42
0.035634
0
VERTEX
8
1
10
10.555763
20
14.859543
0
VERTEX
8
1
10
10.575569
20
14.866302
42
0.030751
0
VERTEX
8
1
10
10.625160
20
15.111740
42
0.310355
0
VERTEX
8
1
10
10.314339
20
15.596786
0
VERTEX
8
1
10
10.292992
20
15.590042
42
0.160270
0
VERTEX
8
1
10
10.315132
20
15.326675
42
-0.024593
0
VERTEX
8
1
10
10.199760
20
15.366714
42
-0.108714
0
VERTEX
8
1
10
9.916985
20
15.318787
0
VERTEX
8
1
10
9.912025
20
15.315231
0
VERTEX
8
1
10
10.019539
20
15.254105
42
-0.092222
0
VERTEX
8
1
10
10.134087
20
15.158997
0
VERTEX
8
1
10
10.108269
20
15.150101
42
0.106550
0
VERTEX
8
1
10
9.716044
20
14.977016
42
0.110656
0
VERTEX
8
1
10
9.625694
20
14.861862
0
VERTEX
8
1
10
9.616463
20
14.821625
0
VERTEX
8
1
10
9.619713
20
14.780121
42
-0.050049
0
SEQEND
0
POLYLINE
8
1
66
1
70
1
0
VERTEX
8
1
10
10.525948
20
14.567398
42
0.201956
0
VERTEX
8
1
10
10.446059
20
14.653433
42
0.354062
0
VERTEX
8
1
10
10.334389
20
14.606766
42
0.312273
0
VERTEX
8
1
10
10.351725
20
14.246162
42
0.511228
0
VERTEX
8
1
10
10.503700
20
14.267883
42
0.240855
0
SEQEND
0
POLYLINE
8
1
66
1
70
1
0
VERTEX
8
1
10
11.067299
20
14.347794
42
-0.101811
0
VERTEX
8
1
10
11.240952
20
14.210332
42
-0.050653
0
VERTEX
8
1
10
11.425514
20
13.961029
0
VERTEX
8
1
10
11.557198
20
13.745056
42
0.073319
0
VERTEX
8
1
10
11.872126
20
13.353741
42
0.018993
0
VERTEX
8
1
10
12.223075
20
13.031306
42
-0.006013
0
VERTEX
8
1
10
12.590065
20
12.697753
42
-0.158651
0
VERTEX
8
1
10
12.442373
20
12.612708
42
-0.149018
0
VERTEX
8
1
10
12.353523
20
12.628143
0
VERTEX
8
1
10
12.333229
20
12.624481
42
0.003544
0
VERTEX
8
1
10
12.124679
20
12.535598
42
0.245240
0
VERTEX
8
1
10
11.919616
20
12.258481
42
0.170073
0
VERTEX
8
1
10
11.970543
20
12.035370
42
-0.220095
0
VERTEX
8
1
10
12.012420
20
11.673779
42
-0.227853
0
VERTEX
8
1
10
11.831291
20
11.507370
0
VERTEX
8
1
10
11.788445
20
11.494080
42
-0.103907
0
VERTEX
8
1
10
11.331978
20
11.495102
0
VERTEX
8
1
10
11.254707
20
11.520752
0
VERTEX
8
1
10
11.168723
20
11.556687
42
-0.008237
0
VERTEX
8
1
10
10.601810
20
11.841235
42
0.045607
0
VERTEX
8
1
10
10.242836
20
11.975433
0
VERTEX
8
1
10
10.149757
20
11.991806
0
VERTEX
8
1
10
10.063972
20
11.993988
0
VERTEX
8
1
10
9.986961
20
11.979767
0
VERTEX
8
1
10
9.920158
20
11.946899
0
VERTEX
8
1
10
9.865013
20
11.893188
0
VERTEX
8
1
10
9.823006
20
11.816391
0
VERTEX
8
1
10
9.804619
20
11.759171
42
-0.152454
0
VERTEX
8
1
10
9.607408
20
11.648137
42
-0.325911
0
VERTEX
8
1
10
9.535384
20
11.696149
42
-0.099432
0
VERTEX
8
1
10
9.516792
20
11.773926
42
-0.115783
0
VERTEX
8
1
10
9.506096
20
11.728180
42
-0.340293
0
VERTEX
8
1
10
9.527314
20
11.970993
42
-0.159070
0
VERTEX
8
1
10
9.647087
20
12.045700
0
VERTEX
8
1
10
9.673347
20
12.075653
42
0.112058
0
VERTEX
8
1
10
9.790703
20
12.412186
0
VERTEX
8
1
10
9.797997
20
12.450378
0
VERTEX
8
1
10
9.805733
20
12.488480
42
-0.213783
0
VERTEX
8
1
10
10.036082
20
12.866341
42
-0.002520
0
VERTEX
8
1
10
10.287320
20
13.061160
42
0.135148
0
VERTEX
8
1
10
10.460735
20
13.321720
42
0.040789
0
VERTEX
8
1
10
10.522702
20
13.569242
42
-0.072422
0
VERTEX
8
1
10
10.610146
20
13.796646
42
-0.093807
0
VERTEX
8
1
10
10.844093
20
14.029373
0
VERTEX
8
1
10
10.869789
20
14.049500
42
0.154785
0
VERTEX
8
1
10
11.056923
20
14.280960
0
VERTEX
8
1
10
11.055077
20
14.279556
42
-0.036171
0
SEQEND
0
POLYLINE
8
1
66
1
70
1
0
VERTEX
8
1
10
12.795952
20
12.211014
42
0.116213
0
VERTEX
8
1
10
12.787390
20
12.370640
42
0.248519
0
VERTEX
8
1
10
12.703072
20
12.440094
42
0.223913
0
VERTEX
8
1
10
12.552169
20
12.365340
42
0.195611
0
VERTEX
8
1
10
12.368889
20
11.928207
0
VERTEX
8
1
10
12.371498
20
11.899887
42
0.345474
0
VERTEX
8
1
10
12.466393
20
11.784180
42
0.224968
0
VERTEX
8
1
10
12.618100
20
11.859760
42
0.155783
0
SEQEND
0
POLYLINE
8
1
66
1
0
VERTEX
8
1
10
7.108101
20
16.118210
42
0.071707
0
VERTEX
8
1
10
6.983428
20
16.219933
42
-0.018191
0
VERTEX
8
1
10
6.775053
20
16.368191
42
-0.109086
0
VERTEX
8
1
10
6.679527
20
16.507370
0
VERTEX
8
1
10
6.673882
20
16.512009
42
-0.085751
0
VERTEX
8
1
10
6.625031
20
16.441935
42
0.039750
0
VERTEX
8
1
10
6.568794
20
16.362900
0
VERTEX
8
1
10
6.556267
20
16.365784
42
0.048362
0
VERTEX
8
1
10
6.143702
20
16.680500
42
0.093343
0
VERTEX
8
1
10
5.873787
20
16.770447
42
0.013465
0
VERTEX
8
1
10
6.029158
20
16.367006
42
0.056679
0
VERTEX
8
1
10
6.190498
20
16.099152
0
VERTEX
8
1
10
6.181541
20
16.096863
42
0.030645
0
VERTEX
8
1
10
5.877377
20
16.219589
42
0.087184
0
VERTEX
8
1
10
5.675438
20
16.238663
0
VERTEX
8
1
10
5.670311
20
16.223846
42
-0.028077
0
VERTEX
8
1
10
5.884163
20
16.001846
0
VERTEX
8
1
10
6.083626
20
15.770905
42
0.031860
0
VERTEX
8
1
10
6.289391
20
15.561783
0
SEQEND
0
POLYLINE
8
1
66
1
0
VERTEX
8
1
10
8.147194
20
18.416443
42
0.110577
0
VERTEX
8
1
10
8.242027
20
18.291489
42
0.048845
0
VERTEX
8
1
10
8.716164
20
17.954391
0
VERTEX
8
1
10
8.728096
20
17.957413
42
-0.057584
0
VERTEX
8
1
10
8.779877
20
18.085869
42
0.096405
0
VERTEX
8
1
10
8.801582
20
18.211075
0
VERTEX
8
1
10
8.811165
20
18.220367
42
-0.152712
0
VERTEX
8
1
10
8.956551
20
18.106689
42
-0.016239
0
VERTEX
8
1
10
9.173630
20
17.756289
42
0.066746
0
VERTEX
8
1
10
9.303017
20
17.612778
0
SEQEND
0
POLYLINE
8
1
66
1
70
1
0
VERTEX
8
1
10
13.191933
20
1.508942
0
VERTEX
8
1
10
13.170981
20
1.484476
42
0.141936
0
VERTEX
8
1
10
13.040582
20
1.205591
0
VERTEX
8
1
10
13.034828
20
1.170197
0
VERTEX
8
1
10
13.026604
20
1.136917
42
-0.203471
0
VERTEX
8
1
10
12.846626
20
0.874756
42
-0.025213
0
VERTEX
8
1
10
12.513634
20
0.677155
42
0.025132
0
VERTEX
8
1
10
12.206476
20
0.533873
42
0.158207
0
VERTEX
8
1
10
12.082375
20
0.378265
42
-0.303125
0
VERTEX
8
1
10
11.863335
20
0.221970
42
-0.125968
0
VERTEX
8
1
10
11.393300
20
0.303766
42
0.110039
0
VERTEX
8
1
10
11.182274
20
0.339371
42
-0.070678
0
VERTEX
8
1
10
10.979657
20
0.324533
42
-0.234064
0
VERTEX
8
1
10
10.908699
20
0.382446
0
VERTEX
8
1
10
10.887184
20
0.407578
42
-0.107230
0
VERTEX
8
1
10
10.428917
20
0.565033
0
VERTEX
8
1
10
10.387032
20
0.588089
0
VERTEX
8
1
10
10.347725
20
0.607712
42
-0.094971
0
VERTEX
8
1
10
10.113060
20
0.600708
42
0.221513
0
VERTEX
8
1
10
10.055458
20
0.694700
42
0.123015
0
VERTEX
8
1
10
9.833214
20
0.805099
0
VERTEX
8
1
10
9.820747
20
0.804504
0
VERTEX
8
1
10
9.700127
20
0.758072
0
VERTEX
8
1
10
9.685951
20
0.742081
42
0.015991
0
VERTEX
8
1
10
9.572491
20
0.546474
42
-0.121063
0
VERTEX
8
1
10
9.487923
20
0.467590
42
-0.240348
0
VERTEX
8
1
10
9.462975
20
0.514450
42
-0.069550
0
VERTEX
8
1
10
9.478981
20
0.634842
0
VERTEX
8
1
10
9.475197
20
0.640030
42
0.132172
0
VERTEX
8
1
10
9.393669
20
0.638763
42
-0.100643
0
VERTEX
8
1
10
9.173973
20
0.402893
42
-0.085900
0
VERTEX
8
1
10
9.147133
20
0.351578
0
VERTEX
8
1
10
9.143761
20
0.358276
42
-0.083012
0
VERTEX
8
1
10
9.150078
20
0.441360
0
VERTEX
8
1
10
9.168449
20
0.519867
42
0.156652
0
VERTEX
8
1
10
9.162666
20
0.615860
42
0.082114
0
VERTEX
8
1
10
9.053627
20
0.590591
42
-0.093618
0
VERTEX
8
1
10
9.005013
20
0.515015
42
-0.075343
0
VERTEX
8
1
10
8.944543
20
0.552006
42
-0.284887
0
VERTEX
8
1
10
8.943169
20
0.580872
42
-0.040002
0
VERTEX
8
1
10
9.032012
20
0.648101
42
0.282490
0
VERTEX
8
1
10
9.054773
20
0.719596
42
-0.124970
0
VERTEX
8
1
10
9.074086
20
0.777344
42
0.481719
0
VERTEX
8
1
10
9.048134
20
0.813004
0
VERTEX
8
1
10
9.029610
20
0.817047
42
-0.251076
0
VERTEX
8
1
10
8.901401
20
0.893641
0
VERTEX
8
1
10
8.888800
20
0.910647
0
VERTEX
8
1
10
8.876350
20
0.927765
42
0.000567
0
VERTEX
8
1
10
8.808436
20
0.961275
0
VERTEX
8
1
10
8.798303
20
0.970015
42
-0.005110
0
VERTEX
8
1
10
8.693703
20
1.123291
42
0.156480
0
VERTEX
8
1
10
8.720961
20
1.239227
42
0.046259
0
VERTEX
8
1
10
8.707548
20
1.426142
42
-0.058462
0
VERTEX
8
1
10
8.707344
20
1.635956
42
0.405232
0
VERTEX
8
1
10
8.777046
20
1.654572
42
0.116363
0
VERTEX
8
1
10
8.841789
20
1.847106
42
0.422779
0
VERTEX
8
1
10
8.801547
20
1.872149
42
-0.289684
0
VERTEX
8
1
10
8.728606
20
1.915917
42
-0.308223
0
VERTEX
8
1
10
8.744179
20
1.966385
42
-0.099412
0
VERTEX
8
1
10
8.906780
20
2.036709
42
0.122419
0
VERTEX
8
1
10
9.037099
20
2.117042
42
0.403114
0
VERTEX
8
1
10
9.028908
20
2.163025
0
VERTEX
8
1
10
8.975410
20
2.206497
42
0.171550
0
VERTEX
8
1
10
8.930870
20
2.219986
0
VERTEX
8
1
10
8.693214
20
2.220596
42
-0.408680
0
VERTEX
8
1
10
8.702599
20
2.300095
42
0.007012
0
VERTEX
8
1
10
8.821000
20
2.392356
42
0.383541
0
VERTEX
8
1
10
8.812859
20
2.435684
42
0.062939
0
VERTEX
8
1
10
8.680305
20
2.539291
42
0.013183
0
VERTEX
8
1
10
8.666210
20
2.972267
0
VERTEX
8
1
10
8.659895
20
3.020226
0
VERTEX
8
1
10
8.651711
20
3.067902
0
VERTEX
8
1
10
8.642860
20
3.083191
0
VERTEX
8
1
10
8.632332
20
3.074890
0
VERTEX
8
1
10
8.620125
20
3.040237
42
0.065955
0
VERTEX
8
1
10
8.569664
20
2.567612
42
-0.249827
0
VERTEX
8
1
10
8.536995
20
2.488113
42
0.150938
0
VERTEX
8
1
10
8.436472
20
2.428768
42
0.358539
0
VERTEX
8
1
10
8.449203
20
2.336793
42
0.309484
0
VERTEX
8
1
10
8.509758
20
2.320908
0
VERTEX
8
1
10
8.509804
20
2.316650
42
0.129400
0
VERTEX
8
1
10
8.495053
20
2.165488
42
-0.128336
0
VERTEX
8
1
10
8.481926
20
2.111725
42
0.789904
0
VERTEX
8
1
10
8.497481
20
2.102361
42
0.062952
0
VERTEX
8
1
10
8.525230
20
2.112030
42
-0.069482
0
VERTEX
8
1
10
8.269585
20
1.933060
0
VERTEX
8
1
10
8.255409
20
1.922455
42
0.594308
0
VERTEX
8
1
10
8.256010
20
1.877926
42
0.023069
0
VERTEX
8
1
10
8.311484
20
1.829561
42
-0.160594
0
VERTEX
8
1
10
8.327171
20
1.786194
0
VERTEX
8
1
10
8.330818
20
1.785004
42
-0.094094
0
VERTEX
8
1
10
8.450756
20
1.788063
42
-0.272408
0
VERTEX
8
1
10
8.497932
20
1.734543
42
-0.067543
0
VERTEX
8
1
10
8.473435
20
1.542401
42
-0.310601
0
VERTEX
8
1
10
8.281624
20
1.436689
42
0.310129
0
VERTEX
8
1
10
8.242470
20
1.404831
42
-0.069241
0
VERTEX
8
1
10
8.189667
20
1.238791
42
0.364299
0
VERTEX
8
1
10
8.209267
20
1.209702
0
VERTEX
8
1
10
8.236092
20
1.202515
42
-0.563517
0
VERTEX
8
1
10
8.250245
20
1.181415
42
0.625193
0
VERTEX
8
1
10
8.256111
20
1.181351
0
VERTEX
8
1
10
8.353645
20
1.212997
42
-0.413519
0
VERTEX
8
1
10
8.429349
20
1.190906
42
-0.234148
0
VERTEX
8
1
10
8.450691
20
1.011749
42
-0.430809
0
VERTEX
8
1
10
8.352944
20
0.932522
42
0.183014
0
VERTEX
8
1
10
8.285143
20
0.904311
42
-0.209695
0
VERTEX
8
1
10
8.165886
20
0.884430
0
VERTEX
8
1
10
8.165321
20
0.881897
42
0.026879
0
VERTEX
8
1
10
8.231499
20
0.801498
0
VERTEX
8
1
10
8.224602
20
0.788055
0
VERTEX
8
1
10
8.144997
20
0.670456
42
-0.101524
0
VERTEX
8
1
10
8.008492
20
0.537903
0
VERTEX
8
1
10
7.994789
20
0.536743
42
-0.008277
0
VERTEX
8
1
10
8.034092
20
0.672328
42
0.112817
0
VERTEX
8
1
10
8.036293
20
0.820531
42
0.531625
0
VERTEX
8
1
10
7.895033
20
0.851549
42
0.074527
0
VERTEX
8
1
10
7.786140
20
0.749634
0
VERTEX
8
1
10
7.712471
20
0.663223
0
VERTEX
8
1
10
7.699242
20
0.655273
42
-0.150490
0
VERTEX
8
1
10
7.679136
20
0.777062
42
0.089084
0
VERTEX
8
1
10
7.662331
20
0.894241
0
VERTEX
8
1
10
7.652412
20
0.909592
0
VERTEX
8
1
10
7.612005
20
0.876771
42
-0.000865
0
VERTEX
8
1
10
7.468596
20
0.752307
42
-0.390792
0
VERTEX
8
1
10
7.373249
20
0.764112
42
-0.215168
0
VERTEX
8
1
10
7.367683
20
0.803162
42
0.170287
0
VERTEX
8
1
10
7.627019
20
0.939793
42
0.403382
0
VERTEX
8
1
10
7.613545
20
0.988946
42
0.135782
0
VERTEX
8
1
10
7.520149
20
1.038589
42
-0.127707
0
VERTEX
8
1
10
7.397057
20
1.059631
0
VERTEX
8
1
10
7.270226
20
1.095840
42
-0.278282
0
VERTEX
8
1
10
7.209969
20
1.142242
0
VERTEX
8
1
10
7.211357
20
1.150864
42
-0.048288
0
VERTEX
8
1
10
7.283242
20
1.203580
42
0.450363
0
VERTEX
8
1
10
7.275169
20
1.241653
42
-0.105867
0
VERTEX
8
1
10
7.199577
20
1.321259
42
0.118708
0
VERTEX
8
1
10
7.125053
20
1.376541
42
-0.181566
0
VERTEX
8
1
10
7.047578
20
1.521651
42
-0.441497
0
VERTEX
8
1
10
7.069511
20
1.531647
42
-0.020642
0
VERTEX
8
1
10
7.308074
20
1.445517
42
0.173698
0
VERTEX
8
1
10
7.370796
20
1.449234
42
0.091209
0
VERTEX
8
1
10
7.447776
20
1.547132
42
0.435526
0
VERTEX
8
1
10
7.415932
20
1.595428
0
VERTEX
8
1
10
7.326744
20
1.628036
42
-0.151350
0
VERTEX
8
1
10
7.280945
20
1.659847
42
-0.358595
0
VERTEX
8
1
10
7.290001
20
1.682556
42
0.003160
0
VERTEX
8
1
10
7.416322
20
1.754611
42
0.174578
0
VERTEX
8
1
10
7.437798
20
1.792831
0
VERTEX
8
1
10
7.432899
20
1.811798
42
-0.112670
0
VERTEX
8
1
10
7.462067
20
1.875262
42
0.392443
0
VERTEX
8
1
10
7.445366
20
1.904160
42
0.017709
0
VERTEX
8
1
10
7.319071
20
1.928520
42
-0.130834
0
VERTEX
8
1
10
7.238518
20
1.980484
0
VERTEX
8
1
10
7.205711
20
2.017715
42
0.156208
0
VERTEX
8
1
10
7.155569
20
2.038485
42
-0.188894
0
VERTEX
8
1
10
7.048948
20
2.112963
42
0.012895
0
VERTEX
8
1
10
6.950874
20
2.220428
42
0.189625
0
VERTEX
8
1
10
6.987431
20
2.330397
42
0.064058
0
VERTEX
8
1
10
6.969570
20
2.524590
42
-0.079268
0
VERTEX
8
1
10
6.969383
20
2.734116
42
0.363189
0
VERTEX
8
1
10
7.074669
20
2.764420
42
0.122255
0
VERTEX
8
1
10
7.149240
20
2.940423
42
0.375023
0
VERTEX
8
1
10
7.114922
20
2.969330
42
-0.177466
0
VERTEX
8
1
10
7.004643
20
3.000957
42
-0.491522
0
VERTEX
8
1
10
7.016945
20
3.062439
0
VERTEX
8
1
10
7.032799
20
3.071869
42
-0.043536
0
VERTEX
8
1
10
7.270350
20
3.144063
42
0.078225
0
VERTEX
8
1
10
7.397185
20
3.201297
42
0.106087
0
VERTEX
8
1
10
7.418953
20
3.232407
0
VERTEX
8
1
10
7.415779
20
3.245636
42
0.089138
0
VERTEX
8
1
10
7.300638
20
3.314364
0
VERTEX
8
1
10
7.285760
20
3.316745
0
VERTEX
8
1
10
7.270699
20
3.317154
0
VERTEX
8
1
10
6.950447
20
3.317703
42
-0.464686
0
VERTEX
8
1
10
6.949196
20
3.384247
0
VERTEX
8
1
10
6.961098
20
3.395828
42
-0.012363
0
VERTEX
8
1
10
7.120815
20
3.487722
42
0.481974
0
VERTEX
8
1
10
7.114830
20
3.529495
42
0.050900
0
VERTEX
8
1
10
6.932091
20
3.637909
42
0.036875
0
VERTEX
8
1
10
6.905495
20
4.125076
0
VERTEX
8
1
10
6.895943
20
4.161835
0
VERTEX
8
1
10
6.884346
20
4.179718
0
VERTEX
8
1
10
6.870491
20
4.174545
0
VERTEX
8
1
10
6.854301
20
4.142670
42
0.089171
0
VERTEX
8
1
10
6.784660
20
3.665817
42
-0.287076
0
VERTEX
8
1
10
6.742546
20
3.586075
42
0.175139
0
VERTEX
8
1
10
6.597450
20
3.512556
42
0.390259
0
VERTEX
8
1
10
6.614159
20
3.443710
42
0.310823
0
VERTEX
8
1
10
6.701546
20
3.419495
42
-0.412922
0
VERTEX
8
1
10
6.702538
20
3.406982
0
VERTEX
8
1
10
6.683952
20
3.355835
42
0.172855
0
VERTEX
8
1
10
6.683628
20
3.271282
42
-0.188095
0
VERTEX
8
1
10
6.667244
20
3.210281
0
VERTEX
8
1
10
6.667793
20
3.201843
0
VERTEX
8
1
10
6.673790
20
3.198151
42
0.061677
0
VERTEX
8
1
10
6.726509
20
3.208939
42
-0.060071
0
VERTEX
8
1
10
6.384972
20
3.031647
0
VERTEX
8
1
10
6.365181
20
3.020966
42
0.574730
0
VERTEX
8
1
10
6.353970
20
2.980833
42
-0.026911
0
VERTEX
8
1
10
6.444693
20
2.921158
42
-0.055786
0
VERTEX
8
1
10
6.460769
20
2.882060
0
VERTEX
8
1
10
6.464460
20
2.880441
42
-0.109204
0
VERTEX
8
1
10
6.644411
20
2.879360
42
-0.355164
0
VERTEX
8
1
10
6.687885
20
2.805403
42
-0.073714
0
VERTEX
8
1
10
6.657414
20
2.644137
42
-0.208977
0
VERTEX
8
1
10
6.562411
20
2.562883
42
-0.086284
0
VERTEX
8
1
10
6.379909
20
2.530597
42
0.273437
0
VERTEX
8
1
10
6.340492
20
2.488266
42
-0.101940
0
VERTEX
8
1
10
6.278103
20
2.342976
42
0.513864
0
VERTEX
8
1
10
6.299385
20
2.307480
0
VERTEX
8
1
10
6.335518
20
2.300171
0
VERTEX
8
1
10
6.347404
20
2.296478
42
-0.562691
0
VERTEX
8
1
10
6.356454
20
2.278363
42
0.646467
0
VERTEX
8
1
10
6.363243
20
2.278412
0
VERTEX
8
1
10
6.492867
20
2.309784
0
VERTEX
8
1
10
6.506979
20
2.314170
42
-0.368700
0
VERTEX
8
1
10
6.614572
20
2.265001
0
VERTEX
8
1
10
6.623395
20
2.249221
42
-0.224226
0
VERTEX
8
1
10
6.628263
20
2.119989
0
VERTEX
8
1
10
6.621940
20
2.099273
0
VERTEX
8
1
10
6.615532
20
2.078583
42
-0.237144
0
VERTEX
8
1
10
6.496221
20
2.029650
42
0.131710
0
VERTEX
8
1
10
6.390593
20
1.997431
42
-0.154039
0
VERTEX
8
1
10
6.243538
20
1.981781
0
VERTEX
8
1
10
6.242195
20
1.979584
42
0.029540
0
VERTEX
8
1
10
6.390285
20
1.850289
42
-0.169689
0
VERTEX
8
1
10
6.410866
20
1.800323
0
VERTEX
8
1
10
6.413872
20
1.793488
42
0.194771
0
VERTEX
8
1
10
6.460014
20
1.788452
42
0.013401
0
VERTEX
8
1
10
6.262641
20
1.680099
42
0.090341
0
VERTEX
8
1
10
6.138664
20
1.545456
42
0.068161
0
VERTEX
8
1
10
6.074928
20
1.455505
0
VERTEX
8
1
10
6.066399
20
1.445694
42
-0.011358
0
VERTEX
8
1
10
5.934181
20
1.376312
42
0.736420
0
VERTEX
8
1
10
5.931847
20
1.354340
42
0.089920
0
VERTEX
8
1
10
6.200325
20
1.352539
42
-0.033053
0
VERTEX
8
1
10
6.332947
20
1.394944
42
-0.232335
0
VERTEX
8
1
10
6.444593
20
1.352632
42
-0.342384
0
VERTEX
8
1
10
6.440166
20
1.320199
42
-0.148915
0
VERTEX
8
1
10
6.344415
20
1.229431
42
-0.085365
0
VERTEX
8
1
10
6.207466
20
1.177994
0
VERTEX
8
1
10
6.178834
20
1.163624
42
0.066817
0
VERTEX
8
1
10
5.905835
20
0.972487
42
-0.090000
0
VERTEX
8
1
10
5.855446
20
0.947144
0
VERTEX
8
1
10
5.849281
20
0.951477
42
0.014664
0
VERTEX
8
1
10
5.806190
20
1.151459
0
VERTEX
8
1
10
5.795784
20
1.174286
42
0.491602
0
VERTEX
8
1
10
5.722160
20
1.183838
42
0.101591
0
VERTEX
8
1
10
5.560357
20
0.967138
42
-0.101922
0
VERTEX
8
1
10
5.418907
20
0.806900
0
VERTEX
8
1
10
5.417000
20
0.833908
42
0.027750
0
VERTEX
8
1
10
5.420631
20
1.105057
42
0.171087
0
VERTEX
8
1
10
5.373772
20
1.211212
42
0.099279
0
VERTEX
8
1
10
5.335243
20
1.176636
42
0.000986
0
VERTEX
8
1
10
5.227898
20
1.008623
0
VERTEX
8
1
10
5.216759
20
1.012436
42
-0.017275
0
VERTEX
8
1
10
5.098610
20
1.104874
0
VERTEX
8
1
10
5.096764
20
1.125381
0
VERTEX
8
1
10
5.095741
20
1.125854
0
VERTEX
8
1
10
5.078072
20
1.122238
42
-0.104881
0
VERTEX
8
1
10
5.041670
20
1.164424
42
-0.520927
0
VERTEX
8
1
10
5.062370
20
1.179596
42
0.188181
0
VERTEX
8
1
10
5.232563
20
1.213650
42
0.446709
0
VERTEX
8
1
10
5.226524
20
1.281555
42
0.051535
0
VERTEX
8
1
10
5.105445
20
1.346972
42
-0.197406
0
VERTEX
8
1
10
4.905205
20
1.597977
0
VERTEX
8
1
10
4.886497
20
1.657150
0
VERTEX
8
1
10
4.885551
20
1.706177
42
-0.258435
0
VERTEX
8
1
10
5.085715
20
1.592899
42
0.046775
0
VERTEX
8
1
10
5.130196
20
1.541626
0
VERTEX
8
1
10
5.140663
20
1.542923
42
0.008039
0
VERTEX
8
1
10
5.183218
20
1.596969
42
-0.432841
0
VERTEX
8
1
10
5.220215
20
1.595975
0
VERTEX
8
1
10
5.232349
20
1.585236
42
0.108820
0
VERTEX
8
1
10
5.507317
20
1.323288
0
VERTEX
8
1
10
5.528572
20
1.316498
0
VERTEX
8
1
10
5.543877
20
1.318130
0
VERTEX
8
1
10
5.551903
20
1.329453
0
VERTEX
8
1
10
5.551369
20
1.351776
42
0.016057
0
VERTEX
8
1
10
5.429679
20
1.664688
42
0.122879
0
VERTEX
8
1
10
5.562216
20
1.753920
42
0.406629
0
VERTEX
8
1
10
5.548744
20
1.822144
0
VERTEX
8
1
10
5.520195
20
1.841507
42
-0.020045
0
VERTEX
8
1
10
5.124397
20
2.067276
42
0.101181
0
VERTEX
8
1
10
5.268761
20
2.113724
42
0.396678
0
VERTEX
8
1
10
5.283836
20
2.158798
0
VERTEX
8
1
10
5.267479
20
2.177490
0
VERTEX
8
1
10
5.236992
20
2.198074
42
-0.042041
0
VERTEX
8
1
10
4.835156
20
2.446423
42
-0.215519
0
VERTEX
8
1
10
4.793395
20
2.547329
42
-0.078929
0
VERTEX
8
1
10
4.805168
20
2.734207
42
0.133317
0
VERTEX
8
1
10
4.969612
20
2.786728
42
0.420430
0
VERTEX
8
1
10
4.970772
20
2.831573
42
-0.030310
0
VERTEX
8
1
10
4.858900
20
2.942884
42
-0.114795
0
VERTEX
8
1
10
4.825573
20
3.014503
42
-0.269053
0
VERTEX
8
1
10
4.846245
20
3.047424
42
-0.116935
0
VERTEX
8
1
10
5.054665
20
3.067459
42
0.065707
0
VERTEX
8
1
10
5.134636
20
2.927582
42
0.549319
0
VERTEX
8
1
10
5.161095
20
2.925323
42
-0.009983
0
VERTEX
8
1
10
5.177281
20
2.994279
42
-0.301382
0
VERTEX
8
1
10
5.209801
20
3.012375
42
0.051507
0
VERTEX
8
1
10
5.401952
20
2.974496
42
0.096261
0
VERTEX
8
1
10
5.450157
20
2.986008
0
VERTEX
8
1
10
5.458672
20
2.996994
42
0.203566
0
VERTEX
8
1
10
5.434563
20
3.061172
42
0.068507
0
VERTEX
8
1
10
5.096657
20
3.358917
0
VERTEX
8
1
10
5.157539
20
3.397934
42
0.103617
0
VERTEX
8
1
10
5.217769
20
3.460786
42
0.405097
0
VERTEX
8
1
10
5.195961
20
3.510056
0
VERTEX
8
1
10
5.166740
20
3.521927
42
-0.130935
0
VERTEX
8
1
10
4.860634
20
3.678162
42
0.119658
0
VERTEX
8
1
10
4.969166
20
3.721985
42
0.399610
0
VERTEX
8
1
10
4.966820
20
3.779160
42
-0.053858
0
VERTEX
8
1
10
4.879877
20
3.884048
42
-0.109643
0
VERTEX
8
1
10
4.860329
20
3.961960
0
VERTEX
8
1
10
4.857994
20
4.024979
42
-0.249925
0
VERTEX
8
1
10
4.972939
20
4.205048
42
0.362517
0
VERTEX
8
1
10
4.983463
20
4.250678
0
VERTEX
8
1
10
4.979414
20
4.262872
42
0.031452
0
VERTEX
8
1
10
4.918360
20
4.346892
42
-0.131622
0
VERTEX
8
1
10
4.876732
20
4.475113
42
0.017444
0
VERTEX
8
1
10
4.860252
20
4.909988
0
VERTEX
8
1
10
4.855156
20
4.929718
0
VERTEX
8
1
10
4.848930
20
4.930695
0
VERTEX
8
1
10
4.841485
20
4.909027
42
-0.004270
0
VERTEX
8
1
10
4.763009
20
4.428635
0
VERTEX
8
1
10
4.752385
20
4.426634
42
0.286260
0
VERTEX
8
1
10
4.685897
20
4.377579
42
0.200039
0
VERTEX
8
1
10
4.691658
20
4.335297
0
VERTEX
8
1
10
4.735207
20
4.248032
42
0.072178
0
VERTEX
8
1
10
4.635938
20
4.097196
42
0.072458
0
VERTEX
8
1
10
4.623207
20
4.033447
0
VERTEX
8
1
10
4.638008
20
3.942490
42
0.089214
0
VERTEX
8
1
10
4.449043
20
3.875748
42
0.654358
0
VERTEX
8
1
10
4.450096
20
3.826126
0
VERTEX
8
1
10
4.515419
20
3.773666
42
-0.378835
0
VERTEX
8
1
10
4.516777
20
3.728622
0
VERTEX
8
1
10
4.504402
20
3.712875
42
-0.095706
0
VERTEX
8
1
10
4.362083
20
3.628677
0
VERTEX
8
1
10
4.231453
20
3.576767
42
0.140180
0
VERTEX
8
1
10
4.193762
20
3.495898
42
0.339524
0
VERTEX
8
1
10
4.236214
20
3.445724
0
VERTEX
8
1
10
4.262367
20
3.440414
0
VERTEX
8
1
10
4.251870
20
3.420610
42
0.011143
0
VERTEX
8
1
10
4.044441
20
3.135422
0
VERTEX
8
1
10
4.023750
20
3.098267
0
VERTEX
8
1
10
4.012306
20
3.068130
0
VERTEX
8
1
10
4.012474
20
3.047073
0
VERTEX
8
1
10
4.026588
20
3.037094
42
0.095487
0
VERTEX
8
1
10
4.210304
20
3.098602
42
-0.330449
0
VERTEX
8
1
10
4.219749
20
3.050055
42
0.143185
0
VERTEX
8
1
10
4.222969
20
3.002609
0
VERTEX
8
1
10
4.230751
20
2.996811
42
0.138448
0
VERTEX
8
1
10
4.314293
20
2.997269
0
VERTEX
8
1
10
4.471321
20
3.025803
0
VERTEX
8
1
10
4.477715
20
3.020248
42
-0.638233
0
VERTEX
8
1
10
4.475044
20
2.958344
42
0.031976
0
VERTEX
8
1
10
4.358329
20
2.907495
42
0.421366
0
VERTEX
8
1
10
4.355598
20
2.851425
0
VERTEX
8
1
10
4.415749
20
2.775818
42
0.081721
0
VERTEX
8
1
10
4.220222
20
2.595062
0
VERTEX
8
1
10
4.211128
20
2.574203
0
VERTEX
8
1
10
4.211357
20
2.556976
0
VERTEX
8
1
10
4.222725
20
2.544434
42
0.016385
0
VERTEX
8
1
10
4.415764
20
2.497849
42
-0.212948
0
VERTEX
8
1
10
4.380959
20
2.390167
42
0.022906
0
VERTEX
8
1
10
4.147211
20
2.303943
42
0.040365
0
VERTEX
8
1
10
4.066734
20
2.254623
42
0.359873
0
VERTEX
8
1
10
4.052660
20
2.211816
42
-0.012998
0
VERTEX
8
1
10
4.076353
20
2.166224
0
VERTEX
8
1
10
4.076604
20
2.158411
0
VERTEX
8
1
10
4.075172
20
2.150726
42
-0.092329
0
VERTEX
8
1
10
3.998070
20
2.122681
0
VERTEX
8
1
10
3.974724
20
2.111008
42
0.093898
0
VERTEX
8
1
10
3.728493
20
1.867126
0
VERTEX
8
1
10
3.720055
20
1.844604
0
VERTEX
8
1
10
3.723198
20
1.829819
0
VERTEX
8
1
10
3.739922
20
1.824509
0
VERTEX
8
1
10
3.772179
20
1.830505
42
-0.080409
0
VERTEX
8
1
10
3.927238
20
1.861951
42
-0.520791
0
VERTEX
8
1
10
3.936150
20
1.843979
42
0.055554
0
VERTEX
8
1
10
3.891072
20
1.778622
42
0.559488
0
VERTEX
8
1
10
3.929070
20
1.745544
0
VERTEX
8
1
10
3.940773
20
1.747375
0
VERTEX
8
1
10
4.054558
20
1.775787
42
0.148058
0
VERTEX
8
1
10
4.015054
20
1.698289
42
0.407354
0
VERTEX
8
1
10
4.055809
20
1.664688
42
0.061947
0
VERTEX
8
1
10
4.331779
20
1.705841
0
VERTEX
8
1
10
4.179161
20
1.581055
42
0.077248
0
VERTEX
8
1
10
4.065712
20
1.481323
42
0.592894
0
VERTEX
8
1
10
4.072548
20
1.440506
0
VERTEX
8
1
10
4.107430
20
1.424103
42
-0.609486
0
VERTEX
8
1
10
4.106148
20
1.407913
0
VERTEX
8
1
10
4.094246
20
1.398010
42
0.036550
0
VERTEX
8
1
10
3.792320
20
1.156097
42
0.127770
0
VERTEX
8
1
10
3.744820
20
1.084290
0
VERTEX
8
1
10
3.751503
20
1.071182
0
VERTEX
8
1
10
3.772881
20
1.065475
42
0.018715
0
VERTEX
8
1
10
3.968987
20
1.094986
42
-0.028937
0
VERTEX
8
1
10
3.819158
20
0.913697
42
-0.233916
0
VERTEX
8
1
10
3.614494
20
0.859955
0
VERTEX
8
1
10
3.661354
20
0.970444
42
0.111163
0
VERTEX
8
1
10
3.756762
20
1.524809
42
0.089911
0
VERTEX
8
1
10
3.699089
20
1.717072
0
VERTEX
8
1
10
3.681831
20
1.720383
0
VERTEX
8
1
10
3.655113
20
1.713776
42
0.051644
0
VERTEX
8
1
10
3.497766
20
1.675426
0
VERTEX
8
1
10
3.466957
20
1.661728
0
VERTEX
8
1
10
3.458061
20
1.660385
42
-0.028132
0
VERTEX
8
1
10
3.327431
20
1.694885
0
VERTEX
8
1
10
3.332298
20
1.728912
42
0.183986
0
VERTEX
8
1
10
3.307365
20
1.892426
42
-0.234715
0
VERTEX
8
1
10
3.276955
20
2.174605
42
0.125061
0
VERTEX
8
1
10
3.284950
20
2.442545
42
0.095051
0
VERTEX
8
1
10
3.209183
20
2.596303
42
-0.233338
0
VERTEX
8
1
10
3.207573
20
2.735321
42
0.005387
0
VERTEX
8
1
10
3.256172
20
2.862152
42
0.319607
0
VERTEX
8
1
10
3.235008
20
2.927948
0
VERTEX
8
1
10
3.204613
20
2.941269
0
VERTEX
8
1
10
3.191628
20
2.969360
42
0.199152
0
VERTEX
8
1
10
3.214577
20
3.206474
42
-0.007628
0
VERTEX
8
1
10
3.168771
20
3.392553
42
-0.174628
0
VERTEX
8
1
10
3.228042
20
3.655400
42
0.020512
0
VERTEX
8
1
10
3.307396
20
3.812236
42
0.147328
0
VERTEX
8
1
10
3.310585
20
3.921677
42
-0.189681
0
VERTEX
8
1
10
3.282205
20
4.071356
0
VERTEX
8
1
10
3.287297
20
4.102163
0
VERTEX
8
1
10
3.294792
20
4.132477
42
0.250690
0
VERTEX
8
1
10
3.281563
20
4.206665
0
VERTEX
8
1
10
3.241112
20
4.240799
0
VERTEX
8
1
10
3.249474
20
4.287918
42
-0.047474
0
VERTEX
8
1
10
3.346199
20
4.480942
0
VERTEX
8
1
10
3.371758
20
4.533722
42
0.181910
0
VERTEX
8
1
10
3.392860
20
4.783081
0
VERTEX
8
1
10
3.363396
20
4.858383
0
VERTEX
8
1
10
3.314308
20
4.940170
0
VERTEX
8
1
10
3.243828
20
5.027817
42
0.018404
0
VERTEX
8
1
10
2.945534
20
5.322197
42
-0.107206
0
VERTEX
8
1
10
2.699501
20
5.706009
0
VERTEX
8
1
10
2.799187
20
5.721863
42
0.045753
0
VERTEX
8
1
10
3.043678
20
5.767044
0
VERTEX
8
1
10
3.097786
20
5.787735
0
VERTEX
8
1
10
3.137291
20
5.812698
0
VERTEX
8
1
10
3.161629
20
5.842865
0
VERTEX
8
1
10
3.170250
20
5.879089
0
VERTEX
8
1
10
3.162605
20
5.922287
0
VERTEX
8
1
10
3.138145
20
5.973312
0
VERTEX
8
1
10
3.096321
20
6.033081
42
0.068820
0
VERTEX
8
1
10
2.723747
20
6.374649
0
VERTEX
8
1
10
2.660759
20
6.421219
42
-0.042754
0
VERTEX
8
1
10
2.304131
20
6.710434
0
VERTEX
8
1
10
2.260429
20
6.760178
0
VERTEX
8
1
10
2.224556
20
6.810257
0
VERTEX
8
1
10
2.237114
20
6.828629
0
VERTEX
8
1
10
2.480888
20
6.913940
0
VERTEX
8
1
10
2.531441
20
6.930359
0
VERTEX
8
1
10
2.543358
20
6.973648
0
VERTEX
8
1
10
2.537437
20
7.033401
42
0.152180
0
VERTEX
8
1
10
2.371796
20
7.298705
42
0.079169
0
VERTEX
8
1
10
1.966820
20
7.582993
42
-0.043883
0
VERTEX
8
1
10
1.746437
20
7.678055
0
VERTEX
8
1
10
1.721413
20
7.698242
42
-0.458543
0
VERTEX
8
1
10
1.725480
20
7.817253
42
-0.228919
0
VERTEX
8
1
10
1.876289
20
7.874588
42
0.051769
0
VERTEX
8
1
10
2.078534
20
7.877496
42
0.141696
0
VERTEX
8
1
10
2.185646
20
7.935196
0
VERTEX
8
1
10
2.197792
20
7.973953
42
0.163832
0
VERTEX
8
1
10
1.990052
20
8.182414
42
0.056783
0
VERTEX
8
1
10
1.681343
20
8.316681
0
VERTEX
8
1
10
1.538612
20
8.637405
42
-0.174399
0
VERTEX
8
1
10
1.481091
20
8.800704
42
0.031694
0
VERTEX
8
1
10
1.453331
20
8.944305
0
VERTEX
8
1
10
1.480736
20
8.945450
42
-0.174497
0
VERTEX
8
1
10
1.621180
20
8.866301
42
0.064759
0
VERTEX
8
1
10
1.791922
20
8.692559
42
0.219509
0
VERTEX
8
1
10
1.892040
20
8.674538
42
0.340398
0
VERTEX
8
1
10
1.946312
20
8.767517
42
-0.232505
0
VERTEX
8
1
10
1.974190
20
8.842911
42
-0.321422
0
VERTEX
8
1
10
2.106514
20
8.829803
42
-0.023855
0
VERTEX
8
1
10
2.282194
20
8.667285
42
0.144722
0
VERTEX
8
1
10
2.419218
20
8.610963
42
0.332069
0
VERTEX
8
1
10
2.468880
20
8.657410
42
0.004457
0
VERTEX
8
1
10
2.501396
20
8.835907
0
VERTEX
8
1
10
2.521965
20
8.843994
42
-0.160758
0
VERTEX
8
1
10
2.667213
20
8.743317
0
VERTEX
8
1
10
2.734825
20
8.661514
42
0.199804
0
VERTEX
8
1
10
3.083427
20
8.482224
0
VERTEX
8
1
10
3.101509
20
8.489288
42
0.029951
0
VERTEX
8
1
10
3.129177
20
8.594454
42
-0.211395
0
VERTEX
8
1
10
3.187355
20
8.650436
0
VERTEX
8
1
10
3.212440
20
8.633774
0
VERTEX
8
1
10
3.247490
20
8.584824
0
VERTEX
8
1
10
3.284431
20
8.539566
42
0.180062
0
VERTEX
8
1
10
3.582948
20
8.361393
42
0.180865
0
VERTEX
8
1
10
3.947945
20
8.445038
0
VERTEX
8
1
10
3.968666
20
8.455383
42
-0.370259
0
VERTEX
8
1
10
4.169121
20
8.423355
42
0.012188
0
VERTEX
8
1
10
4.281118
20
8.283975
42
0.231115
0
VERTEX
8
1
10
4.399071
20
8.251541
0
VERTEX
8
1
10
4.405693
20
8.394028
0
VERTEX
8
1
10
4.407295
20
8.405548
42
-0.239878
0
VERTEX
8
1
10
4.533379
20
8.367004
42
-0.048557
0
VERTEX
8
1
10
4.668794
20
8.195007
42
0.242726
0
VERTEX
8
1
10
4.966985
20
8.054592
42
0.173398
0
VERTEX
8
1
10
5.059044
20
8.102722
42
0.179998
0
VERTEX
8
1
10
5.079941
20
8.244860
42
-0.113396
0
VERTEX
8
1
10
5.098381
20
8.348679
0
VERTEX
8
1
10
5.109825
20
8.342667
42
0.068706
0
VERTEX
8
1
10
5.213474
20
8.260460
42
-0.128893
0
VERTEX
8
1
10
5.357087
20
8.085093
42
0.302044
0
VERTEX
8
1
10
5.596260
20
7.979416
42
0.133573
0
VERTEX
8
1
10
5.786980
20
8.108475
0
VERTEX
8
1
10
5.805717
20
8.101730
0
VERTEX
8
1
10
5.819450
20
8.062958
42
0.276529
0
VERTEX
8
1
10
5.996591
20
7.908372
42
0.109579
0
VERTEX
8
1
10
6.156685
20
7.906494
0
VERTEX
8
1
10
6.159615
20
7.919022
42
0.070351
0
VERTEX
8
1
10
6.188118
20
8.004623
0
VERTEX
8
1
10
6.197792
20
8.012299
42
-0.160640
0
VERTEX
8
1
10
6.293556
20
7.970093
42
-0.032942
0
VERTEX
8
1
10
6.467705
20
7.784144
42
0.111462
0
VERTEX
8
1
10
6.589699
20
7.703873
0
VERTEX
8
1
10
6.619484
20
7.703186
42
-0.202532
0
VERTEX
8
1
10
6.665407
20
7.806536
42
0.132559
0
VERTEX
8
1
10
6.720390
20
7.918900
42
-0.299865
0
VERTEX
8
1
10
6.825569
20
7.863052
42
0.509013
0
VERTEX
8
1
10
6.998530
20
7.834353
42
-0.198822
0
VERTEX
8
1
10
7.090874
20
7.853851
42
-0.037074
0
VERTEX
8
1
10
7.301125
20
7.771347
0
VERTEX
8
1
10
7.333580
20
7.760620
42
0.446943
0
VERTEX
8
1
10
7.462203
20
7.821785
42
0.081308
0
VERTEX
8
1
10
7.487190
20
7.908646
42
-0.575037
0
VERTEX
8
1
10
7.522521
20
7.921434
0
VERTEX
8
1
10
7.528893
20
7.916290
0
VERTEX
8
1
10
7.536873
20
7.880585
0
VERTEX
8
1
10
7.546777
20
7.878295
42
0.001344
0
VERTEX
8
1
10
7.694421
20
7.881179
0
VERTEX
8
1
10
7.714897
20
7.878433
42
0.299323
0
VERTEX
8
1
10
7.787498
20
7.895172
42
0.087466
0
VERTEX
8
1
10
7.893654
20
8.037064
42
-0.228390
0
VERTEX
8
1
10
7.845989
20
8.144246
42
-0.067373
0
VERTEX
8
1
10
7.848701
20
8.254684
0
VERTEX
8
1
10
7.855507
20
8.267303
42
-0.261064
0
VERTEX
8
1
10
8.013435
20
8.211884
0
VERTEX
8
1
10
8.034599
20
8.213211
42
0.024188
0
VERTEX
8
1
10
8.244385
20
8.374349
42
-0.036020
0
VERTEX
8
1
10
8.608671
20
8.632953
42
-0.047771
0
VERTEX
8
1
10
8.755577
20
8.694809
0
VERTEX
8
1
10
8.874214
20
8.733002
42
0.112725
0
VERTEX
8
1
10
9.079685
20
8.853091
42
-0.033546
0
VERTEX
8
1
10
9.261269
20
8.985458
42
0.118088
0
VERTEX
8
1
10
9.283235
20
8.937755
42
-0.010033
0
VERTEX
8
1
10
9.320549
20
8.876801
42
0.026323
0
VERTEX
8
1
10
9.548424
20
9.072145
0
VERTEX
8
1
10
9.603016
20
9.117940
42
-0.094074
0
VERTEX
8
1
10
10.000652
20
9.344572
42
-0.053981
0
VERTEX
8
1
10
10.253563
20
9.406982
0
VERTEX
8
1
10
10.298012
20
9.408188
0
VERTEX
8
1
10
10.337013
20
9.403854
0
VERTEX
8
1
10
10.359062
20
9.375351
0
VERTEX
8
1
10
10.372124
20
9.337204
42
-0.101990
0
VERTEX
8
1
10
10.370060
20
9.026888
42
0.070992
0
VERTEX
8
1
10
10.368664
20
8.687433
42
-0.057154
0
VERTEX
8
1
10
10.371981
20
8.377491
42
-0.167973
0
VERTEX
8
1
10
10.264654
20
8.194301
42
0.150956
0
VERTEX
8
1
10
10.177956
20
8.008759
42
-0.135667
0
VERTEX
8
1
10
10.038307
20
7.700241
42
0.084214
0
VERTEX
8
1
10
9.828590
20
7.346039
42
0.149600
0
VERTEX
8
1
10
9.755486
20
6.894180
42
0.151586
0
VERTEX
8
1
10
9.891909
20
6.737790
42
-0.095594
0
VERTEX
8
1
10
10.006989
20
6.608283
42
0.057932
0
VERTEX
8
1
10
10.263161
20
6.326202
42
-0.033466
0
VERTEX
8
1
10
10.625347
20
5.975154
42
-0.094991
0
VERTEX
8
1
10
10.779429
20
5.678520
42
0.003046
0
VERTEX
8
1
10
10.879967
20
5.413527
42
0.155844
0
VERTEX
8
1
10
11.138115
20
5.094574
0
VERTEX
8
1
10
11.280861
20
4.995071
42
-0.107277
0
VERTEX
8
1
10
11.477172
20
4.794296
42
-0.169879
0
VERTEX
8
1
10
11.517357
20
4.556259
42
0.007576
0
VERTEX
8
1
10
11.482780
20
4.340743
42
0.107842
0
VERTEX
8
1
10
11.551735
20
3.946823
42
0.061861
0
VERTEX
8
1
10
11.806959
20
3.562196
42
0.000150
0
VERTEX
8
1
10
11.971613
20
3.345482
42
0.104178
0
VERTEX
8
1
10
12.060249
20
3.284943
0
VERTEX
8
1
10
12.203117
20
3.193253
0
VERTEX
8
1
10
12.220161
20
3.151138
42
0.102077
0
VERTEX
8
1
10
12.398687
20
2.948010
42
-0.068730
0
VERTEX
8
1
10
12.633996
20
2.672614
42
0.051544
0
VERTEX
8
1
10
12.860133
20
2.410657
42
-0.030686
0
VERTEX
8
1
10
13.152971
20
2.085896
42
-0.129602
0
VERTEX
8
1
10
13.291223
20
1.734512
42
-0.171548
0
VERTEX
8
1
10
13.242445
20
1.574673
42
-0.046785
0
SEQEND
0
POLYLINE
8
1
66
1
70
1
0
VERTEX
8
1
10
7.268150
20
5.527390
42
0.067360
0
VERTEX
8
1
10
7.158795
20
5.620571
42
0.009023
0
VERTEX
8
1
10
6.953602
20
5.761920
42
-0.144735
0
VERTEX
8
1
10
6.841866
20
5.918784
42
0.682357
0
VERTEX
8
1
10
6.725950
20
5.900393
0
VERTEX
8
1
10
6.719510
20
5.889359
0
VERTEX
8
1
10
6.712364
20
5.878769
0
VERTEX
8
1
10
6.666237
20
5.821976
0
VERTEX
8
1
10
6.650612
20
5.832870
42
0.057311
0
VERTEX
8
1
10
6.242890
20
6.126130
42
0.098224
0
VERTEX
8
1
10
5.979844
20
6.202144
42
0.519808
0
VERTEX
8
1
10
5.928932
20
6.113007
0
VERTEX
8
1
10
6.011986
20
5.888321
42
0.027099
0
VERTEX
8
1
10
6.122780
20
5.634308
0
VERTEX
8
1
10
6.132896
20
5.604446
0
VERTEX
8
1
10
6.097772
20
5.618119
42
0.104005
0
VERTEX
8
1
10
5.815190
20
5.672995
0
VERTEX
8
1
10
5.785820
20
5.670363
0
VERTEX
8
1
10
5.756660
20
5.665985
42
0.538989
0
VERTEX
8
1
10
5.718255
20
5.568848
42
-0.036601
0
VERTEX
8
1
10
6.104887
20
5.147714
42
0.028473
0
VERTEX
8
1
10
6.362536
20
4.879875
42
0.831862
0
VERTEX
8
1
10
6.453041
20
4.966171
42
-0.037896
0
VERTEX
8
1
10
6.170249
20
5.267267
42
0.009889
0
VERTEX
8
1
10
5.928612
20
5.538269
42
-0.048240
0
VERTEX
8
1
10
6.289940
20
5.399628
42
0.654906
0
VERTEX
8
1
10
6.367929
20
5.483566
42
-0.069253
0
VERTEX
8
1
10
6.191721
20
5.782658
42
-0.024126
0
VERTEX
8
1
10
6.083946
20
6.053329
0
VERTEX
8
1
10
6.134377
20
6.037643
42
-0.071389
0
VERTEX
8
1
10
6.495110
20
5.800934
0
VERTEX
8
1
10
6.639717
20
5.677307
42
0.512326
0
VERTEX
8
1
10
6.735947
20
5.705141
42
-0.046015
0
VERTEX
8
1
10
6.780632
20
5.764038
42
0.100261
0
VERTEX
8
1
10
7.019204
20
5.567734
42
-0.066173
0
VERTEX
8
1
10
7.180464
20
5.437836
42
0.889025
0
SEQEND
0
POLYLINE
8
1
66
1
70
1
0
VERTEX
8
1
10
7.763435
20
5.860809
42
-0.033322
0
VERTEX
8
1
10
7.951927
20
5.854385
0
VERTEX
8
1
10
7.953346
20
5.872437
42
0.036809
0
VERTEX
8
1
10
7.614886
20
6.430898
42
0.097807
0
VERTEX
8
1
10
7.338995
20
6.670798
42
0.235114
0
VERTEX
8
1
10
6.976982
20
6.664886
0
VERTEX
8
1
10
6.948204
20
6.678299
42
0.086736
0
VERTEX
8
1
10
6.373740
20
7.323730
42
0.082837
0
VERTEX
8
1
10
6.195030
20
7.408386
0
VERTEX
8
1
10
6.144249
20
7.412979
0
VERTEX
8
1
10
6.097771
20
7.404068
0
VERTEX
8
1
10
6.056435
20
7.380203
0
VERTEX
8
1
10
6.020958
20
7.340012
0
VERTEX
8
1
10
5.992149
20
7.282013
0
VERTEX
8
1
10
5.967415
20
7.213486
42
-0.112021
0
VERTEX
8
1
10
5.641286
20
7.262506
42
-0.007553
0
VERTEX
8
1
10
5.337445
20
7.366272
42
0.120958
0
VERTEX
8
1
10
4.994576
20
7.384430
0
VERTEX
8
1
10
4.951241
20
7.347610
42
0.107484
0
VERTEX
8
1
10
4.830514
20
6.850573
42
0.045200
0
VERTEX
8
1
10
4.842796
20
6.343521
42
-0.008584
0
VERTEX
8
1
10
4.896507
20
5.753677
0
VERTEX
8
1
10
4.890862
20
5.747574
42
0.074567
0
VERTEX
8
1
10
4.818354
20
5.783620
42
-0.032413
0
VERTEX
8
1
10
4.718071
20
5.832916
0
VERTEX
8
1
10
4.708626
20
5.822876
42
0.163598
0
VERTEX
8
1
10
4.757352
20
5.406570
42
0.066195
0
VERTEX
8
1
10
4.989188
20
5.004934
42
0.031874
0
VERTEX
8
1
10
5.426247
20
4.480118
0
VERTEX
8
1
10
5.534752
20
4.359467
0
VERTEX
8
1
10
5.726952
20
4.421219
0
VERTEX
8
1
10
5.716087
20
4.423798
42
-0.104781
0
VERTEX
8
1
10
5.633705
20
4.528305
42
-0.023484
0
VERTEX
8
1
10
5.385338
20
5.050766
42
-0.051784
0
VERTEX
8
1
10
5.262042
20
5.359430
42
-0.199057
0
VERTEX
8
1
10
5.309441
20
5.567795
42
-0.035402
0
VERTEX
8
1
10
5.435509
20
5.754868
0
VERTEX
8
1
10
5.433311
20
5.781891
42
-0.206269
0
VERTEX
8
1
10
5.287682
20
6.266525
42
0.042766
0
VERTEX
8
1
10
5.422280
20
6.285547
42
-0.039725
0
VERTEX
8
1
10
5.524178
20
6.290665
42
-0.211090
0
VERTEX
8
1
10
5.306862
20
6.609467
42
-0.075967
0
VERTEX
8
1
10
5.287971
20
7.063217
0
VERTEX
8
1
10
5.310768
20
7.067474
42
-0.103716
0
VERTEX
8
1
10
5.905708
20
6.778793
42
-0.021733
0
VERTEX
8
1
10
5.931618
20
6.880112
0
VERTEX
8
1
10
5.950328
20
6.895752
42
-0.315239
0
VERTEX
8
1
10
6.263049
20
6.905865
42
-0.109031
0
VERTEX
8
1
10
6.562857
20
6.566455
42
-0.033211
0
VERTEX
8
1
10
6.803383
20
6.114044
42
-0.082410
0
VERTEX
8
1
10
6.803902
20
6.283066
0
VERTEX
8
1
10
6.815773
20
6.319977
42
-0.361484
0
VERTEX
8
1
10
6.901567
20
6.368812
42
-0.139642
0
VERTEX
8
1
10
7.014137
20
6.323837
42
-0.142173
0
VERTEX
8
1
10
7.333046
20
5.929122
42
-0.068833
0
VERTEX
8
1
10
7.344505
20
6.263992
0
VERTEX
8
1
10
7.353905
20
6.261963
42
-0.078499
0
VERTEX
8
1
10
7.431408
20
6.161287
42
0.000627
0
VERTEX
8
1
10
7.552986
20
5.969040
42
0.223148
0
SEQEND
0
POLYLINE
8
1
66
1
70
1
0
VERTEX
8
1
10
9.434441
20
7.006577
42
-0.091839
0
VERTEX
8
1
10
9.277153
20
7.198700
42
0.039296
0
VERTEX
8
1
10
9.058733
20
7.538257
42
0.156744
0
VERTEX
8
1
10
8.909215
20
7.623507
42
0.344730
0
VERTEX
8
1
10
8.881172
20
7.597168
42
-0.138129
0
VERTEX
8
1
10
8.863642
20
7.477536
42
-0.014880
0
VERTEX
8
1
10
8.820061
20
7.370743
0
VERTEX
8
1
10
8.808586
20
7.371613
42
-0.046838
0
VERTEX
8
1
10
8.376915
20
7.682006
0
VERTEX
8
1
10
8.336250
20
7.722946
42
-0.077038
0
VERTEX
8
1
10
8.283080
20
7.806082
42
0.764716
0
VERTEX
8
1
10
8.228204
20
7.780487
0
VERTEX
8
1
10
8.236015
20
7.758438
0
VERTEX
8
1
10
8.272133
20
7.702438
0
VERTEX
8
1
10
8.328438
20
7.641830
0
VERTEX
8
1
10
8.399239
20
7.579117
42
0.040410
0
VERTEX
8
1
10
8.833138
20
7.287114
42
0.435270
0
VERTEX
8
1
10
8.868415
20
7.313715
42
-0.035202
0
VERTEX
8
1
10
8.912166
20
7.424035
42
0.055756
0
VERTEX
8
1
10
8.946190
20
7.546967
42
-0.104300
0
VERTEX
8
1
10
9.060387
20
7.434357
42
-0.001337
0
VERTEX
8
1
10
9.279902
20
7.079609
42
0.077844
0
VERTEX
8
1
10
9.404169
20
6.952858
42
0.846294
0
SEQEND
0
POLYLINE
8
1
66
1
70
1
0
VERTEX
8
1
10
9.809258
20
4.139587
42
0.037420
0
VERTEX
8
1
10
9.857399
20
4.133636
0
VERTEX
8
1
10
9.860619
20
4.127029
0
VERTEX
8
1
10
9.686684
20
3.792892
0
VERTEX
8
1
10
9.706047
20
3.780762
0
VERTEX
8
1
10
9.746773
20
3.775635
42
-0.377875
0
VERTEX
8
1
10
9.845741
20
3.655899
42
-0.023608
0
VERTEX
8
1
10
9.830421
20
3.458847
0
VERTEX
8
1
10
9.840340
20
3.457642
42
0.125705
0
VERTEX
8
1
10
9.917259
20
3.541351
42
0.115494
0
VERTEX
8
1
10
10.014297
20
3.542300
0
VERTEX
8
1
10
10.025673
20
3.547490
42
0.232832
0
VERTEX
8
1
10
10.072150
20
3.618743
0
VERTEX
8
1
10
10.070271
20
3.622870
0
VERTEX
8
1
10
10.067070
20
3.626083
42
0.139336
0
VERTEX
8
1
10
10.017906
20
3.608917
0
VERTEX
8
1
10
10.017403
20
3.627625
42
0.041542
0
VERTEX
8
1
10
10.043481
20
3.796408
42
-0.069829
0
VERTEX
8
1
10
10.098083
20
4.035999
42
-0.250420
0
VERTEX
8
1
10
10.327827
20
4.207190
42
-0.074725
0
VERTEX
8
1
10
10.533925
20
4.220126
42
0.035503
0
VERTEX
8
1
10
10.667564
20
4.229004
0
VERTEX
8
1
10
10.687370
20
4.235764
42
0.030765
0
VERTEX
8
1
10
10.736961
20
4.481216
42
0.310370
0
VERTEX
8
1
10
10.426140
20
4.966232
0
VERTEX
8
1
10
10.404793
20
4.959503
42
0.160353
0
VERTEX
8
1
10
10.426949
20
4.696152
42
-0.024483
0
VERTEX
8
1
10
10.311562
20
4.736176
42
-0.108763
0
VERTEX
8
1
10
10.028786
20
4.688263
0
VERTEX
8
1
10
10.023827
20
4.684692
0
VERTEX
8
1
10
10.131340
20
4.623581
42
-0.092223
0
VERTEX
8
1
10
10.245888
20
4.528442
0
VERTEX
8
1
10
10.220070
20
4.519562
42
0.106694
0
VERTEX
8
1
10
9.827837
20
4.346495
42
0.110729
0
VERTEX
8
1
10
9.737480
20
4.231323
0
VERTEX
8
1
10
9.728279
20
4.191101
0
VERTEX
8
1
10
9.731514
20
4.149597
42
-0.050250
0
SEQEND
0
POLYLINE
8
1
66
1
70
1
0
VERTEX
8
1
10
10.637749
20
3.936874
42
0.202077
0
VERTEX
8
1
10
10.557856
20
4.022898
42
0.354152
0
VERTEX
8
1
10
10.446205
20
3.976212
42
0.312455
0
VERTEX
8
1
10
10.463537
20
3.615636
42
0.511464
0
VERTEX
8
1
10
10.615501
20
3.637360
42
0.241423
0
SEQEND
0
POLYLINE
8
1
66
1
70
1
0
VERTEX
8
1
10
11.179806
20
3.719900
0
VERTEX
8
1
10
11.184959
20
3.715286
42
-0.118266
0
VERTEX
8
1
10
11.460820
20
3.446059
0
VERTEX
8
1
10
11.487219
20
3.408137
0
VERTEX
8
1
10
11.512722
20
3.369607
42
0.011628
0
VERTEX
8
1
10
11.755982
20
2.979676
42
0.049922
0
VERTEX
8
1
10
11.967950
20
2.739243
42
0.014316
0
VERTEX
8
1
10
12.535223
20
2.221339
42
-0.005999
0
VERTEX
8
1
10
12.701866
20
2.067215
42
-0.247748
0
VERTEX
8
1
10
12.502996
20
1.984123
42
-0.068333
0
VERTEX
8
1
10
12.465324
20
1.997620
0
VERTEX
8
1
10
12.445045
20
1.993958
0
VERTEX
8
1
10
12.389870
20
1.969971
42
0.085349
0
VERTEX
8
1
10
12.140345
20
1.837482
42
0.350970
0
VERTEX
8
1
10
12.071526
20
1.427032
0
VERTEX
8
1
10
12.082344
20
1.404831
42
-0.218650
0
VERTEX
8
1
10
12.124474
20
1.042679
42
-0.225715
0
VERTEX
8
1
10
11.943092
20
0.876846
0
VERTEX
8
1
10
11.900230
20
0.863556
42
-0.103301
0
VERTEX
8
1
10
11.443779
20
0.864548
42
-0.046469
0
VERTEX
8
1
10
11.088234
20
1.019958
42
0.028496
0
VERTEX
8
1
10
10.509204
20
1.297378
42
0.051869
0
VERTEX
8
1
10
10.261559
20
1.361282
0
VERTEX
8
1
10
10.175774
20
1.363464
0
VERTEX
8
1
10
10.098763
20
1.349228
0
VERTEX
8
1
10
10.031960
20
1.316376
0
VERTEX
8
1
10
9.976814
20
1.262650
0
VERTEX
8
1
10
9.934807
20
1.185867
0
VERTEX
8
1
10
9.916420
20
1.128632
42
-0.132548
0
VERTEX
8
1
10
9.727491
20
1.017757
42
-0.379104
0
VERTEX
8
1
10
9.640127
20
1.083170
42
-0.069436
0
VERTEX
8
1
10
9.628365
20
1.140335
42
-0.112264
0
VERTEX
8
1
10
9.617897
20
1.097656
42
-0.414486
0
VERTEX
8
1
10
9.677569
20
1.374755
42
-0.089436
0
VERTEX
8
1
10
9.758888
20
1.415161
0
VERTEX
8
1
10
9.785149
20
1.445129
42
0.116952
0
VERTEX
8
1
10
9.895668
20
1.743378
42
-0.070368
0
VERTEX
8
1
10
9.976921
20
2.043015
42
-0.119034
0
VERTEX
8
1
10
10.168465
20
2.254318
42
0.041590
0
VERTEX
8
1
10
10.456112
20
2.488497
42
0.127524
0
VERTEX
8
1
10
10.592598
20
2.753952
42
-0.024829
0
VERTEX
8
1
10
10.677431
20
3.076349
42
-0.155292
0
VERTEX
8
1
10
10.924017
20
3.372411
42
0.035297
0
VERTEX
8
1
10
11.097038
20
3.525240
0
VERTEX
8
1
10
11.114809
20
3.547652
42
0.142424
0
VERTEX
8
1
10
11.172203
20
3.687453
0
VERTEX
8
1
10
11.175989
20
3.704882
0
SEQEND
0
POLYLINE
8
1
66
1
70
1
0
VERTEX
8
1
10
12.907753
20
1.580475
42
0.116222
0
VERTEX
8
1
10
12.899199
20
1.740105
42
0.248471
0
VERTEX
8
1
10
12.814873
20
1.809570
42
0.223999
0
VERTEX
8
1
10
12.663985
20
1.734802
42
0.195610
0
VERTEX
8
1
10
12.480690
20
1.297668
0
VERTEX
8
1
10
12.483315
20
1.269363
42
0.345852
0
VERTEX
8
1
10
12.578209
20
1.153641
42
0.224781
0
VERTEX
8
1
10
12.729913
20
1.229210
42
0.155741
0
SEQEND
0
ENDSEC
0
EOF
