0
SECTION
2
HEADER
9
$EXTMIN
10
0.231232
20
0.496910
9
$EXTMAX
10
34.359665
20
21.401489
0
ENDSEC
0
SECTION
2
TABLES
0
TABLE
2
LTYPE
70
1
0
LTYPE
2
0
70
0
3
Solid Line
72
65
73
0
40
0.0
0
ENDTAB
0
TABLE
2
LAYER
70
1
0
LAYER
2
1
70
0
62
7
6
0
0
ENDTAB
0
ENDSEC
0
SECTION
2
BLOCKS
0
ENDSEC
0
SECTION
2
ENTITIES
0
POLYLINE
8
1
66
1
70
1
0
VERTEX
8
1
10
10.004501
20
14.946793
0
VERTEX
8
1
10
10.034698
20
15.201187
42
0.050492
0
VERTEX
8
1
10
8.862366
20
15.172829
42
0.026389
0
VERTEX
8
1
10
8.493683
20
15.100586
0
VERTEX
8
1
10
8.509018
20
15.081909
42
-0.029332
0
SEQEND
0
POLYLINE
8
1
66
1
70
1
0
VERTEX
8
1
10
4.503448
20
13.971863
0
VERTEX
8
1
10
4.853989
20
13.900795
0
VERTEX
8
1
10
4.855026
20
13.984261
0
VERTEX
8
1
10
4.854050
20
13.985199
0
VERTEX
8
1
10
4.708847
20
14.043770
42
0.004054
0
VERTEX
8
1
10
4.496490
20
13.978760
0
SEQEND
0
POLYLINE
8
1
66
1
70
1
0
VERTEX
8
1
10
4.891800
20
18.485390
0
VERTEX
8
1
10
5.245407
20
18.751450
42
0.054564
0
VERTEX
8
1
10
4.429916
20
18.324608
0
VERTEX
8
1
10
4.411118
20
18.294403
42
0.200440
0
VERTEX
8
1
10
4.640427
20
18.130928
42
0.066576
0
VERTEX
8
1
10
4.948288
20
18.101509
42
-0.042475
0
VERTEX
8
1
10
5.168579
20
18.085182
0
VERTEX
8
1
10
5.182800
20
18.366966
0
VERTEX
8
1
10
4.891602
20
18.484207
0
SEQEND
0
POLYLINE
8
1
66
1
70
1
0
VERTEX
8
1
10
31.011063
20
9.136711
42
-0.029371
0
VERTEX
8
1
10
33.940643
20
9.186783
0
VERTEX
8
1
10
33.935196
20
9.198807
0
VERTEX
8
1
10
33.918564
20
9.202873
42
-0.011032
0
VERTEX
8
1
10
31.459839
20
9.760597
42
-0.027214
0
VERTEX
8
1
10
29.297806
20
10.432709
0
VERTEX
8
1
10
29.175171
20
10.490845
0
VERTEX
8
1
10
34.359665
20
10.207870
0
VERTEX
8
1
10
34.225021
20
10.253136
0
VERTEX
8
1
10
30.148926
20
11.513382
0
VERTEX
8
1
10
30.149323
20
11.513596
42
0.079482
0
VERTEX
8
1
10
33.872131
20
11.136047
42
0.007078
0
VERTEX
8
1
10
33.565186
20
11.224442
42
-0.042213
0
VERTEX
8
1
10
30.468292
20
11.939110
0
VERTEX
8
1
10
30.472641
20
11.946281
42
0.023440
0
VERTEX
8
1
10
32.626007
20
11.934052
0
VERTEX
8
1
10
32.675156
20
11.939903
0
VERTEX
8
1
10
32.615784
20
12.067360
0
VERTEX
8
1
10
32.519287
20
12.085075
42
-0.003295
0
VERTEX
8
1
10
29.886429
20
12.548416
42
-0.030562
0
VERTEX
8
1
10
28.547821
20
12.870270
0
VERTEX
8
1
10
28.447952
20
12.903160
0
VERTEX
8
1
10
28.348785
20
12.937622
42
-0.071073
0
VERTEX
8
1
10
27.200424
20
13.524475
0
VERTEX
8
1
10
27.223190
20
13.520241
42
0.059059
0
VERTEX
8
1
10
30.594055
20
13.082169
0
VERTEX
8
1
10
30.652985
20
13.089325
42
-0.100668
0
VERTEX
8
1
10
28.738937
20
13.854439
42
0.083849
0
VERTEX
8
1
10
31.866470
20
13.667336
0
VERTEX
8
1
10
31.823288
20
13.759079
0
VERTEX
8
1
10
31.723251
20
13.779922
42
-0.027726
0
VERTEX
8
1
10
30.043411
20
14.179436
42
-0.055968
0
VERTEX
8
1
10
28.641464
20
14.776520
42
-0.053571
0
VERTEX
8
1
10
27.846802
20
15.355202
0
VERTEX
8
1
10
27.852188
20
15.358170
0
VERTEX
8
1
10
29.255692
20
15.293182
0
VERTEX
8
1
10
29.268097
20
15.297852
42
-0.098454
0
VERTEX
8
1
10
27.798752
20
15.930336
42
0.001347
0
VERTEX
8
1
10
27.839081
20
15.926849
42
0.037231
0
VERTEX
8
1
10
25.049774
20
16.684509
0
VERTEX
8
1
10
24.936493
20
16.708450
0
VERTEX
8
1
10
25.387390
20
16.842850
0
VERTEX
8
1
10
25.265640
20
16.904366
42
0.116043
0
VERTEX
8
1
10
19.667435
20
17.862923
0
VERTEX
8
1
10
19.620148
20
17.864525
42
0.064951
0
VERTEX
8
1
10
20.214798
20
18.099556
0
VERTEX
8
1
10
20.239075
20
18.117645
42
-0.021823
0
VERTEX
8
1
10
16.284271
20
19.024788
0
VERTEX
8
1
10
16.163712
20
19.064400
0
VERTEX
8
1
10
17.651230
20
19.040352
0
VERTEX
8
1
10
17.679855
20
19.041328
0
VERTEX
8
1
10
17.666656
20
19.047752
42
-0.010877
0
VERTEX
8
1
10
17.211334
20
19.354660
42
0.047530
0
VERTEX
8
1
10
17.136993
20
19.398026
42
0.024951
0
VERTEX
8
1
10
14.530090
20
20.125244
42
0.017313
0
VERTEX
8
1
10
13.304871
20
20.346481
0
VERTEX
8
1
10
13.275970
20
20.352737
0
VERTEX
8
1
10
13.290604
20
20.504189
0
VERTEX
8
1
10
13.290482
20
20.504715
42
0.011189
0
VERTEX
8
1
10
12.973709
20
20.676102
42
-0.026133
0
VERTEX
8
1
10
11.385574
20
20.684006
0
VERTEX
8
1
10
11.420990
20
20.644707
42
-0.002584
0
VERTEX
8
1
10
11.452744
20
20.633995
0
VERTEX
8
1
10
11.834061
20
20.647751
0
VERTEX
8
1
10
11.834351
20
20.647461
0
VERTEX
8
1
10
11.730591
20
20.516701
42
-0.045128
0
VERTEX
8
1
10
12.070343
20
20.305016
0
VERTEX
8
1
10
12.083542
20
20.291649
42
-0.195493
0
VERTEX
8
1
10
11.829498
20
20.196915
42
-0.050688
0
VERTEX
8
1
10
11.642258
20
20.213539
0
VERTEX
8
1
10
11.766220
20
20.000183
0
VERTEX
8
1
10
11.765060
20
20.000198
0
VERTEX
8
1
10
11.372330
20
20.070389
0
VERTEX
8
1
10
11.066452
20
19.735237
0
VERTEX
8
1
10
11.064972
20
19.733742
0
VERTEX
8
1
10
11.071213
20
20.159912
0
VERTEX
8
1
10
11.070755
20
20.160973
0
VERTEX
8
1
10
10.789108
20
20.257034
0
VERTEX
8
1
10
10.789612
20
20.257500
0
VERTEX
8
1
10
10.940933
20
20.357918
0
VERTEX
8
1
10
10.941330
20
20.358780
42
0.019956
0
VERTEX
8
1
10
9.962845
20
20.496346
0
VERTEX
8
1
10
9.896912
20
20.409615
0
VERTEX
8
1
10
9.897263
20
20.408676
0
VERTEX
8
1
10
10.086655
20
20.066475
0
VERTEX
8
1
10
10.084656
20
20.066795
0
VERTEX
8
1
10
9.689713
20
20.142586
0
VERTEX
8
1
10
9.383728
20
19.793304
0
VERTEX
8
1
10
9.382843
20
19.792763
0
VERTEX
8
1
10
9.389099
20
20.238327
0
VERTEX
8
1
10
9.388184
20
20.239082
0
VERTEX
8
1
10
9.101929
20
20.342499
0
VERTEX
8
1
10
9.389069
20
20.540550
42
0.021143
0
VERTEX
8
1
10
8.336258
20
20.552673
0
VERTEX
8
1
10
8.214462
20
20.385330
0
VERTEX
8
1
10
8.214096
20
20.384460
0
VERTEX
8
1
10
8.404984
20
20.023674
0
VERTEX
8
1
10
8.404343
20
20.023315
0
VERTEX
8
1
10
8.005463
20
20.103989
0
VERTEX
8
1
10
8.003830
20
20.102150
0
VERTEX
8
1
10
7.699036
20
19.739326
0
VERTEX
8
1
10
7.705246
20
20.203491
0
VERTEX
8
1
10
7.704971
20
20.205002
0
VERTEX
8
1
10
7.414032
20
20.315132
0
VERTEX
8
1
10
7.414597
20
20.315849
0
VERTEX
8
1
10
7.693100
20
20.516144
42
0.013230
0
VERTEX
8
1
10
7.044647
20
20.445251
0
VERTEX
8
1
10
7.036011
20
20.455147
0
VERTEX
8
1
10
7.437653
20
20.970642
0
VERTEX
8
1
10
7.360657
20
20.997986
42
0.098137
0
VERTEX
8
1
10
5.159622
20
21.071907
0
VERTEX
8
1
10
5.488007
20
21.394974
0
VERTEX
8
1
10
5.469788
20
21.401489
42
0.040275
0
VERTEX
8
1
10
2.745590
20
20.633797
42
0.027878
0
VERTEX
8
1
10
0.401283
20
19.624229
0
VERTEX
8
1
10
0.352867
20
19.545929
42
0.089567
0
VERTEX
8
1
10
0.232147
20
18.903145
0
VERTEX
8
1
10
0.231232
20
18.805939
0
VERTEX
8
1
10
0.233604
20
18.707977
42
0.043956
0
VERTEX
8
1
10
0.377258
20
17.739807
0
VERTEX
8
1
10
0.521080
20
17.934067
0
VERTEX
8
1
10
0.546143
20
17.907310
42
-0.203907
0
VERTEX
8
1
10
0.832367
20
15.745705
42
0.081631
0
VERTEX
8
1
10
0.785362
20
15.344582
42
0.127931
0
VERTEX
8
1
10
0.913147
20
15.016083
42
-0.013190
0
VERTEX
8
1
10
1.107025
20
14.730309
42
-0.144479
0
VERTEX
8
1
10
1.192749
20
14.398262
42
-0.131421
0
VERTEX
8
1
10
1.139801
20
14.243820
0
VERTEX
8
1
10
1.150307
20
14.234673
42
0.173010
0
VERTEX
8
1
10
1.861877
20
14.652046
0
VERTEX
8
1
10
1.867271
20
14.630020
42
0.127766
0
VERTEX
8
1
10
2.037201
20
13.748688
42
-0.124970
0
VERTEX
8
1
10
2.083656
20
13.531151
42
-0.165989
0
VERTEX
8
1
10
2.023148
20
13.405113
0
VERTEX
8
1
10
2.254593
20
13.421860
0
VERTEX
8
1
10
1.986771
20
12.981911
0
VERTEX
8
1
10
1.986130
20
12.980103
0
VERTEX
8
1
10
2.182892
20
12.549553
0
VERTEX
8
1
10
2.181877
20
12.549347
0
VERTEX
8
1
10
1.770988
20
12.635208
0
VERTEX
8
1
10
1.770065
20
12.633957
0
VERTEX
8
1
10
1.624199
20
12.426682
42
0.054862
0
VERTEX
8
1
10
1.739326
20
11.921951
0
VERTEX
8
1
10
1.781364
20
11.788841
42
-0.039057
0
VERTEX
8
1
10
1.918747
20
11.250870
42
-0.115399
0
VERTEX
8
1
10
1.889053
20
10.718597
0
VERTEX
8
1
10
1.920860
20
10.709862
0
VERTEX
8
1
10
2.504692
20
10.564964
0
VERTEX
8
1
10
2.519096
20
10.548561
42
0.079878
0
VERTEX
8
1
10
2.198837
20
10.088966
42
0.147602
0
VERTEX
8
1
10
2.146225
20
9.737167
0
VERTEX
8
1
10
2.158394
20
9.687508
0
VERTEX
8
1
10
2.176498
20
9.638336
42
0.103381
0
VERTEX
8
1
10
2.363335
20
9.399529
0
VERTEX
8
1
10
2.377647
20
9.386269
42
-0.019684
0
VERTEX
8
1
10
3.501541
20
9.638824
0
VERTEX
8
1
10
3.051025
20
9.780739
0
VERTEX
8
1
10
3.089661
20
9.802811
0
VERTEX
8
1
10
3.246567
20
9.847229
42
-0.031281
0
VERTEX
8
1
10
4.058929
20
9.994278
42
0.020509
0
VERTEX
8
1
10
5.034424
20
10.146088
42
0.067284
0
VERTEX
8
1
10
5.780472
20
10.408081
0
VERTEX
8
1
10
5.916885
20
10.488029
0
VERTEX
8
1
10
6.047943
20
10.579643
0
VERTEX
8
1
10
6.081131
20
10.622627
42
-0.310130
0
VERTEX
8
1
10
5.988464
20
10.774101
42
-0.258790
0
VERTEX
8
1
10
6.100601
20
10.994247
42
-0.224690
0
VERTEX
8
1
10
6.396851
20
10.996063
42
-0.092141
0
VERTEX
8
1
10
6.684082
20
10.798355
42
0.064181
0
VERTEX
8
1
10
6.947647
20
10.598602
42
0.139221
0
VERTEX
8
1
10
7.291687
20
10.543297
42
0.015597
0
VERTEX
8
1
10
7.431015
20
10.558022
0
VERTEX
8
1
10
8.397934
20
10.687576
0
VERTEX
8
1
10
8.349258
20
10.667397
0
VERTEX
8
1
10
7.440643
20
10.295296
0
VERTEX
8
1
10
7.415268
20
10.262772
42
0.140694
0
VERTEX
8
1
10
7.929230
20
9.879112
42
0.096966
0
VERTEX
8
1
10
8.756775
20
9.742020
42
0.023802
0
VERTEX
8
1
10
9.506485
20
9.804939
42
-0.041591
0
VERTEX
8
1
10
10.252121
20
9.836929
42
-0.028464
0
VERTEX
8
1
10
10.498245
20
9.807114
0
VERTEX
8
1
10
10.436996
20
9.783562
42
-0.026422
0
VERTEX
8
1
10
9.353287
20
9.543350
42
-0.069234
0
VERTEX
8
1
10
8.218582
20
9.524826
42
0.042784
0
VERTEX
8
1
10
7.700638
20
9.539841
42
0.094562
0
VERTEX
8
1
10
6.987015
20
9.328217
42
0.033819
0
VERTEX
8
1
10
6.318527
20
8.924683
0
VERTEX
8
1
10
6.312180
20
8.898483
42
-0.260999
0
VERTEX
8
1
10
6.431335
20
8.685440
42
-0.265050
0
VERTEX
8
1
10
6.213882
20
8.271263
42
-0.036452
0
VERTEX
8
1
10
5.881714
20
8.089218
42
0.086100
0
VERTEX
8
1
10
5.527267
20
7.821609
42
-0.090650
0
VERTEX
8
1
10
5.265137
20
7.630165
42
-0.352585
0
VERTEX
8
1
10
4.631744
20
7.835091
0
VERTEX
8
1
10
4.665741
20
7.882378
42
0.005941
0
VERTEX
8
1
10
5.575668
20
8.739227
42
0.005547
0
VERTEX
8
1
10
5.739548
20
8.905594
42
-0.087689
0
VERTEX
8
1
10
5.591263
20
9.029221
42
-0.285124
0
VERTEX
8
1
10
5.576447
20
9.181808
42
-0.097500
0
VERTEX
8
1
10
5.692841
20
9.324654
42
0.030286
0
VERTEX
8
1
10
5.915985
20
9.529770
42
0.141814
0
VERTEX
8
1
10
5.968048
20
9.638863
0
VERTEX
8
1
10
5.967804
20
9.693497
0
VERTEX
8
1
10
5.952667
20
9.736839
0
VERTEX
8
1
10
5.924103
20
9.769798
0
VERTEX
8
1
10
5.883530
20
9.793251
0
VERTEX
8
1
10
5.832382
20
9.808075
42
0.082289
0
VERTEX
8
1
10
5.551178
20
9.799110
42
0.029875
0
VERTEX
8
1
10
5.058472
20
9.678741
42
-0.027903
0
VERTEX
8
1
10
4.741211
20
9.594086
0
VERTEX
8
1
10
2.628563
20
9.152687
0
VERTEX
8
1
10
2.608856
20
9.142380
42
-0.095249
0
VERTEX
8
1
10
2.663513
20
9.005852
0
VERTEX
8
1
10
2.667755
20
8.997375
0
VERTEX
8
1
10
2.712997
20
8.985741
42
-0.342582
0
VERTEX
8
1
10
3.145508
20
8.339577
42
-0.084101
0
VERTEX
8
1
10
3.040741
20
8.018486
0
VERTEX
8
1
10
2.621651
20
7.109871
42
0.009893
0
VERTEX
8
1
10
2.188881
20
6.146461
42
0.050543
0
VERTEX
8
1
10
1.944962
20
5.351479
42
0.053097
0
VERTEX
8
1
10
1.903778
20
4.839890
0
VERTEX
8
1
10
1.911873
20
4.755043
42
-0.145356
0
VERTEX
8
1
10
2.224617
20
4.895752
0
VERTEX
8
1
10
2.252426
20
4.896370
0
VERTEX
8
1
10
2.278923
20
4.894096
42
-0.381496
0
VERTEX
8
1
10
2.408760
20
4.740631
42
-0.046244
0
VERTEX
8
1
10
2.401390
20
4.661331
0
VERTEX
8
1
10
2.177620
20
3.300201
0
VERTEX
8
1
10
2.096870
20
3.243073
42
0.033094
0
VERTEX
8
1
10
1.451447
20
2.749474
42
0.086378
0
VERTEX
8
1
10
0.953484
20
2.138107
0
VERTEX
8
1
10
0.909645
20
2.050079
0
VERTEX
8
1
10
0.870949
20
1.959030
0
VERTEX
8
1
10
0.855537
20
1.886948
42
0.086670
0
VERTEX
8
1
10
1.668213
20
1.963608
0
VERTEX
8
1
10
1.687119
20
1.949631
42
-0.166814
0
VERTEX
8
1
10
1.400398
20
1.293587
0
VERTEX
8
1
10
1.403549
20
1.271957
42
-0.262982
0
VERTEX
8
1
10
1.388168
20
0.860870
42
-0.069987
0
VERTEX
8
1
10
1.751831
20
0.890343
42
-0.282478
0
VERTEX
8
1
10
2.094383
20
0.652313
42
-0.143456
0
VERTEX
8
1
10
2.107285
20
0.513741
0
VERTEX
8
1
10
2.115044
20
0.496910
0
VERTEX
8
1
10
2.188141
20
0.514221
0
VERTEX
8
1
10
2.326462
20
0.565666
0
VERTEX
8
1
10
2.523529
20
0.647964
0
VERTEX
8
1
10
2.772873
20
0.757797
0
VERTEX
8
1
10
3.068054
20
0.891876
0
VERTEX
8
1
10
3.402634
20
1.046890
0
VERTEX
8
1
10
3.770111
20
1.219551
42
0.003136
0
VERTEX
8
1
10
8.397385
20
3.465691
42
-0.002683
0
VERTEX
8
1
10
8.849655
20
3.683418
42
0.034019
0
VERTEX
8
1
10
9.281647
20
4.119873
0
VERTEX
8
1
10
9.238861
20
4.117714
0
VERTEX
8
1
10
6.732727
20
3.369308
0
VERTEX
8
1
10
6.814377
20
3.433289
42
-0.067705
0
VERTEX
8
1
10
10.441940
20
5.032188
42
0.083066
0
VERTEX
8
1
10
11.188660
20
5.595276
0
VERTEX
8
1
10
11.188431
20
5.623619
0
VERTEX
8
1
10
9.078491
20
5.694298
0
VERTEX
8
1
10
9.021439
20
5.721687
42
-0.206851
0
VERTEX
8
1
10
9.117508
20
5.975082
0
VERTEX
8
1
10
9.151459
20
6.008850
42
-0.107889
0
VERTEX
8
1
10
9.527481
20
6.200897
42
-0.039161
0
VERTEX
8
1
10
9.873596
20
6.272339
42
0.034829
0
VERTEX
8
1
10
12.834885
20
6.987915
42
0.043888
0
VERTEX
8
1
10
11.832031
20
7.342033
0
VERTEX
8
1
10
11.806122
20
7.363724
42
-0.121879
0
VERTEX
8
1
10
12.054932
20
7.521675
42
-0.025835
0
VERTEX
8
1
10
12.458832
20
7.626106
0
VERTEX
8
1
10
12.509766
20
7.639587
0
VERTEX
8
1
10
12.559998
20
7.654503
42
0.199730
0
VERTEX
8
1
10
13.039886
20
8.036507
42
0.086006
0
VERTEX
8
1
10
13.223480
20
8.579788
42
0.021776
0
VERTEX
8
1
10
13.271744
20
8.943367
0
VERTEX
8
1
10
13.291245
20
8.908150
0
VERTEX
8
1
10
13.677170
20
7.979507
0
VERTEX
8
1
10
13.718491
20
7.938385
42
-0.081997
0
VERTEX
8
1
10
16.865036
20
7.869789
0
VERTEX
8
1
10
16.932785
20
7.845970
0
VERTEX
8
1
10
15.616119
20
7.604950
0
VERTEX
8
1
10
15.601563
20
7.567650
42
0.215130
0
VERTEX
8
1
10
15.852203
20
7.280930
42
0.220550
0
VERTEX
8
1
10
16.281113
20
7.263802
0
VERTEX
8
1
10
16.324188
20
7.287064
0
VERTEX
8
1
10
16.364594
20
7.316010
42
-0.116460
0
VERTEX
8
1
10
15.416016
20
6.837616
0
VERTEX
8
1
10
15.439545
20
6.812454
0
VERTEX
8
1
10
15.738815
20
6.747887
42
0.037979
0
VERTEX
8
1
10
18.893372
20
6.379211
42
0.026473
0
VERTEX
8
1
10
19.326462
20
6.385757
0
VERTEX
8
1
10
19.393616
20
6.397987
0
VERTEX
8
1
10
19.416061
20
6.415215
0
VERTEX
8
1
10
19.390167
20
6.437431
0
VERTEX
8
1
10
19.312271
20
6.464615
0
VERTEX
8
1
10
19.350677
20
6.508385
42
-0.067985
0
VERTEX
8
1
10
21.696609
20
6.857399
42
-0.028879
0
VERTEX
8
1
10
23.401382
20
6.778069
0
VERTEX
8
1
10
23.734146
20
6.742935
0
VERTEX
8
1
10
24.083282
20
6.701096
0
VERTEX
8
1
10
24.142822
20
6.759239
0
VERTEX
8
1
10
24.099625
20
6.841103
0
VERTEX
8
1
10
24.041946
20
6.915443
0
VERTEX
8
1
10
23.971024
20
6.982887
42
0.081489
0
VERTEX
8
1
10
23.579880
20
7.195381
42
0.033060
0
VERTEX
8
1
10
22.807831
20
7.407967
42
-0.017042
0
VERTEX
8
1
10
22.166077
20
7.569710
0
VERTEX
8
1
10
22.067734
20
7.606659
42
-0.031596
0
VERTEX
8
1
10
23.000381
20
7.618187
42
-0.012505
0
VERTEX
8
1
10
24.411224
20
7.500946
42
0.019835
0
VERTEX
8
1
10
25.571167
20
7.428070
42
0.039504
0
VERTEX
8
1
10
26.471420
20
7.482948
0
VERTEX
8
1
10
26.567719
20
7.535713
0
VERTEX
8
1
10
26.395615
20
7.622826
42
0.013674
0
VERTEX
8
1
10
23.767288
20
8.832138
42
0.000414
0
VERTEX
8
1
10
23.236130
20
9.062096
0
VERTEX
8
1
10
23.440826
20
9.019150
42
0.003869
0
VERTEX
8
1
10
25.664108
20
8.427780
0
VERTEX
8
1
10
25.961624
20
8.354889
42
0.033870
0
VERTEX
8
1
10
28.309723
20
7.948898
42
0.009636
0
VERTEX
8
1
10
29.877945
20
7.813820
0
VERTEX
8
1
10
29.901703
20
7.830673
42
-0.034637
0
VERTEX
8
1
10
29.046082
20
8.360352
42
0.080599
0
VERTEX
8
1
10
33.821640
20
8.550346
42
-0.076950
0
VERTEX
8
1
10
31.049667
20
9.118736
0
SEQEND
0
POLYLINE
8
1
66
1
70
1
0
VERTEX
8
1
10
13.236206
20
20.069397
0
VERTEX
8
1
10
13.249680
20
20.081116
0
VERTEX
8
1
10
13.270645
20
20.297829
0
VERTEX
8
1
10
13.429153
20
19.378464
0
VERTEX
8
1
10
13.236160
20
19.166985
0
VERTEX
8
1
10
13.244186
20
19.713547
0
VERTEX
8
1
10
12.884689
20
19.836151
0
SEQEND
0
POLYLINE
8
1
66
1
70
1
0
VERTEX
8
1
10
10.305374
20
19.237030
0
VERTEX
8
1
10
10.371338
20
19.638947
0
VERTEX
8
1
10
10.590439
20
19.377831
0
VERTEX
8
1
10
10.992218
20
19.394859
0
VERTEX
8
1
10
10.722015
20
19.062553
0
VERTEX
8
1
10
10.898026
20
18.725609
0
VERTEX
8
1
10
10.502106
20
18.797173
0
VERTEX
8
1
10
10.183548
20
18.453430
0
VERTEX
8
1
10
10.208420
20
18.887856
0
VERTEX
8
1
10
9.928757
20
18.986343
0
SEQEND
0
POLYLINE
8
1
66
1
70
1
0
VERTEX
8
1
10
11.491989
20
18.489952
42
-0.000032
0
VERTEX
8
1
10
11.854797
20
18.527527
0
VERTEX
8
1
10
11.872849
20
18.828865
0
VERTEX
8
1
10
11.598236
20
18.919266
0
VERTEX
8
1
10
11.969284
20
19.157875
0
VERTEX
8
1
10
12.035507
20
19.543549
0
VERTEX
8
1
10
12.255783
20
19.294281
0
VERTEX
8
1
10
12.652054
20
19.312950
0
VERTEX
8
1
10
12.385193
20
18.997917
0
VERTEX
8
1
10
12.560074
20
18.679726
0
VERTEX
8
1
10
12.166656
20
18.744591
0
VERTEX
8
1
10
11.969559
20
18.539909
42
0.005013
0
VERTEX
8
1
10
12.178345
20
18.564880
42
-0.029044
0
VERTEX
8
1
10
11.979553
20
18.376976
42
-0.138355
0
VERTEX
8
1
10
14.939957
20
18.192299
42
-0.037907
0
VERTEX
8
1
10
14.111694
20
18.219124
42
0.048774
0
VERTEX
8
1
10
18.177643
20
17.247711
0
VERTEX
8
1
10
18.152039
20
17.242493
42
-0.073904
0
VERTEX
8
1
10
17.628799
20
17.242004
0
VERTEX
8
1
10
17.602570
20
17.244888
0
VERTEX
8
1
10
17.576370
20
17.247871
0
VERTEX
8
1
10
13.320053
20
17.737091
42
0.136728
0
VERTEX
8
1
10
13.652939
20
18.070892
0
VERTEX
8
1
10
13.629517
20
18.046249
0
VERTEX
8
1
10
13.589172
20
18.024712
42
-0.065442
0
VERTEX
8
1
10
13.287704
20
17.965813
0
VERTEX
8
1
10
13.184616
20
17.957024
0
VERTEX
8
1
10
13.073380
20
17.950249
0
VERTEX
8
1
10
12.955429
20
17.945305
42
-0.016328
0
VERTEX
8
1
10
11.419662
20
17.967911
0
VERTEX
8
1
10
11.376709
20
17.968910
42
-0.003658
0
VERTEX
8
1
10
10.525116
20
17.963142
42
-0.056382
0
VERTEX
8
1
10
9.887985
20
18.037865
42
-0.040699
0
VERTEX
8
1
10
9.713409
20
18.099693
42
-0.064501
0
VERTEX
8
1
10
10.348038
20
18.319221
42
-0.029314
0
SEQEND
0
POLYLINE
8
1
66
1
70
1
0
VERTEX
8
1
10
13.024979
20
17.166351
0
VERTEX
8
1
10
13.424454
20
17.489189
0
VERTEX
8
1
10
13.447144
20
17.661644
0
VERTEX
8
1
10
13.576553
20
16.851532
0
VERTEX
8
1
10
13.300735
20
16.486923
0
VERTEX
8
1
10
13.325409
20
17.027290
0
SEQEND
0
POLYLINE
8
1
66
1
70
1
0
VERTEX
8
1
10
12.828247
20
15.566521
0
VERTEX
8
1
10
12.437317
20
15.641357
0
VERTEX
8
1
10
12.106628
20
15.318436
0
VERTEX
8
1
10
12.149796
20
15.732620
0
VERTEX
8
1
10
11.879913
20
15.830261
0
VERTEX
8
1
10
12.260818
20
16.060493
0
VERTEX
8
1
10
12.344345
20
16.446022
0
VERTEX
8
1
10
12.552994
20
16.190811
0
VERTEX
8
1
10
12.947342
20
16.200211
0
VERTEX
8
1
10
12.667770
20
15.891609
0
SEQEND
0
POLYLINE
8
1
66
1
70
1
0
VERTEX
8
1
10
11.132050
20
17.190178
0
VERTEX
8
1
10
11.505920
20
17.422058
0
VERTEX
8
1
10
11.571564
20
17.810951
0
VERTEX
8
1
10
11.790527
20
17.549950
0
VERTEX
8
1
10
12.192169
20
17.554626
0
VERTEX
8
1
10
11.922272
20
17.238846
0
VERTEX
8
1
10
12.096558
20
16.908577
0
VERTEX
8
1
10
11.704834
20
16.989052
0
VERTEX
8
1
10
11.384506
20
16.661049
0
VERTEX
8
1
10
11.409409
20
17.086739
0
SEQEND
0
POLYLINE
8
1
66
1
70
1
0
VERTEX
8
1
10
11.174271
20
15.653877
0
VERTEX
8
1
10
10.781311
20
15.736404
0
VERTEX
8
1
10
10.450439
20
15.401367
0
VERTEX
8
1
10
10.493607
20
15.834808
0
VERTEX
8
1
10
10.218811
20
15.941322
0
VERTEX
8
1
10
10.605377
20
16.182426
0
VERTEX
8
1
10
10.688599
20
16.583641
0
VERTEX
8
1
10
10.896057
20
16.316261
0
VERTEX
8
1
10
11.296249
20
16.322884
0
VERTEX
8
1
10
11.012909
20
15.997749
0
SEQEND
0
POLYLINE
8
1
66
1
70
1
0
VERTEX
8
1
10
9.830536
20
17.565292
0
VERTEX
8
1
10
9.895981
20
17.970512
0
VERTEX
8
1
10
10.113770
20
17.697708
0
VERTEX
8
1
10
10.520630
20
17.700485
0
VERTEX
8
1
10
10.247559
20
17.367447
0
VERTEX
8
1
10
10.423019
20
17.018272
0
VERTEX
8
1
10
10.028793
20
17.105560
0
VERTEX
8
1
10
9.708633
20
16.764641
0
VERTEX
8
1
10
9.733536
20
17.209755
0
VERTEX
8
1
10
9.451340
20
17.321518
0
SEQEND
0
POLYLINE
8
1
66
1
70
1
0
VERTEX
8
1
10
8.622437
20
19.211647
0
VERTEX
8
1
10
8.688232
20
19.630318
0
VERTEX
8
1
10
8.906265
20
19.357903
0
VERTEX
8
1
10
9.312897
20
19.374428
0
VERTEX
8
1
10
9.039688
20
19.024063
0
VERTEX
8
1
10
9.216904
20
18.668434
0
VERTEX
8
1
10
8.818405
20
18.745621
0
VERTEX
8
1
10
8.500137
20
18.388145
0
VERTEX
8
1
10
8.524994
20
18.841881
0
VERTEX
8
1
10
8.240753
20
18.947655
0
SEQEND
0
POLYLINE
8
1
66
1
70
1
0
VERTEX
8
1
10
8.148560
20
17.601540
0
VERTEX
8
1
10
8.213791
20
18.023438
0
VERTEX
8
1
10
8.430603
20
17.739365
0
VERTEX
8
1
10
8.842056
20
17.741478
0
VERTEX
8
1
10
8.566177
20
17.390480
0
VERTEX
8
1
10
8.742783
20
17.022690
0
VERTEX
8
1
10
8.346008
20
17.115654
0
VERTEX
8
1
10
8.026199
20
16.760994
0
VERTEX
8
1
10
8.051071
20
17.225395
0
VERTEX
8
1
10
7.764511
20
17.344666
0
SEQEND
0
POLYLINE
8
1
66
1
70
1
0
VERTEX
8
1
10
7.081665
20
19.511658
0
VERTEX
8
1
10
7.298767
20
19.229012
0
VERTEX
8
1
10
7.709427
20
19.246170
0
VERTEX
8
1
10
7.433762
20
18.877960
0
VERTEX
8
1
10
7.612076
20
18.504799
0
VERTEX
8
1
10
7.211121
20
18.586266
0
VERTEX
8
1
10
6.893311
20
18.214973
0
VERTEX
8
1
10
6.918152
20
18.686951
0
VERTEX
8
1
10
6.629913
20
18.798912
0
VERTEX
8
1
10
7.015991
20
19.076637
0
SEQEND
0
POLYLINE
8
1
66
1
70
1
0
VERTEX
8
1
10
7.058044
20
16.949203
0
VERTEX
8
1
10
6.658813
20
17.047096
0
VERTEX
8
1
10
6.339493
20
16.678123
0
VERTEX
8
1
10
6.364319
20
17.161827
0
VERTEX
8
1
10
6.073792
20
17.287949
0
VERTEX
8
1
10
6.462219
20
17.558678
0
VERTEX
8
1
10
6.527328
20
17.997551
0
VERTEX
8
1
10
6.743164
20
17.702690
0
VERTEX
8
1
10
7.158737
20
17.704933
0
VERTEX
8
1
10
6.880371
20
17.335426
0
SEQEND
0
POLYLINE
8
1
66
1
70
1
0
VERTEX
8
1
10
6.102982
20
20.487381
0
VERTEX
8
1
10
6.151047
20
20.928391
0
VERTEX
8
1
10
6.378128
20
20.640549
0
VERTEX
8
1
10
6.794098
20
20.656197
0
VERTEX
8
1
10
6.529938
20
20.277290
0
VERTEX
8
1
10
6.722641
20
19.897522
0
VERTEX
8
1
10
6.319839
20
19.982277
0
VERTEX
8
1
10
6.014114
20
19.602737
0
VERTEX
8
1
10
6.020370
20
20.087257
0
VERTEX
8
1
10
5.724854
20
20.203606
0
SEQEND
0
POLYLINE
8
1
66
1
70
1
0
VERTEX
8
1
10
4.415375
20
20.148491
0
VERTEX
8
1
10
4.463440
20
20.607498
0
VERTEX
8
1
10
4.689880
20
20.310318
0
VERTEX
8
1
10
5.108826
20
20.329628
0
VERTEX
8
1
10
4.842911
20
19.930542
0
VERTEX
8
1
10
5.037079
20
19.533234
0
VERTEX
8
1
10
4.631226
20
19.619720
0
VERTEX
8
1
10
4.326309
20
19.223953
0
VERTEX
8
1
10
4.332565
20
19.727051
0
VERTEX
8
1
10
4.033447
20
19.847687
0
SEQEND
0
POLYLINE
8
1
66
1
70
1
0
VERTEX
8
1
10
2.726578
20
19.682991
0
VERTEX
8
1
10
2.774597
20
20.160416
0
VERTEX
8
1
10
3.000458
20
19.854309
0
VERTEX
8
1
10
3.421997
20
19.878220
0
VERTEX
8
1
10
3.154526
20
19.458588
0
VERTEX
8
1
10
3.350159
20
19.043861
0
VERTEX
8
1
10
2.941269
20
19.131203
0
VERTEX
8
1
10
2.637299
20
18.718727
0
VERTEX
8
1
10
2.643509
20
19.240204
0
VERTEX
8
1
10
2.341156
20
19.364372
0
SEQEND
0
POLYLINE
8
1
66
1
70
1
0
VERTEX
8
1
10
1.739769
20
17.515167
0
VERTEX
8
1
10
2.134460
20
17.839157
0
VERTEX
8
1
10
2.199493
20
18.323265
0
VERTEX
8
1
10
2.200211
20
18.325798
0
VERTEX
8
1
10
2.414612
20
18.016472
0
VERTEX
8
1
10
2.417374
20
18.016106
0
VERTEX
8
1
10
2.834778
20
18.042442
0
VERTEX
8
1
10
2.603920
20
17.692657
0
VERTEX
8
1
10
2.603607
20
17.690987
42
0.020405
0
VERTEX
8
1
10
2.776382
20
17.791794
42
0.065335
0
VERTEX
8
1
10
3.049408
20
18.057076
42
-0.052042
0
VERTEX
8
1
10
3.317291
20
18.324348
42
-0.077776
0
VERTEX
8
1
10
3.624451
20
18.474770
42
0.000861
0
VERTEX
8
1
10
3.702774
20
18.501770
0
VERTEX
8
1
10
3.751144
20
18.849083
0
VERTEX
8
1
10
3.752213
20
18.848488
0
VERTEX
8
1
10
3.945053
20
18.578331
42
-0.011393
0
VERTEX
8
1
10
5.142776
20
18.892097
0
VERTEX
8
1
10
5.235062
20
18.915710
0
VERTEX
8
1
10
5.303558
20
18.933769
0
VERTEX
8
1
10
5.346512
20
19.230766
0
VERTEX
8
1
10
5.347427
20
19.230385
0
VERTEX
8
1
10
5.523972
20
18.991295
42
-0.183170
0
VERTEX
8
1
10
5.687592
20
18.968742
42
-0.102821
0
VERTEX
8
1
10
5.708878
20
18.945335
0
VERTEX
8
1
10
5.976593
20
18.957802
0
VERTEX
8
1
10
5.976135
20
18.956200
0
VERTEX
8
1
10
5.699371
20
18.569656
42
0.007588
0
VERTEX
8
1
10
5.878616
20
18.177948
0
VERTEX
8
1
10
5.476395
20
18.262405
0
VERTEX
8
1
10
5.474503
20
18.261803
0
VERTEX
8
1
10
5.294815
20
18.042526
42
-0.211681
0
VERTEX
8
1
10
5.558624
20
17.723900
0
VERTEX
8
1
10
5.556137
20
17.698708
0
VERTEX
8
1
10
4.924271
20
17.633896
0
VERTEX
8
1
10
4.902725
20
17.630913
0
VERTEX
8
1
10
5.044266
20
17.430428
42
0.009234
0
VERTEX
8
1
10
5.463150
20
17.434868
0
VERTEX
8
1
10
5.183792
20
17.047127
0
VERTEX
8
1
10
5.183365
20
17.044434
0
VERTEX
8
1
10
5.361603
20
16.641632
0
VERTEX
8
1
10
5.358109
20
16.642334
0
VERTEX
8
1
10
4.963745
20
16.741249
0
VERTEX
8
1
10
4.959671
20
16.742149
0
VERTEX
8
1
10
4.642319
20
16.358932
0
VERTEX
8
1
10
4.641159
20
16.358917
0
VERTEX
8
1
10
4.665878
20
16.859848
0
VERTEX
8
1
10
4.663422
20
16.861267
0
VERTEX
8
1
10
4.374802
20
16.990250
0
VERTEX
8
1
10
4.371811
20
16.991676
0
VERTEX
8
1
10
4.762543
20
17.277184
0
VERTEX
8
1
10
4.764328
20
17.279312
0
VERTEX
8
1
10
4.813171
20
17.622246
42
-0.010154
0
VERTEX
8
1
10
4.209457
20
17.565346
42
-0.081150
0
VERTEX
8
1
10
3.694092
20
17.606285
0
VERTEX
8
1
10
3.562500
20
17.439110
0
VERTEX
8
1
10
3.562454
20
17.440521
0
VERTEX
8
1
10
3.572495
20
17.646629
0
VERTEX
8
1
10
3.571884
20
17.649376
42
0.123259
0
VERTEX
8
1
10
3.408051
20
17.692657
42
0.156637
0
VERTEX
8
1
10
3.238907
20
17.604691
42
-0.086751
0
VERTEX
8
1
10
2.803955
20
17.329216
42
-0.037512
0
VERTEX
8
1
10
2.690430
20
17.296234
0
VERTEX
8
1
10
2.734985
20
17.192215
0
VERTEX
8
1
10
2.734451
20
17.191818
0
VERTEX
8
1
10
2.327042
20
17.279144
0
VERTEX
8
1
10
2.324471
20
17.276505
0
VERTEX
8
1
10
2.010788
20
16.861649
0
VERTEX
8
1
10
2.035347
20
17.384811
0
VERTEX
8
1
10
2.034981
20
17.388046
0
VERTEX
8
1
10
1.737762
20
17.512978
0
SEQEND
0
POLYLINE
8
1
66
1
70
1
0
VERTEX
8
1
10
4.545395
20
14.886162
0
VERTEX
8
1
10
4.143723
20
14.988075
0
VERTEX
8
1
10
3.813995
20
14.596649
0
VERTEX
8
1
10
3.857132
20
15.106117
0
VERTEX
8
1
10
3.566864
20
15.239708
0
VERTEX
8
1
10
3.971237
20
15.535439
0
VERTEX
8
1
10
4.053589
20
16.003395
0
VERTEX
8
1
10
4.257324
20
15.693390
0
VERTEX
8
1
10
4.674530
20
15.700684
0
VERTEX
8
1
10
4.380371
20
15.302528
0
SEQEND
0
POLYLINE
8
1
66
1
70
1
0
VERTEX
8
1
10
2.665176
20
16.572166
0
VERTEX
8
1
10
3.061295
20
16.875931
0
VERTEX
8
1
10
3.126251
20
17.350769
0
VERTEX
8
1
10
3.340652
20
17.036591
0
VERTEX
8
1
10
3.762497
20
17.044701
0
VERTEX
8
1
10
3.480270
20
16.635017
0
VERTEX
8
1
10
3.660400
20
16.212822
0
VERTEX
8
1
10
3.255737
20
16.315651
0
VERTEX
8
1
10
2.937851
20
15.914467
0
VERTEX
8
1
10
2.962601
20
16.436142
0
SEQEND
0
POLYLINE
8
1
66
1
70
1
0
VERTEX
8
1
10
0.646538
20
18.612610
0
VERTEX
8
1
10
1.035110
20
18.951042
0
VERTEX
8
1
10
1.083153
20
19.447540
0
VERTEX
8
1
10
1.308594
20
19.133461
0
VERTEX
8
1
10
1.732147
20
19.164101
0
VERTEX
8
1
10
1.463470
20
18.722801
0
VERTEX
8
1
10
1.660652
20
18.291321
0
VERTEX
8
1
10
1.248512
20
18.377457
0
VERTEX
8
1
10
0.945587
20
17.947037
0
VERTEX
8
1
10
0.951797
20
18.486519
0
SEQEND
0
POLYLINE
8
1
66
1
70
1
0
VERTEX
8
1
10
1.540810
20
15.627815
0
VERTEX
8
1
10
1.223938
20
15.208946
0
VERTEX
8
1
10
1.248627
20
15.749298
0
VERTEX
8
1
10
0.948189
20
15.888351
0
VERTEX
8
1
10
1.347649
20
16.211197
0
VERTEX
8
1
10
1.412613
20
16.705070
0
VERTEX
8
1
10
1.626518
20
16.382240
0
VERTEX
8
1
10
2.050697
20
16.395920
0
VERTEX
8
1
10
1.766945
20
15.964622
0
VERTEX
8
1
10
1.948387
20
15.524963
0
SEQEND
0
POLYLINE
8
1
66
1
70
1
0
VERTEX
8
1
10
2.247757
20
14.077103
0
VERTEX
8
1
10
2.290817
20
14.604073
0
VERTEX
8
1
10
1.997673
20
14.741982
0
VERTEX
8
1
10
2.405388
20
15.053307
0
VERTEX
8
1
10
2.487640
20
15.538063
0
VERTEX
8
1
10
2.690781
20
15.219261
0
VERTEX
8
1
10
3.110733
20
15.229652
0
VERTEX
8
1
10
2.814758
20
14.812599
0
VERTEX
8
1
10
2.980682
20
14.379730
0
VERTEX
8
1
10
2.576813
20
14.483597
0
SEQEND
0
POLYLINE
8
1
66
1
70
1
0
VERTEX
8
1
10
3.257690
20
11.449440
0
VERTEX
8
1
10
2.849014
20
11.537033
0
VERTEX
8
1
10
2.533264
20
11.119423
0
VERTEX
8
1
10
2.557961
20
11.645569
0
VERTEX
8
1
10
2.259789
20
11.770943
0
VERTEX
8
1
10
2.656906
20
12.096947
0
VERTEX
8
1
10
2.722351
20
12.584061
0
VERTEX
8
1
10
2.937439
20
12.273750
0
VERTEX
8
1
10
3.357239
20
12.300232
0
VERTEX
8
1
10
3.075882
20
11.873909
0
SEQEND
0
POLYLINE
8
1
66
1
70
1
0
VERTEX
8
1
10
4.807556
20
12.012161
0
VERTEX
8
1
10
4.401367
20
12.098915
0
VERTEX
8
1
10
4.084839
20
11.696732
0
VERTEX
8
1
10
4.109619
20
12.205894
0
VERTEX
8
1
10
3.814285
20
12.327858
0
VERTEX
8
1
10
4.208206
20
12.637428
0
VERTEX
8
1
10
4.273712
20
13.107582
0
VERTEX
8
1
10
4.489349
20
12.805542
0
VERTEX
8
1
10
4.906677
20
12.827850
0
VERTEX
8
1
10
4.626862
20
12.420647
0
SEQEND
0
POLYLINE
8
1
66
1
70
1
0
VERTEX
8
1
10
6.401352
20
12.435692
0
VERTEX
8
1
10
5.997665
20
12.520424
0
VERTEX
8
1
10
5.680481
20
12.133347
0
VERTEX
8
1
10
5.705261
20
12.624733
0
VERTEX
8
1
10
5.413193
20
12.742332
0
VERTEX
8
1
10
5.803574
20
13.036110
0
VERTEX
8
1
10
5.869080
20
13.489265
0
VERTEX
8
1
10
6.085388
20
13.196304
0
VERTEX
8
1
10
6.499771
20
13.215607
0
VERTEX
8
1
10
6.221802
20
12.827354
0
SEQEND
0
POLYLINE
8
1
66
1
70
1
0
VERTEX
8
1
10
8.134537
20
12.762581
0
VERTEX
8
1
10
7.733597
20
12.844048
0
VERTEX
8
1
10
7.415771
20
12.472748
0
VERTEX
8
1
10
7.440598
20
12.944725
0
VERTEX
8
1
10
7.152390
20
13.056679
0
VERTEX
8
1
10
7.538437
20
13.334396
0
VERTEX
8
1
10
7.604126
20
13.769432
0
VERTEX
8
1
10
7.821228
20
13.486794
0
VERTEX
8
1
10
8.231873
20
13.503929
0
VERTEX
8
1
10
7.956238
20
13.135719
0
SEQEND
0
POLYLINE
8
1
66
1
70
1
0
VERTEX
8
1
10
9.739380
20
12.926231
0
VERTEX
8
1
10
9.340881
20
13.003395
0
VERTEX
8
1
10
9.022614
20
12.645920
0
VERTEX
8
1
10
9.047470
20
13.099632
0
VERTEX
8
1
10
8.763214
20
13.205444
0
VERTEX
8
1
10
9.144897
20
13.469460
0
VERTEX
8
1
10
9.210693
20
13.888100
0
VERTEX
8
1
10
9.428741
20
13.615662
0
VERTEX
8
1
10
9.835342
20
13.632179
0
VERTEX
8
1
10
9.562164
20
13.281868
0
SEQEND
0
POLYLINE
8
1
66
1
70
1
0
VERTEX
8
1
10
11.420502
20
12.983376
0
VERTEX
8
1
10
11.024582
20
13.054962
0
VERTEX
8
1
10
10.706009
20
12.711197
0
VERTEX
8
1
10
10.730881
20
13.145599
0
VERTEX
8
1
10
10.451218
20
13.244118
0
VERTEX
8
1
10
10.827820
20
13.494812
0
VERTEX
8
1
10
10.893799
20
13.896721
0
VERTEX
8
1
10
11.112885
20
13.635612
0
VERTEX
8
1
10
11.514694
20
13.652634
0
VERTEX
8
1
10
11.244476
20
13.320343
0
SEQEND
0
POLYLINE
8
1
66
1
70
1
0
VERTEX
8
1
10
11.894775
20
14.328102
0
VERTEX
8
1
10
11.587433
20
13.991371
0
VERTEX
8
1
10
11.593704
20
14.418541
0
VERTEX
8
1
10
11.311539
20
14.514816
0
VERTEX
8
1
10
11.314194
20
14.516685
0
VERTEX
8
1
10
11.675171
20
14.756210
0
VERTEX
8
1
10
11.675705
20
14.758354
0
VERTEX
8
1
10
11.715332
20
15.077545
42
-0.015480
0
VERTEX
8
1
10
10.643356
20
15.153938
42
0.007600
0
VERTEX
8
1
10
10.097107
20
15.197105
0
VERTEX
8
1
10
10.270172
20
14.995506
0
VERTEX
8
1
10
10.271759
20
14.994888
0
VERTEX
8
1
10
10.677048
20
15.008614
0
VERTEX
8
1
10
10.678406
20
15.008118
0
VERTEX
8
1
10
10.420761
20
14.669189
0
VERTEX
8
1
10
10.419479
20
14.666916
0
VERTEX
8
1
10
10.607788
20
14.326637
0
VERTEX
8
1
10
10.608963
20
14.324211
0
VERTEX
8
1
10
10.215698
20
14.399719
0
VERTEX
8
1
10
10.212158
20
14.400337
0
VERTEX
8
1
10
9.905273
20
14.050034
0
VERTEX
8
1
10
9.911560
20
14.496490
0
VERTEX
8
1
10
9.624466
20
14.600227
0
VERTEX
8
1
10
9.627350
20
14.602295
0
VERTEX
8
1
10
9.993347
20
14.854759
0
VERTEX
8
1
10
9.993652
20
14.855293
0
VERTEX
8
1
10
10.000153
20
14.910194
42
0.003038
0
VERTEX
8
1
10
8.845947
20
14.792892
0
VERTEX
8
1
10
8.736755
20
14.642906
0
VERTEX
8
1
10
8.736954
20
14.641464
0
VERTEX
8
1
10
8.926956
20
14.282394
0
VERTEX
8
1
10
8.927002
20
14.281075
0
VERTEX
8
1
10
8.529968
20
14.361328
0
VERTEX
8
1
10
8.527481
20
14.361359
0
VERTEX
8
1
10
8.223572
20
13.999550
0
VERTEX
8
1
10
8.221497
20
13.997345
0
VERTEX
8
1
10
8.227692
20
14.458763
0
VERTEX
8
1
10
8.227676
20
14.462700
0
VERTEX
8
1
10
7.936188
20
14.573006
0
VERTEX
8
1
10
8.127792
20
14.710793
42
0.008813
0
VERTEX
8
1
10
7.072311
20
14.563667
0
VERTEX
8
1
10
7.052414
20
14.535118
0
VERTEX
8
1
10
7.244888
20
14.155716
0
VERTEX
8
1
10
7.242950
20
14.155754
0
VERTEX
8
1
10
6.843033
20
14.239899
0
VERTEX
8
1
10
6.841049
20
14.238503
0
VERTEX
8
1
10
6.537399
20
13.861542
0
VERTEX
8
1
10
6.536606
20
13.861961
0
VERTEX
8
1
10
6.542801
20
14.343193
0
VERTEX
8
1
10
6.542389
20
14.345200
0
VERTEX
8
1
10
6.321274
20
14.432243
42
0.013857
0
VERTEX
8
1
10
5.393127
20
14.230011
0
VERTEX
8
1
10
5.365585
20
14.188667
0
VERTEX
8
1
10
5.365417
20
14.188225
0
VERTEX
8
1
10
5.559494
20
13.791008
0
VERTEX
8
1
10
5.153687
20
13.877472
0
VERTEX
8
1
10
4.848816
20
13.481781
0
VERTEX
8
1
10
4.848816
20
13.484947
0
VERTEX
8
1
10
4.853317
20
13.847336
42
-0.044792
0
VERTEX
8
1
10
3.712891
20
13.640305
0
VERTEX
8
1
10
3.872391
20
13.302185
0
VERTEX
8
1
10
3.870880
20
13.302010
0
VERTEX
8
1
10
3.464767
20
13.388748
0
VERTEX
8
1
10
3.462769
20
13.387650
0
VERTEX
8
1
10
3.160828
20
12.977959
0
VERTEX
8
1
10
3.159775
20
12.977661
0
VERTEX
8
1
10
3.165955
20
13.495483
0
VERTEX
8
1
10
3.165558
20
13.498138
0
VERTEX
8
1
10
2.863632
20
13.622154
0
VERTEX
8
1
10
2.868652
20
13.626305
42
-0.002281
0
VERTEX
8
1
10
2.790359
20
13.630234
0
VERTEX
8
1
10
2.787872
20
13.632729
42
-0.050660
0
VERTEX
8
1
10
3.255386
20
14.005684
0
VERTEX
8
1
10
3.256012
20
14.010330
0
VERTEX
8
1
10
3.297089
20
14.418144
0
VERTEX
8
1
10
3.496262
20
14.148216
42
-0.053056
0
VERTEX
8
1
10
4.443359
20
14.522720
0
VERTEX
8
1
10
4.406830
20
14.561455
0
VERTEX
8
1
10
4.354401
20
14.607010
0
VERTEX
8
1
10
4.325897
20
14.651535
0
VERTEX
8
1
10
4.319672
20
14.694977
0
VERTEX
8
1
10
4.334061
20
14.737297
0
VERTEX
8
1
10
4.367462
20
14.778473
0
VERTEX
8
1
10
4.418213
20
14.818436
42
-0.066223
0
VERTEX
8
1
10
4.761826
20
14.965424
42
-0.023994
0
VERTEX
8
1
10
5.433304
20
15.128113
0
VERTEX
8
1
10
5.463150
20
15.467590
0
VERTEX
8
1
10
5.462250
20
15.468811
0
VERTEX
8
1
10
5.177109
20
15.596214
0
VERTEX
8
1
10
5.177109
20
15.597313
0
VERTEX
8
1
10
5.574966
20
15.876274
0
VERTEX
8
1
10
5.576874
20
15.878242
0
VERTEX
8
1
10
5.658798
20
16.326126
0
VERTEX
8
1
10
5.659470
20
16.328491
0
VERTEX
8
1
10
5.862244
20
16.030479
0
VERTEX
8
1
10
5.863907
20
16.028275
0
VERTEX
8
1
10
6.273911
20
16.033638
0
VERTEX
8
1
10
6.277618
20
16.033630
0
VERTEX
8
1
10
5.985626
20
15.654182
0
VERTEX
8
1
10
6.149704
20
15.255013
0
VERTEX
8
1
10
5.750336
20
15.353767
0
VERTEX
8
1
10
5.748840
20
15.352242
0
VERTEX
8
1
10
5.574188
20
15.153023
42
-0.014109
0
VERTEX
8
1
10
7.173157
20
15.378387
0
VERTEX
8
1
10
7.205383
20
15.729843
0
VERTEX
8
1
10
7.204758
20
15.731262
0
VERTEX
8
1
10
6.923492
20
15.852081
0
VERTEX
8
1
10
6.922958
20
15.853050
0
VERTEX
8
1
10
7.316254
20
16.116966
0
VERTEX
8
1
10
7.318542
20
16.118874
0
VERTEX
8
1
10
7.400604
20
16.548874
0
VERTEX
8
1
10
7.401291
20
16.551773
0
VERTEX
8
1
10
7.604797
20
16.264793
0
VERTEX
8
1
10
7.606644
20
16.262283
0
VERTEX
8
1
10
8.016388
20
16.266747
0
VERTEX
8
1
10
7.726974
20
15.906853
0
VERTEX
8
1
10
7.889999
20
15.526581
0
VERTEX
8
1
10
7.886795
20
15.527260
0
VERTEX
8
1
10
7.493164
20
15.620865
0
VERTEX
8
1
10
7.491516
20
15.619392
0
VERTEX
8
1
10
7.278961
20
15.387070
42
-0.024274
0
VERTEX
8
1
10
8.775726
20
15.439255
0
VERTEX
8
1
10
8.813522
20
15.835426
0
VERTEX
8
1
10
8.812820
20
15.836876
0
VERTEX
8
1
10
8.535416
20
15.950737
0
VERTEX
8
1
10
8.535110
20
15.951675
0
VERTEX
8
1
10
8.924026
20
16.203064
0
VERTEX
8
1
10
8.926132
20
16.204872
0
VERTEX
8
1
10
9.008438
20
16.619118
0
VERTEX
8
1
10
9.009125
20
16.621666
0
VERTEX
8
1
10
9.213623
20
16.345093
0
VERTEX
8
1
10
9.215393
20
16.342827
0
VERTEX
8
1
10
9.620728
20
16.347771
0
VERTEX
8
1
10
9.334122
20
16.005211
0
VERTEX
8
1
10
9.496338
20
15.642662
0
VERTEX
8
1
10
9.492935
20
15.643379
0
VERTEX
8
1
10
9.101471
20
15.731689
0
VERTEX
8
1
10
9.099274
20
15.729660
0
VERTEX
8
1
10
8.821594
20
15.437469
42
-0.021820
0
VERTEX
8
1
10
11.087952
20
15.286049
42
-0.004240
0
VERTEX
8
1
10
12.483444
20
15.125092
0
VERTEX
8
1
10
12.542221
20
15.110519
42
-0.034376
0
VERTEX
8
1
10
11.787323
20
15.075729
0
VERTEX
8
1
10
11.953201
20
14.891632
0
VERTEX
8
1
10
11.954681
20
14.890999
0
VERTEX
8
1
10
12.355148
20
14.905472
0
VERTEX
8
1
10
12.356689
20
14.905083
0
VERTEX
8
1
10
12.101929
20
14.584030
0
VERTEX
8
1
10
12.100525
20
14.581802
0
VERTEX
8
1
10
12.287354
20
14.260239
0
VERTEX
8
1
10
12.288666
20
14.257790
0
SEQEND
0
POLYLINE
8
1
66
1
70
1
0
VERTEX
8
1
10
13.082520
20
12.937508
0
VERTEX
8
1
10
12.689133
20
13.002373
0
VERTEX
8
1
10
12.370438
20
12.671417
0
VERTEX
8
1
10
12.395264
20
13.086655
0
VERTEX
8
1
10
12.120682
20
13.177040
0
VERTEX
8
1
10
12.491745
20
13.415627
0
VERTEX
8
1
10
12.557968
20
13.801331
0
VERTEX
8
1
10
12.778244
20
13.552040
0
VERTEX
8
1
10
13.174500
20
13.570717
0
VERTEX
8
1
10
12.907654
20
13.255692
0
SEQEND
0
POLYLINE
8
1
66
1
70
1
0
VERTEX
8
1
10
13.544830
20
13.482788
0
VERTEX
8
1
10
13.551041
20
14.022240
0
VERTEX
8
1
10
13.245789
20
14.148369
0
VERTEX
8
1
10
13.634354
20
14.486794
0
VERTEX
8
1
10
13.682404
20
14.983292
0
VERTEX
8
1
10
13.877396
20
14.711655
0
VERTEX
8
1
10
13.931427
20
14.068481
0
VERTEX
8
1
10
13.969177
20
13.887856
0
VERTEX
8
1
10
13.847763
20
13.913223
0
SEQEND
0
POLYLINE
8
1
66
1
70
1
0
VERTEX
8
1
10
23.859055
20
10.248573
42
0.172607
0
VERTEX
8
1
10
23.732773
20
10.164917
0
VERTEX
8
1
10
23.744019
20
10.156693
42
-0.119482
0
VERTEX
8
1
10
25.313461
20
9.592918
0
VERTEX
8
1
10
25.346146
20
9.560463
42
-0.078044
0
VERTEX
8
1
10
24.537262
20
9.576141
42
-0.017493
0
VERTEX
8
1
10
23.728210
20
9.747826
42
0.040286
0
VERTEX
8
1
10
22.916916
20
9.882317
42
0.042749
0
VERTEX
8
1
10
22.509735
20
9.875244
42
-0.133736
0
VERTEX
8
1
10
22.943268
20
10.008606
42
0.079032
0
VERTEX
8
1
10
22.375000
20
10.150246
42
0.018353
0
VERTEX
8
1
10
21.689453
20
10.184196
42
-0.046651
0
VERTEX
8
1
10
21.088409
20
10.252197
42
-0.032546
0
VERTEX
8
1
10
20.872559
20
10.316605
0
VERTEX
8
1
10
20.908859
20
10.342072
42
-0.074031
0
VERTEX
8
1
10
21.653122
20
10.453934
42
-0.011176
0
VERTEX
8
1
10
22.344910
20
10.444473
42
0.044640
0
VERTEX
8
1
10
23.120010
20
10.487419
42
-0.044536
0
VERTEX
8
1
10
24.018906
20
10.527405
42
-0.075924
0
VERTEX
8
1
10
24.499329
20
10.432663
42
-0.052274
0
VERTEX
8
1
10
24.640106
20
10.359795
0
VERTEX
8
1
10
24.648743
20
10.344002
0
VERTEX
8
1
10
23.986572
20
10.271957
42
0.046959
0
SEQEND
0
POLYLINE
8
1
66
1
70
1
0
VERTEX
8
1
10
23.390854
20
13.218376
0
VERTEX
8
1
10
23.599014
20
13.239372
42
-0.036310
0
VERTEX
8
1
10
24.431808
20
13.277634
42
-0.092873
0
VERTEX
8
1
10
25.142044
20
13.123978
42
-0.047050
0
VERTEX
8
1
10
25.374573
20
12.992676
42
0.051721
0
VERTEX
8
1
10
22.093414
20
12.972572
42
-0.049004
0
VERTEX
8
1
10
23.130981
20
12.525581
42
-0.018123
0
VERTEX
8
1
10
18.678772
20
13.138962
0
VERTEX
8
1
10
19.356003
20
12.710854
42
-0.025047
0
VERTEX
8
1
10
18.254608
20
12.761848
42
-0.073996
0
VERTEX
8
1
10
17.193283
20
13.027344
0
VERTEX
8
1
10
17.056351
20
13.083511
42
0.090554
0
VERTEX
8
1
10
16.096588
20
13.305252
42
0.027420
0
VERTEX
8
1
10
15.285538
20
13.300697
0
VERTEX
8
1
10
15.103928
20
13.292709
42
-0.033741
0
VERTEX
8
1
10
14.200439
20
13.298058
42
-0.029331
0
VERTEX
8
1
10
13.845444
20
13.351006
42
-0.036040
0
VERTEX
8
1
10
16.095764
20
13.690208
42
0.302605
0
VERTEX
8
1
10
15.835587
20
13.939026
42
0.045508
0
VERTEX
8
1
10
16.618973
20
13.905998
42
-0.020032
0
VERTEX
8
1
10
17.392090
20
13.909370
42
-0.028990
0
VERTEX
8
1
10
17.891907
20
13.847603
42
-0.017919
0
VERTEX
8
1
10
19.645935
20
13.521309
42
0.026862
0
VERTEX
8
1
10
21.523911
20
13.219078
42
0.052340
0
SEQEND
0
POLYLINE
8
1
66
1
0
VERTEX
8
1
10
22.690796
20
10.713730
42
-0.007907
0
VERTEX
8
1
10
19.307251
20
11.033539
42
-0.013020
0
VERTEX
8
1
10
18.262894
20
11.175827
0
VERTEX
8
1
10
18.190796
20
11.185455
0
VERTEX
8
1
10
18.116699
20
11.194244
0
VERTEX
8
1
10
18.040634
20
11.202209
0
VERTEX
8
1
10
17.962814
20
11.209396
0
VERTEX
8
1
10
17.883301
20
11.215820
42
0.024479
0
VERTEX
8
1
10
16.265686
20
11.234619
42
-0.002620
0
VERTEX
8
1
10
14.843979
20
11.189140
0
SEQEND
0
POLYLINE
8
1
66
1
0
VERTEX
8
1
10
15.059464
20
10.260536
0
VERTEX
8
1
10
15.077667
20
10.209892
0
VERTEX
8
1
10
15.097870
20
10.208611
0
VERTEX
8
1
10
15.161240
20
10.207947
0
VERTEX
8
1
10
15.230286
20
10.207542
42
-0.015217
0
VERTEX
8
1
10
17.977570
20
10.148193
42
-0.017163
0
VERTEX
8
1
10
20.210785
20
9.942650
42
0.009872
0
VERTEX
8
1
10
22.049500
20
9.766350
0
SEQEND
0
ARC
8
1
10
19.434967
20
-16.466112
40
23.346961
50
89.805687
51
96.683107
0
POLYLINE
8
1
66
1
0
VERTEX
8
1
10
23.478073
20
8.514084
42
0.011547
0
VERTEX
8
1
10
17.935333
20
8.990166
42
0.012479
0
VERTEX
8
1
10
15.511917
20
9.081894
0
SEQEND
0
POLYLINE
8
1
66
1
0
VERTEX
8
1
10
18.028152
20
7.906807
0
VERTEX
8
1
10
18.258514
20
7.903091
42
-0.018866
0
VERTEX
8
1
10
21.453522
20
7.741615
0
SEQEND
0
POLYLINE
8
1
66
1
0
VERTEX
8
1
10
3.005341
20
4.070480
42
0.001921
0
VERTEX
8
1
10
5.020615
20
5.255379
42
-0.011757
0
VERTEX
8
1
10
7.896622
20
6.513649
42
-0.025374
0
VERTEX
8
1
10
9.701370
20
7.154045
42
-0.042338
0
VERTEX
8
1
10
11.060577
20
7.429634
0
SEQEND
0
POLYLINE
8
1
66
1
0
VERTEX
8
1
10
12.623886
20
8.500717
42
0.034641
0
VERTEX
8
1
10
11.709167
20
8.513901
42
0.044487
0
VERTEX
8
1
10
9.666306
20
8.227036
42
0.040488
0
VERTEX
8
1
10
6.877228
20
7.331665
0
VERTEX
8
1
10
6.687363
20
7.253525
42
0.036394
0
VERTEX
8
1
10
3.011505
20
5.374481
0
VERTEX
8
1
10
2.891617
20
5.301796
0
SEQEND
0
ARC
8
1
10
11.495533
20
-7.944527
40
16.481318
50
79.884658
51
81.244347
0
POLYLINE
8
1
66
1
0
VERTEX
8
1
10
15.317322
20
17.333916
42
-0.030869
0
VERTEX
8
1
10
16.556595
20
16.954475
42
0.042610
0
VERTEX
8
1
10
18.567871
20
16.425301
42
0.054022
0
VERTEX
8
1
10
20.057632
20
16.327667
42
0.041917
0
VERTEX
8
1
10
20.767746
20
16.423264
0
SEQEND
0
POLYLINE
8
1
66
1
0
VERTEX
8
1
10
20.415512
20
17.653381
42
-0.084712
0
VERTEX
8
1
10
19.232208
20
17.471939
42
-0.059256
0
VERTEX
8
1
10
17.995255
20
17.631477
42
-0.018224
0
VERTEX
8
1
10
16.075882
20
18.266975
42
0.014742
0
VERTEX
8
1
10
14.994904
20
18.632912
42
0.054701
0
VERTEX
8
1
10
14.216660
20
18.785378
42
0.051277
0
VERTEX
8
1
10
13.885559
20
18.773231
0
SEQEND
0
POLYLINE
8
1
66
1
0
VERTEX
8
1
10
6.738388
20
8.363976
42
-0.014228
0
VERTEX
8
1
10
7.951111
20
8.846542
42
-0.060017
0
VERTEX
8
1
10
10.668030
20
9.412468
42
-0.072387
0
VERTEX
8
1
10
14.962585
20
9.162292
0
SEQEND
0
ARC
8
1
10
27.268124
20
-37.558201
40
50.316912
50
116.766420
51
118.465437
0
ARC
8
1
10
17.317059
20
-20.244228
40
31.544673
50
112.547367
51
115.763567
0
POLYLINE
8
1
66
1
0
VERTEX
8
1
10
14.567245
20
10.288162
0
VERTEX
8
1
10
14.474060
20
10.317223
42
0.064603
0
VERTEX
8
1
10
12.672134
20
10.596680
42
0.046599
0
VERTEX
8
1
10
10.486359
20
10.450027
42
0.025421
0
VERTEX
8
1
10
8.695633
20
10.074722
0
SEQEND
0
POLYLINE
8
1
66
1
0
VERTEX
8
1
10
14.260590
20
14.981186
42
-0.028825
0
VERTEX
8
1
10
18.246140
20
14.325859
42
0.052827
0
VERTEX
8
1
10
20.987823
20
14.054817
42
0.026047
0
VERTEX
8
1
10
21.530441
20
14.088051
0
SEQEND
0
POLYLINE
8
1
66
1
0
VERTEX
8
1
10
21.142075
20
15.258705
42
-0.055904
0
VERTEX
8
1
10
19.849167
20
15.196259
42
-0.048398
0
VERTEX
8
1
10
18.179276
20
15.455460
42
-0.008734
0
VERTEX
8
1
10
16.223404
20
15.980957
42
0.019300
0
VERTEX
8
1
10
14.945282
20
16.297775
42
0.054339
0
VERTEX
8
1
10
14.193207
20
16.373329
42
0.029879
0
VERTEX
8
1
10
14.010559
20
16.356323
0
SEQEND
0
POLYLINE
8
1
66
1
0
VERTEX
8
1
10
14.468948
20
12.355927
42
-0.027414
0
VERTEX
8
1
10
15.772873
20
12.383469
42
-0.039563
0
VERTEX
8
1
10
18.804825
20
12.060852
42
0.021830
0
VERTEX
8
1
10
21.084656
20
11.760124
42
0.033863
0
VERTEX
8
1
10
22.045074
20
11.738220
42
0.035705
0
VERTEX
8
1
10
22.320694
20
11.773186
0
SEQEND
0
ARC
8
1
10
13.490286
20
-0.829090
40
14.670835
50
84.379351
51
86.501226
0
POLYLINE
8
1
66
1
0
VERTEX
8
1
10
7.229828
20
10.902832
42
-0.100068
0
VERTEX
8
1
10
12.524734
20
11.499146
42
-0.042591
0
VERTEX
8
1
10
14.237320
20
11.203613
0
VERTEX
8
1
10
14.285400
20
11.190247
0
SEQEND
0
POLYLINE
8
1
66
1
0
VERTEX
8
1
10
13.896942
20
12.207932
42
0.073926
0
VERTEX
8
1
10
9.392715
20
12.330231
42
0.061555
0
VERTEX
8
1
10
4.993134
20
11.235924
42
0.026572
0
VERTEX
8
1
10
3.059555
20
10.380821
0
SEQEND
0
POLYLINE
8
1
66
1
0
VERTEX
8
1
10
27.941040
20
14.993263
42
0.010348
0
VERTEX
8
1
10
24.870514
20
16.164574
0
VERTEX
8
1
10
24.762070
20
16.202644
0
VERTEX
8
1
10
24.655518
20
16.239639
0
VERTEX
8
1
10
24.551102
20
16.275459
0
VERTEX
8
1
10
24.449066
20
16.309990
42
0.058654
0
VERTEX
8
1
10
22.972183
20
16.641068
42
0.073579
0
VERTEX
8
1
10
21.452103
20
16.553001
0
SEQEND
0
POLYLINE
8
1
66
1
0
VERTEX
8
1
10
21.704102
20
15.447174
42
-0.045069
0
VERTEX
8
1
10
22.327408
20
15.587761
42
-0.096014
0
VERTEX
8
1
10
24.644714
20
15.468948
0
VERTEX
8
1
10
24.763062
20
15.439316
42
-0.018479
0
VERTEX
8
1
10
26.915939
20
14.751045
42
0.006929
0
VERTEX
8
1
10
28.667114
20
14.143661
42
0.021581
0
VERTEX
8
1
10
29.649536
20
13.868156
0
SEQEND
0
POLYLINE
8
1
66
1
0
VERTEX
8
1
10
26.857590
20
13.451447
42
0.048843
0
VERTEX
8
1
10
24.633728
20
14.220215
42
0.050363
0
VERTEX
8
1
10
23.285309
20
14.403877
42
0.067597
0
VERTEX
8
1
10
22.359192
20
14.309624
0
VERTEX
8
1
10
22.252319
20
14.279648
0
VERTEX
8
1
10
22.148041
20
14.245102
0
SEQEND
0
POLYLINE
8
1
66
1
0
VERTEX
8
1
10
23.261490
20
13.481033
42
-0.058784
0
VERTEX
8
1
10
23.697311
20
13.559792
42
-0.072184
0
VERTEX
8
1
10
24.835052
20
13.479164
42
-0.053879
0
VERTEX
8
1
10
26.065842
20
13.077148
42
0.022987
0
VERTEX
8
1
10
27.995087
20
12.312416
42
0.040485
0
VERTEX
8
1
10
29.190445
20
12.003143
42
0.039167
0
VERTEX
8
1
10
29.816223
20
11.951294
0
SEQEND
0
POLYLINE
8
1
66
1
0
VERTEX
8
1
10
29.012070
20
10.980789
42
-0.032606
0
VERTEX
8
1
10
28.470535
20
11.083389
42
-0.020404
0
VERTEX
8
1
10
26.783752
20
11.568680
42
-0.005850
0
VERTEX
8
1
10
25.774155
20
11.909622
42
0.047035
0
VERTEX
8
1
10
24.429840
20
12.167183
42
0.067729
0
VERTEX
8
1
10
23.504227
20
12.133606
42
0.083906
0
VERTEX
8
1
10
22.966980
20
11.942741
0
SEQEND
0
POLYLINE
8
1
66
1
0
VERTEX
8
1
10
23.309845
20
10.955231
42
-0.057431
0
VERTEX
8
1
10
23.621536
20
11.042046
42
-0.052496
0
VERTEX
8
1
10
24.533829
20
11.104851
42
-0.041523
0
VERTEX
8
1
10
25.983429
20
10.939613
42
-0.019408
0
VERTEX
8
1
10
27.202606
20
10.653450
42
-0.008833
0
VERTEX
8
1
10
28.962296
20
10.173737
42
-0.036067
0
VERTEX
8
1
10
29.256851
20
10.072571
0
VERTEX
8
1
10
29.260681
20
10.070183
42
-1.289632
0
VERTEX
8
1
10
29.262085
20
10.064025
0
SEQEND
0
POLYLINE
8
1
66
1
0
VERTEX
8
1
10
30.024582
20
8.659302
42
0.027157
0
VERTEX
8
1
10
27.085724
20
9.569847
42
0.024340
0
VERTEX
8
1
10
25.752777
20
9.833344
0
SEQEND
0
POLYLINE
8
1
66
1
0
VERTEX
8
1
10
28.553680
20
8.313850
42
-0.014294
0
VERTEX
8
1
10
28.010757
20
8.493286
42
0.040050
0
VERTEX
8
1
10
26.410645
20
8.908241
42
0.010323
0
VERTEX
8
1
10
26.123489
20
8.949448
0
SEQEND
0
ARC
8
1
10
11.845876
20
10.043941
40
9.982158
50
71.086488
51
79.428650
0
POLYLINE
8
1
66
1
0
VERTEX
8
1
10
2.815872
20
2.778984
0
VERTEX
8
1
10
3.184708
20
2.980331
0
VERTEX
8
1
10
3.554520
20
3.179855
0
VERTEX
8
1
10
3.925308
20
3.377556
0
VERTEX
8
1
10
4.297073
20
3.573433
42
-0.016722
0
VERTEX
8
1
10
7.696625
20
5.228004
42
-0.006240
0
VERTEX
8
1
10
8.446869
20
5.547897
0
SEQEND
0
ARC
8
1
10
45.067158
20
-75.238449
40
87.661503
50
116.571227
51
118.936201
0
ENDSEC
0
EOF
