0
SECTION
2
HEADER
9
$EXTMIN
10
1.433968
20
0.237854
9
$EXTMAX
10
25.663521
20
22.188438
0
ENDSEC
0
SECTION
2
TABLES
0
TABLE
2
LTYPE
70
1
0
LTYPE
2
0
70
0
3
Solid Line
72
65
73
0
40
0.0
0
ENDTAB
0
TABLE
2
LAYER
70
1
0
LAYER
2
1
70
0
62
7
6
0
0
ENDTAB
0
ENDSEC
0
SECTION
2
BLOCKS
0
ENDSEC
0
SECTION
2
ENTITIES
0
POLYLINE
8
1
66
1
70
1
0
VERTEX
8
1
10
22.552788
20
18.239853
0
VERTEX
8
1
10
22.594154
20
18.129539
0
VERTEX
8
1
10
22.603867
20
18.109772
42
0.133134
0
VERTEX
8
1
10
22.736786
20
18.010941
42
-0.009486
0
VERTEX
8
1
10
23.026459
20
17.885391
42
-0.287003
0
VERTEX
8
1
10
23.152763
20
17.695938
42
-0.030972
0
VERTEX
8
1
10
23.150063
20
17.485863
42
0.376406
0
VERTEX
8
1
10
23.194214
20
17.429031
0
VERTEX
8
1
10
23.216499
20
17.425507
0
VERTEX
8
1
10
23.242622
20
17.425232
0
VERTEX
8
1
10
23.272217
20
17.427704
42
-0.006091
0
VERTEX
8
1
10
23.593491
20
17.485031
42
-0.216890
0
VERTEX
8
1
10
24.039726
20
17.346893
42
0.070753
0
VERTEX
8
1
10
24.240746
20
17.201904
42
0.110859
0
VERTEX
8
1
10
24.698204
20
17.048294
42
0.194160
0
VERTEX
8
1
10
24.817467
20
17.078987
42
0.257619
0
VERTEX
8
1
10
24.830963
20
17.172997
42
-0.222503
0
VERTEX
8
1
10
24.945030
20
17.332039
0
VERTEX
8
1
10
24.959190
20
17.335182
0
VERTEX
8
1
10
24.972649
20
17.334740
0
VERTEX
8
1
10
24.985374
20
17.331200
0
VERTEX
8
1
10
24.997314
20
17.325058
42
-0.144694
0
VERTEX
8
1
10
25.066017
20
17.225060
42
-0.100632
0
VERTEX
8
1
10
24.857376
20
17.040154
0
VERTEX
8
1
10
24.820313
20
17.018227
42
-0.133096
0
VERTEX
8
1
10
24.552498
20
16.937332
0
VERTEX
8
1
10
24.486732
20
16.939186
0
VERTEX
8
1
10
24.421204
20
16.947174
0
VERTEX
8
1
10
24.356430
20
16.960442
42
-0.091393
0
VERTEX
8
1
10
23.845146
20
17.211617
0
VERTEX
8
1
10
23.826675
20
17.223335
42
0.174194
0
VERTEX
8
1
10
23.589645
20
17.241837
42
0.045375
0
VERTEX
8
1
10
23.397446
20
17.175697
42
-0.099274
0
VERTEX
8
1
10
23.095123
20
17.148270
42
-0.031369
0
VERTEX
8
1
10
22.936317
20
17.164444
42
-0.247956
0
VERTEX
8
1
10
22.743401
20
17.345963
42
-0.091157
0
VERTEX
8
1
10
22.703209
20
17.574821
42
0.558089
0
VERTEX
8
1
10
22.664795
20
17.600548
0
VERTEX
8
1
10
22.654587
20
17.597313
0
VERTEX
8
1
10
22.643486
20
17.592880
42
-0.258066
0
VERTEX
8
1
10
22.370102
20
17.587166
42
0.033316
0
VERTEX
8
1
10
22.204292
20
17.665100
42
0.162876
0
VERTEX
8
1
10
22.000336
20
17.650719
0
VERTEX
8
1
10
21.977081
20
17.642464
42
-0.263997
0
VERTEX
8
1
10
21.715736
20
17.651596
42
-0.034278
0
VERTEX
8
1
10
21.560547
20
17.753159
42
0.320712
0
VERTEX
8
1
10
21.400620
20
17.751038
42
0.054308
0
VERTEX
8
1
10
21.265945
20
17.647743
42
-0.158155
0
VERTEX
8
1
10
21.100311
20
17.591286
0
VERTEX
8
1
10
21.052040
20
17.590393
42
-0.078037
0
VERTEX
8
1
10
20.691650
20
17.670471
0
VERTEX
8
1
10
20.608986
20
17.367401
0
VERTEX
8
1
10
20.589958
20
17.316872
42
-0.238222
0
VERTEX
8
1
10
20.450020
20
17.214844
0
VERTEX
8
1
10
20.404922
20
17.209084
0
VERTEX
8
1
10
20.358139
20
17.209099
42
-0.084472
0
VERTEX
8
1
10
20.052856
20
17.294899
42
-0.038452
0
VERTEX
8
1
10
20.080460
20
16.871803
0
VERTEX
8
1
10
20.076401
20
16.830215
42
-0.306763
0
VERTEX
8
1
10
19.935913
20
16.681236
42
-0.107353
0
VERTEX
8
1
10
19.788361
20
16.671753
0
VERTEX
8
1
10
19.705917
20
16.877853
42
-0.088434
0
VERTEX
8
1
10
19.678116
20
16.630219
42
-0.089709
0
VERTEX
8
1
10
19.049019
20
16.460526
42
-0.037806
0
VERTEX
8
1
10
19.047127
20
16.434700
0
VERTEX
8
1
10
19.049461
20
16.433632
0
VERTEX
8
1
10
19.078003
20
16.436714
0
VERTEX
8
1
10
19.126198
20
16.440414
42
-0.031782
0
VERTEX
8
1
10
21.324364
20
16.409760
0
VERTEX
8
1
10
21.385841
20
16.400185
0
VERTEX
8
1
10
21.392761
20
16.389008
42
-0.442670
0
VERTEX
8
1
10
21.215706
20
16.065765
0
VERTEX
8
1
10
21.172424
20
16.056564
42
-0.120310
0
VERTEX
8
1
10
20.783249
20
16.099770
0
VERTEX
8
1
10
20.780716
20
16.093063
0
VERTEX
8
1
10
20.769104
20
16.058243
0
VERTEX
8
1
10
21.644150
20
15.933228
42
-0.173751
0
VERTEX
8
1
10
21.824493
20
15.818314
0
VERTEX
8
1
10
21.835960
20
15.799362
0
VERTEX
8
1
10
21.847694
20
15.773018
0
VERTEX
8
1
10
21.864212
20
15.727165
42
-0.009415
0
VERTEX
8
1
10
22.199669
20
14.572029
0
VERTEX
8
1
10
22.199669
20
14.502678
42
-0.272925
0
VERTEX
8
1
10
22.259804
20
14.456192
42
-0.196355
0
VERTEX
8
1
10
22.243027
20
14.392685
42
-0.075260
0
VERTEX
8
1
10
21.973381
20
14.014694
42
-0.096615
0
VERTEX
8
1
10
21.810768
20
13.905457
0
VERTEX
8
1
10
21.755478
20
13.863976
42
-0.122109
0
VERTEX
8
1
10
20.995865
20
13.379150
0
VERTEX
8
1
10
20.919197
20
13.363113
0
VERTEX
8
1
10
20.829163
20
13.347588
0
VERTEX
8
1
10
20.727364
20
13.332047
42
-0.012499
0
VERTEX
8
1
10
19.488899
20
13.197884
42
-0.272347
0
VERTEX
8
1
10
19.394867
20
13.295677
0
VERTEX
8
1
10
19.392952
20
13.309334
0
VERTEX
8
1
10
19.383057
20
13.315987
0
VERTEX
8
1
10
19.370026
20
13.321243
0
VERTEX
8
1
10
19.354370
20
13.325233
42
0.063686
0
VERTEX
8
1
10
19.144264
20
13.322151
0
VERTEX
8
1
10
19.101532
20
13.308296
42
-0.178805
0
VERTEX
8
1
10
18.731651
20
12.423752
42
-0.183960
0
VERTEX
8
1
10
17.781403
20
11.954498
0
VERTEX
8
1
10
17.638138
20
11.947144
42
-0.263268
0
VERTEX
8
1
10
16.357475
20
12.651192
0
VERTEX
8
1
10
16.324928
20
12.669197
0
VERTEX
8
1
10
16.324371
20
12.669342
0
VERTEX
8
1
10
15.033928
20
12.669342
42
-0.126915
0
VERTEX
8
1
10
14.976158
20
12.572334
42
-0.413408
0
VERTEX
8
1
10
14.838425
20
12.603546
42
-0.192602
0
VERTEX
8
1
10
14.796753
20
12.765411
0
VERTEX
8
1
10
14.750122
20
12.762039
0
VERTEX
8
1
10
14.664627
20
12.757813
42
-0.005825
0
VERTEX
8
1
10
12.574577
20
12.738518
0
VERTEX
8
1
10
12.547112
20
12.656113
0
VERTEX
8
1
10
12.546524
20
12.655441
0
VERTEX
8
1
10
10.936951
20
12.586060
0
VERTEX
8
1
10
10.935776
20
12.586342
0
VERTEX
8
1
10
10.935776
20
12.641296
0
VERTEX
8
1
10
10.935493
20
12.641548
0
VERTEX
8
1
10
10.713562
20
12.627670
42
-0.184335
0
VERTEX
8
1
10
10.623222
20
12.523315
42
-0.343898
0
VERTEX
8
1
10
10.500031
20
12.565437
42
-0.071811
0
VERTEX
8
1
10
10.463509
20
12.627678
0
VERTEX
8
1
10
10.269264
20
12.627678
42
-0.024499
0
VERTEX
8
1
10
9.829338
20
12.425835
42
-0.151165
0
VERTEX
8
1
10
9.682899
20
12.408836
0
VERTEX
8
1
10
9.638962
20
12.415245
42
-0.009985
0
VERTEX
8
1
10
8.992180
20
12.556313
42
0.076431
0
VERTEX
8
1
10
8.713760
20
12.577621
42
0.016906
0
VERTEX
8
1
10
8.088509
20
12.530151
0
VERTEX
8
1
10
8.074776
20
12.434013
0
VERTEX
8
1
10
8.074516
20
12.433243
0
VERTEX
8
1
10
7.366867
20
12.474869
0
VERTEX
8
1
10
7.366203
20
12.474823
0
VERTEX
8
1
10
7.344612
20
12.462128
42
-0.125855
0
VERTEX
8
1
10
6.712410
20
12.166908
0
VERTEX
8
1
10
6.677948
20
12.170364
42
-0.210070
0
VERTEX
8
1
10
5.563057
20
11.815788
42
-0.198136
0
VERTEX
8
1
10
4.597267
20
12.328522
42
-0.145472
0
VERTEX
8
1
10
4.303421
20
13.023979
42
0.000291
0
VERTEX
8
1
10
4.171577
20
13.030441
0
VERTEX
8
1
10
3.921906
20
13.016571
42
-0.018646
0
VERTEX
8
1
10
3.363838
20
12.688477
0
VERTEX
8
1
10
3.339920
20
12.683235
42
-0.060918
0
VERTEX
8
1
10
3.114990
20
12.702347
0
VERTEX
8
1
10
3.097969
20
12.709000
42
-0.530583
0
VERTEX
8
1
10
3.077858
20
12.765869
0
VERTEX
8
1
10
3.090660
20
12.782890
42
-0.027451
0
VERTEX
8
1
10
3.532715
20
13.169106
42
-0.087907
0
VERTEX
8
1
10
3.079292
20
13.354965
42
-0.142004
0
VERTEX
8
1
10
2.854370
20
13.611061
0
VERTEX
8
1
10
2.828011
20
13.656441
42
-0.100650
0
VERTEX
8
1
10
2.500870
20
13.757225
42
-0.175330
0
VERTEX
8
1
10
2.440285
20
13.829689
0
VERTEX
8
1
10
2.440323
20
13.857590
0
VERTEX
8
1
10
2.453102
20
13.887268
0
VERTEX
8
1
10
2.480232
20
13.918663
0
VERTEX
8
1
10
2.523285
20
13.951744
42
-0.016517
0
VERTEX
8
1
10
2.852486
20
14.128159
42
0.120790
0
VERTEX
8
1
10
2.809402
20
14.394287
42
0.027376
0
VERTEX
8
1
10
2.569679
20
14.771027
42
-0.180376
0
VERTEX
8
1
10
2.500664
20
14.902184
42
-0.237383
0
VERTEX
8
1
10
2.555931
20
15.015121
42
-0.068139
0
VERTEX
8
1
10
2.840530
20
15.174606
42
-0.070011
0
VERTEX
8
1
10
3.859283
20
15.431679
0
VERTEX
8
1
10
3.995651
20
15.446236
42
-0.045930
0
VERTEX
8
1
10
4.647308
20
15.713066
0
VERTEX
8
1
10
4.766815
20
15.750313
42
-0.065846
0
VERTEX
8
1
10
6.001701
20
15.961273
0
VERTEX
8
1
10
6.174133
20
15.969078
42
-0.010130
0
VERTEX
8
1
10
8.222923
20
16.000870
42
-0.225032
0
VERTEX
8
1
10
8.320023
20
15.934494
42
-0.056241
0
VERTEX
8
1
10
8.338554
20
15.684059
0
VERTEX
8
1
10
8.339355
20
15.683289
0
VERTEX
8
1
10
9.005188
20
15.724899
0
VERTEX
8
1
10
10.903374
20
17.235115
0
VERTEX
8
1
10
10.907959
20
17.239082
42
-0.103986
0
VERTEX
8
1
10
10.913925
20
17.351807
42
-0.144502
0
VERTEX
8
1
10
10.974602
20
17.398132
0
VERTEX
8
1
10
10.981339
20
17.401802
42
0.035682
0
VERTEX
8
1
10
8.823616
20
16.918823
42
0.025178
0
VERTEX
8
1
10
8.273529
20
16.722153
0
VERTEX
8
1
10
8.144417
20
16.674660
42
-0.120310
0
VERTEX
8
1
10
7.153198
20
16.581253
42
-0.065513
0
VERTEX
8
1
10
6.933289
20
16.638336
42
-0.276513
0
VERTEX
8
1
10
6.881264
20
16.707108
42
-0.048383
0
VERTEX
8
1
10
6.871826
20
16.881844
0
VERTEX
8
1
10
6.869156
20
16.904503
0
VERTEX
8
1
10
6.864220
20
16.915916
0
VERTEX
8
1
10
6.857353
20
16.917442
0
VERTEX
8
1
10
6.848892
20
16.910454
0
VERTEX
8
1
10
6.839188
20
16.896294
42
0.038424
0
VERTEX
8
1
10
6.747208
20
16.656578
0
VERTEX
8
1
10
6.601952
20
16.735817
42
-0.219636
0
VERTEX
8
1
10
6.523109
20
16.846840
0
VERTEX
8
1
10
6.513527
20
16.888245
42
-0.074008
0
VERTEX
8
1
10
6.524582
20
17.293137
0
VERTEX
8
1
10
6.524887
20
17.295441
42
0.000450
0
VERTEX
8
1
10
6.263031
20
17.204788
0
VERTEX
8
1
10
6.235291
20
17.201172
0
VERTEX
8
1
10
6.207901
20
17.201569
0
VERTEX
8
1
10
6.181068
20
17.205482
42
-0.176265
0
VERTEX
8
1
10
5.967758
20
17.354568
42
-0.006372
0
VERTEX
8
1
10
5.830536
20
17.698250
0
VERTEX
8
1
10
5.711739
20
17.632240
0
VERTEX
8
1
10
5.688026
20
17.620636
42
-0.136380
0
VERTEX
8
1
10
5.489754
20
17.620087
42
-0.079283
0
VERTEX
8
1
10
5.117661
20
17.771317
42
0.332737
0
VERTEX
8
1
10
4.913269
20
17.747643
42
0.007228
0
VERTEX
8
1
10
4.810753
20
17.654625
42
-0.307049
0
VERTEX
8
1
10
4.609840
20
17.634499
42
0.027172
0
VERTEX
8
1
10
4.493019
20
17.693275
42
0.212930
0
VERTEX
8
1
10
4.399879
20
17.672905
0
VERTEX
8
1
10
4.382767
20
17.663841
42
-0.132943
0
VERTEX
8
1
10
4.049751
20
17.556671
42
-0.081740
0
VERTEX
8
1
10
3.925217
20
17.581764
42
0.381028
0
VERTEX
8
1
10
3.873917
20
17.553520
0
VERTEX
8
1
10
3.866852
20
17.538284
42
-0.036011
0
VERTEX
8
1
10
3.753494
20
17.253372
42
-0.243381
0
VERTEX
8
1
10
3.541969
20
17.112686
0
VERTEX
8
1
10
3.497536
20
17.108345
42
-0.092707
0
VERTEX
8
1
10
3.125732
20
17.181732
42
0.055552
0
VERTEX
8
1
10
2.936386
20
17.241379
42
0.161952
0
VERTEX
8
1
10
2.825394
20
17.212120
42
-0.008206
0
VERTEX
8
1
10
2.496407
20
17.022934
42
-0.200511
0
VERTEX
8
1
10
1.760414
20
16.971245
42
-0.108872
0
VERTEX
8
1
10
1.597748
20
17.066231
0
VERTEX
8
1
10
1.577110
20
17.092285
42
-0.133961
0
VERTEX
8
1
10
1.547211
20
17.234222
42
-0.329924
0
VERTEX
8
1
10
1.594658
20
17.265144
42
-0.073369
0
VERTEX
8
1
10
1.678848
20
17.263428
42
-0.395829
0
VERTEX
8
1
10
1.706612
20
17.204330
42
-0.055965
0
VERTEX
8
1
10
1.678413
20
17.127754
42
0.132600
0
VERTEX
8
1
10
1.742905
20
17.087730
42
0.066442
0
VERTEX
8
1
10
2.013046
20
17.027130
42
0.156070
0
VERTEX
8
1
10
2.267281
20
17.102150
42
0.044217
0
VERTEX
8
1
10
2.566376
20
17.356544
42
-0.099105
0
VERTEX
8
1
10
2.749054
20
17.484718
42
-0.133279
0
VERTEX
8
1
10
2.960945
20
17.493645
42
0.049422
0
VERTEX
8
1
10
3.331306
20
17.447495
42
0.159068
0
VERTEX
8
1
10
3.446144
20
17.475243
42
0.266583
0
VERTEX
8
1
10
3.467018
20
17.540512
42
-0.015260
0
VERTEX
8
1
10
3.441154
20
17.679634
42
-0.271266
0
VERTEX
8
1
10
3.521645
20
17.846291
42
-0.049158
0
VERTEX
8
1
10
3.781059
20
17.981667
42
0.052075
0
VERTEX
8
1
10
3.976570
20
18.087196
0
VERTEX
8
1
10
3.997887
20
18.105881
42
0.292914
0
VERTEX
8
1
10
4.033203
20
18.215370
42
-0.107393
0
VERTEX
8
1
10
4.024788
20
18.280525
0
VERTEX
8
1
10
4.021248
20
18.281898
0
VERTEX
8
1
10
4.014069
20
18.278023
42
-0.052253
0
VERTEX
8
1
10
3.805984
20
18.125046
42
-0.126223
0
VERTEX
8
1
10
3.646713
20
18.086609
42
0.116323
0
VERTEX
8
1
10
3.375664
20
17.981903
42
-0.006184
0
VERTEX
8
1
10
3.147339
20
17.835678
0
VERTEX
8
1
10
3.125923
20
17.824867
42
-0.365144
0
VERTEX
8
1
10
3.003975
20
17.840530
42
-0.020017
0
VERTEX
8
1
10
2.879311
20
17.982056
42
0.216062
0
VERTEX
8
1
10
2.659981
20
18.082024
42
0.097090
0
VERTEX
8
1
10
2.321556
20
18.014420
42
-0.065948
0
VERTEX
8
1
10
1.925789
20
17.912590
0
VERTEX
8
1
10
1.879807
20
17.910034
42
-0.222477
0
VERTEX
8
1
10
1.467064
20
18.074104
0
VERTEX
8
1
10
1.452393
20
18.095291
42
-0.438519
0
VERTEX
8
1
10
1.480621
20
18.236748
0
VERTEX
8
1
10
1.500374
20
18.248650
42
-0.296885
0
VERTEX
8
1
10
1.600563
20
18.252983
0
VERTEX
8
1
10
1.611885
20
18.240799
0
VERTEX
8
1
10
1.620750
20
18.225868
42
-0.102296
0
VERTEX
8
1
10
1.637245
20
18.086586
0
VERTEX
8
1
10
1.640251
20
18.085266
42
0.131473
0
VERTEX
8
1
10
1.905388
20
18.063988
0
VERTEX
8
1
10
1.935921
20
18.073616
42
0.065728
0
VERTEX
8
1
10
2.431503
20
18.355492
42
-0.275327
0
VERTEX
8
1
10
2.515366
20
18.385162
42
-0.025045
0
VERTEX
8
1
10
2.733109
20
18.327698
42
0.084931
0
VERTEX
8
1
10
2.905304
20
18.312355
0
VERTEX
8
1
10
2.942726
20
18.322044
0
VERTEX
8
1
10
2.981087
20
18.337639
0
VERTEX
8
1
10
3.020058
20
18.358368
0
VERTEX
8
1
10
3.059319
20
18.383423
42
0.048752
0
VERTEX
8
1
10
3.372856
20
18.672905
0
VERTEX
8
1
10
3.397385
20
18.697624
0
VERTEX
8
1
10
3.418663
20
18.717957
42
-0.183205
0
VERTEX
8
1
10
3.612808
20
18.805840
42
-0.026126
0
VERTEX
8
1
10
3.863083
20
18.835434
42
0.123006
0
VERTEX
8
1
10
4.016563
20
18.875237
0
VERTEX
8
1
10
4.044029
20
18.888359
42
-0.287068
0
VERTEX
8
1
10
4.305305
20
18.864311
42
-0.055497
0
VERTEX
8
1
10
4.372208
20
18.809357
0
VERTEX
8
1
10
4.740608
20
18.768425
42
0.075631
0
VERTEX
8
1
10
5.208862
20
18.803024
0
VERTEX
8
1
10
5.293976
20
18.821014
42
0.014506
0
VERTEX
8
1
10
6.019211
20
19.022408
42
-0.169334
0
VERTEX
8
1
10
6.282715
20
19.015541
42
-0.213122
0
VERTEX
8
1
10
6.483345
20
18.781586
42
0.039418
0
VERTEX
8
1
10
6.878448
20
18.966270
42
-0.314377
0
VERTEX
8
1
10
7.077469
20
18.929123
42
-0.143143
0
VERTEX
8
1
10
7.195328
20
18.744301
42
-0.027153
0
VERTEX
8
1
10
7.276398
20
18.434799
42
0.006821
0
VERTEX
8
1
10
8.100121
20
18.721130
0
VERTEX
8
1
10
8.159882
20
18.745476
42
-0.001037
0
VERTEX
8
1
10
7.998291
20
18.751122
0
VERTEX
8
1
10
8.118797
20
18.871567
42
-0.253608
0
VERTEX
8
1
10
8.269730
20
18.954697
42
0.369634
0
VERTEX
8
1
10
8.356331
20
18.989975
42
-0.067552
0
VERTEX
8
1
10
8.447639
20
19.069382
0
VERTEX
8
1
10
8.349190
20
19.189713
42
-0.243090
0
VERTEX
8
1
10
8.092033
20
19.291634
0
VERTEX
8
1
10
8.071327
20
19.299149
42
-0.003398
0
VERTEX
8
1
10
7.633087
20
19.271408
0
VERTEX
8
1
10
7.603638
20
19.271477
42
-0.184441
0
VERTEX
8
1
10
7.457603
20
19.330002
42
-0.094159
0
VERTEX
8
1
10
7.392265
20
19.396652
42
-0.234234
0
VERTEX
8
1
10
7.401131
20
19.498215
42
0.093052
0
VERTEX
8
1
10
7.531029
20
19.892944
42
0.012702
0
VERTEX
8
1
10
7.548462
20
19.990898
42
-0.005074
0
VERTEX
8
1
10
7.492653
20
20.178848
0
VERTEX
8
1
10
7.484573
20
20.189667
42
0.062298
0
VERTEX
8
1
10
7.101784
20
20.482445
42
0.203981
0
VERTEX
8
1
10
6.858070
20
20.497528
42
0.049205
0
VERTEX
8
1
10
6.545464
20
20.394501
42
-0.019324
0
VERTEX
8
1
10
6.396553
20
20.315529
42
0.015645
0
VERTEX
8
1
10
6.147530
20
20.094475
42
-0.307594
0
VERTEX
8
1
10
5.994690
20
20.097992
42
-0.237780
0
VERTEX
8
1
10
5.866356
20
20.312920
42
-0.200969
0
VERTEX
8
1
10
5.909645
20
20.417328
0
VERTEX
8
1
10
5.920677
20
20.430222
42
-0.114441
0
VERTEX
8
1
10
6.004364
20
20.496811
42
0.044132
0
VERTEX
8
1
10
6.187241
20
20.732048
42
-0.069411
0
VERTEX
8
1
10
6.367607
20
20.980858
42
-0.017465
0
VERTEX
8
1
10
6.480293
20
21.117348
42
-0.240528
0
VERTEX
8
1
10
6.542984
20
21.142540
42
0.186365
0
VERTEX
8
1
10
6.698555
20
21.281670
42
-0.141758
0
VERTEX
8
1
10
6.868805
20
21.426750
42
-0.108933
0
VERTEX
8
1
10
6.878143
20
21.289169
42
-0.153285
0
VERTEX
8
1
10
6.825760
20
21.241676
42
0.136030
0
VERTEX
8
1
10
6.964493
20
21.265244
42
0.007159
0
VERTEX
8
1
10
7.356628
20
21.429024
42
-0.079249
0
VERTEX
8
1
10
7.416519
20
21.444984
0
VERTEX
8
1
10
7.418015
20
21.439423
42
0.105775
0
VERTEX
8
1
10
7.362633
20
21.308495
42
0.515091
0
VERTEX
8
1
10
7.398407
20
21.279037
0
VERTEX
8
1
10
7.415909
20
21.281281
42
-0.020902
0
VERTEX
8
1
10
7.931938
20
21.405006
42
-0.066813
0
VERTEX
8
1
10
8.013229
20
21.409157
0
VERTEX
8
1
10
8.022270
20
21.403549
0
VERTEX
8
1
10
8.020119
20
21.393707
42
0.003786
0
VERTEX
8
1
10
7.950508
20
21.314926
42
0.451577
0
VERTEX
8
1
10
7.965668
20
21.300766
42
0.078822
0
VERTEX
8
1
10
8.117676
20
21.295738
42
-0.015331
0
VERTEX
8
1
10
8.549736
20
21.311798
42
-0.128815
0
VERTEX
8
1
10
8.603745
20
21.300865
0
VERTEX
8
1
10
8.599655
20
21.293503
0
VERTEX
8
1
10
8.588577
20
21.284988
42
0.015466
0
VERTEX
8
1
10
8.420158
20
21.193535
0
VERTEX
8
1
10
8.408569
20
21.183655
42
0.696277
0
VERTEX
8
1
10
8.414040
20
21.149490
42
-0.156250
0
VERTEX
8
1
10
8.510002
20
21.095856
42
-0.435277
0
VERTEX
8
1
10
8.495293
20
21.065117
0
VERTEX
8
1
10
8.486839
20
21.060638
42
0.128247
0
VERTEX
8
1
10
8.360893
20
20.987228
42
0.616900
0
VERTEX
8
1
10
8.368912
20
20.968910
42
-0.030846
0
VERTEX
8
1
10
8.694328
20
20.937851
42
0.086725
0
VERTEX
8
1
10
9.366554
20
20.980095
42
-0.138588
0
VERTEX
8
1
10
10.242218
20
20.922554
0
VERTEX
8
1
10
10.322975
20
20.888725
0
VERTEX
8
1
10
10.403122
20
20.848480
0
VERTEX
8
1
10
10.482254
20
20.801407
42
0.011465
0
VERTEX
8
1
10
10.853516
20
20.562439
42
0.138101
0
VERTEX
8
1
10
10.962357
20
20.531029
0
VERTEX
8
1
10
10.978889
20
20.535080
0
VERTEX
8
1
10
10.994156
20
20.542854
0
VERTEX
8
1
10
11.005966
20
20.553436
0
VERTEX
8
1
10
11.013161
20
20.564095
42
0.096937
0
VERTEX
8
1
10
11.054138
20
20.732719
42
-0.328502
0
VERTEX
8
1
10
11.305054
20
21.004837
42
-0.105381
0
VERTEX
8
1
10
11.504700
20
21.004349
42
-0.026845
0
VERTEX
8
1
10
12.062637
20
20.860069
42
0.042519
0
VERTEX
8
1
10
12.248802
20
20.848373
0
VERTEX
8
1
10
12.246056
20
20.860153
0
VERTEX
8
1
10
12.244064
20
20.864075
0
VERTEX
8
1
10
12.235275
20
20.876068
42
0.056256
0
VERTEX
8
1
10
11.863190
20
21.181351
42
0.216485
0
VERTEX
8
1
10
11.595383
20
21.214973
42
0.047863
0
VERTEX
8
1
10
11.258560
20
21.113861
42
-0.015260
0
VERTEX
8
1
10
11.102165
20
21.036171
42
0.012225
0
VERTEX
8
1
10
10.835609
20
20.812187
42
-0.274033
0
VERTEX
8
1
10
10.694557
20
20.810951
42
-0.260494
0
VERTEX
8
1
10
10.548988
20
21.051582
42
-0.198154
0
VERTEX
8
1
10
10.598564
20
21.158653
0
VERTEX
8
1
10
10.610382
20
21.171616
42
-0.106618
0
VERTEX
8
1
10
10.698845
20
21.237900
42
0.045616
0
VERTEX
8
1
10
10.896805
20
21.479378
0
VERTEX
8
1
10
10.901749
20
21.490112
42
-0.055157
0
VERTEX
8
1
10
11.108017
20
21.751213
42
-0.042642
0
VERTEX
8
1
10
11.224838
20
21.881721
42
-0.211564
0
VERTEX
8
1
10
11.280006
20
21.897064
42
0.187085
0
VERTEX
8
1
10
11.447731
20
22.040329
42
-0.139991
0
VERTEX
8
1
10
11.628128
20
22.184685
42
-0.108872
0
VERTEX
8
1
10
11.633560
20
22.039467
42
-0.141493
0
VERTEX
8
1
10
11.578117
20
21.992401
42
0.137906
0
VERTEX
8
1
10
11.728653
20
22.014900
42
0.005835
0
VERTEX
8
1
10
12.142021
20
22.174614
42
-0.090542
0
VERTEX
8
1
10
12.201866
20
22.187828
0
VERTEX
8
1
10
12.201889
20
22.181206
42
0.079593
0
VERTEX
8
1
10
12.141884
20
22.057793
42
0.607930
0
VERTEX
8
1
10
12.179489
20
22.015373
0
VERTEX
8
1
10
12.198364
20
22.017624
42
-0.021985
0
VERTEX
8
1
10
12.743385
20
22.132431
42
-0.073086
0
VERTEX
8
1
10
12.825371
20
22.133339
0
VERTEX
8
1
10
12.833298
20
22.126732
0
VERTEX
8
1
10
12.829361
20
22.116035
42
-0.026813
0
VERTEX
8
1
10
12.757462
20
22.041443
42
0.577319
0
VERTEX
8
1
10
12.763504
20
22.024780
42
0.099258
0
VERTEX
8
1
10
12.890381
20
22.012047
42
-0.012083
0
VERTEX
8
1
10
13.385590
20
22.016640
0
VERTEX
8
1
10
13.413406
20
22.013618
0
VERTEX
8
1
10
13.431320
20
22.009171
0
VERTEX
8
1
10
13.437881
20
22.003120
0
VERTEX
8
1
10
13.432053
20
21.995354
0
VERTEX
8
1
10
13.419724
20
21.986702
42
-0.010088
0
VERTEX
8
1
10
13.256828
20
21.905975
42
0.255390
0
VERTEX
8
1
10
13.220383
20
21.866936
0
VERTEX
8
1
10
13.225098
20
21.858253
0
VERTEX
8
1
10
13.237038
20
21.850174
42
-0.163014
0
VERTEX
8
1
10
13.334274
20
21.791618
42
-0.425460
0
VERTEX
8
1
10
13.316734
20
21.760086
42
0.081862
0
VERTEX
8
1
10
13.186348
20
21.695671
42
0.457080
0
VERTEX
8
1
10
13.176720
20
21.666756
0
VERTEX
8
1
10
13.183960
20
21.663345
42
-0.033638
0
VERTEX
8
1
10
13.525345
20
21.621574
42
0.087056
0
VERTEX
8
1
10
14.233017
20
21.648300
42
-0.122918
0
VERTEX
8
1
10
15.065758
20
21.589996
42
-0.078000
0
VERTEX
8
1
10
15.454437
20
21.382050
42
0.018437
0
VERTEX
8
1
10
15.771423
20
21.166550
42
0.143305
0
VERTEX
8
1
10
15.883102
20
21.132790
0
VERTEX
8
1
10
15.900345
20
21.137016
0
VERTEX
8
1
10
15.916367
20
21.145195
0
VERTEX
8
1
10
15.928123
20
21.155998
0
VERTEX
8
1
10
15.935829
20
21.167023
0
VERTEX
8
1
10
15.942642
20
21.178719
42
0.072111
0
VERTEX
8
1
10
15.985565
20
21.358948
42
-0.282776
0
VERTEX
8
1
10
16.215477
20
21.608566
42
-0.137281
0
VERTEX
8
1
10
16.468567
20
21.610107
42
-0.027449
0
VERTEX
8
1
10
17.042480
20
21.444542
42
0.083205
0
VERTEX
8
1
10
17.374268
20
21.438896
42
0.125953
0
VERTEX
8
1
10
17.674500
20
21.581116
0
VERTEX
8
1
10
17.688545
20
21.580063
0
VERTEX
8
1
10
17.699570
20
21.569435
42
-0.199134
0
VERTEX
8
1
10
17.729416
20
21.412460
42
-0.166366
0
VERTEX
8
1
10
17.620270
20
21.216843
0
VERTEX
8
1
10
17.574379
20
21.176903
0
VERTEX
8
1
10
17.518623
20
21.137886
0
VERTEX
8
1
10
17.413597
20
21.078461
42
0.385342
0
VERTEX
8
1
10
17.423897
20
21.024376
42
0.167410
0
VERTEX
8
1
10
17.476616
20
21.026924
42
-0.026088
0
VERTEX
8
1
10
18.002792
20
21.150482
42
-0.116271
0
VERTEX
8
1
10
18.066910
20
21.147903
0
VERTEX
8
1
10
18.068459
20
21.139458
42
-0.016751
0
VERTEX
8
1
10
17.997345
20
21.058525
42
0.515855
0
VERTEX
8
1
10
18.009155
20
21.043800
42
0.087027
0
VERTEX
8
1
10
18.149971
20
21.037331
42
-0.017846
0
VERTEX
8
1
10
18.615944
20
21.052742
0
VERTEX
8
1
10
18.637505
20
21.049706
0
VERTEX
8
1
10
18.648865
20
21.044930
0
VERTEX
8
1
10
18.648567
20
21.038193
42
-0.044474
0
VERTEX
8
1
10
18.505737
20
20.959717
42
0.100285
0
VERTEX
8
1
10
18.449486
20
20.919289
42
0.524322
0
VERTEX
8
1
10
18.456200
20
20.893944
0
VERTEX
8
1
10
18.472038
20
20.886986
42
-0.158339
0
VERTEX
8
1
10
18.555420
20
20.839775
42
-0.456963
0
VERTEX
8
1
10
18.543968
20
20.808731
0
VERTEX
8
1
10
18.536064
20
20.804192
42
0.118623
0
VERTEX
8
1
10
18.408485
20
20.731361
42
0.777160
0
VERTEX
8
1
10
18.421783
20
20.709549
42
-0.038400
0
VERTEX
8
1
10
18.732895
20
20.680870
42
0.085702
0
VERTEX
8
1
10
19.395432
20
20.718658
42
-0.135674
0
VERTEX
8
1
10
20.262863
20
20.674171
42
-0.065424
0
VERTEX
8
1
10
20.571091
20
20.515976
42
0.013289
0
VERTEX
8
1
10
20.891136
20
20.309280
42
0.124795
0
VERTEX
8
1
10
21.003166
20
20.272659
0
VERTEX
8
1
10
21.020157
20
20.275551
42
0.260871
0
VERTEX
8
1
10
21.079041
20
20.350319
42
0.032705
0
VERTEX
8
1
10
21.106064
20
20.512650
42
-0.310063
0
VERTEX
8
1
10
21.380821
20
20.752541
42
-0.097712
0
VERTEX
8
1
10
21.591560
20
20.738014
42
-0.024640
0
VERTEX
8
1
10
22.103073
20
20.603706
42
0.094548
0
VERTEX
8
1
10
22.450157
20
20.609962
42
0.107542
0
VERTEX
8
1
10
22.693512
20
20.733513
0
VERTEX
8
1
10
22.720863
20
20.750603
0
VERTEX
8
1
10
22.731674
20
20.742958
42
-0.206519
0
VERTEX
8
1
10
22.770264
20
20.601051
42
-0.169049
0
VERTEX
8
1
10
22.681107
20
20.411133
42
-0.100479
0
VERTEX
8
1
10
22.461823
20
20.258247
42
-0.093666
0
VERTEX
8
1
10
21.880798
20
20.245758
42
-0.033858
0
VERTEX
8
1
10
21.672485
20
20.317909
0
VERTEX
8
1
10
21.657303
20
20.322311
42
0.371268
0
VERTEX
8
1
10
21.563820
20
20.289795
42
-0.042128
0
VERTEX
8
1
10
21.431702
20
20.118492
0
VERTEX
8
1
10
21.413170
20
20.102333
42
-0.171200
0
VERTEX
8
1
10
21.289993
20
20.052551
42
-0.029433
0
VERTEX
8
1
10
20.923546
20
20.052727
42
0.347975
0
VERTEX
8
1
10
20.758278
20
19.937775
42
-0.089022
0
VERTEX
8
1
10
20.552551
20
19.655899
42
-0.070258
0
VERTEX
8
1
10
20.117531
20
19.334892
0
VERTEX
8
1
10
20.013809
20
19.280090
42
0.105067
0
VERTEX
8
1
10
19.711166
20
19.029884
42
-0.062399
0
VERTEX
8
1
10
19.664398
20
18.954376
42
-0.077971
0
VERTEX
8
1
10
20.125298
20
18.813148
0
VERTEX
8
1
10
20.150467
20
18.801689
0
VERTEX
8
1
10
20.163902
20
18.795792
42
-0.271113
0
VERTEX
8
1
10
20.366081
20
19.054985
42
-0.129449
0
VERTEX
8
1
10
20.476959
20
19.057945
0
VERTEX
8
1
10
20.514053
20
19.050110
0
VERTEX
8
1
10
20.557129
20
19.038956
42
0.010829
0
VERTEX
8
1
10
21.391525
20
18.801071
42
0.069234
0
VERTEX
8
1
10
21.910667
20
18.741112
42
0.151001
0
VERTEX
8
1
10
22.293869
20
18.873985
42
-0.140685
0
VERTEX
8
1
10
22.462410
20
18.944511
42
-0.193397
0
VERTEX
8
1
10
22.537704
20
18.906441
42
0.175341
0
VERTEX
8
1
10
22.719589
20
18.814903
0
VERTEX
8
1
10
22.732933
20
18.815292
42
-0.117017
0
VERTEX
8
1
10
23.006393
20
18.812325
42
-0.124350
0
VERTEX
8
1
10
23.178543
20
18.697220
0
VERTEX
8
1
10
23.206787
20
18.669205
42
0.097160
0
VERTEX
8
1
10
23.693428
20
18.310097
0
VERTEX
8
1
10
23.733070
20
18.295502
42
0.256754
0
VERTEX
8
1
10
23.932014
20
18.319214
42
-0.194753
0
VERTEX
8
1
10
24.124397
20
18.371407
42
-0.139749
0
VERTEX
8
1
10
24.256783
20
18.282974
0
VERTEX
8
1
10
24.267029
20
18.274002
42
0.134852
0
VERTEX
8
1
10
24.851265
20
18.085869
42
0.150983
0
VERTEX
8
1
10
24.967155
20
18.108078
42
0.189808
0
VERTEX
8
1
10
24.991188
20
18.178192
42
-0.326021
0
VERTEX
8
1
10
25.060699
20
18.255707
0
VERTEX
8
1
10
25.074715
20
18.254662
0
VERTEX
8
1
10
25.088165
20
18.250053
0
VERTEX
8
1
10
25.100967
20
18.242447
42
-0.119502
0
VERTEX
8
1
10
25.177765
20
18.128708
0
VERTEX
8
1
10
25.174973
20
18.120171
0
VERTEX
8
1
10
25.166992
20
18.109993
0
VERTEX
8
1
10
25.154198
20
18.098366
0
VERTEX
8
1
10
25.136963
20
18.085510
42
-0.080731
0
VERTEX
8
1
10
24.680992
20
17.901398
42
-0.141446
0
VERTEX
8
1
10
24.453056
20
17.934845
42
0.011256
0
VERTEX
8
1
10
24.171936
20
18.054550
42
0.108188
0
VERTEX
8
1
10
23.903191
20
18.090836
42
0.199362
0
VERTEX
8
1
10
23.729813
20
17.989227
42
-0.050506
0
VERTEX
8
1
10
23.572906
20
17.818764
0
VERTEX
8
1
10
23.548584
20
17.801483
42
-0.354185
0
VERTEX
8
1
10
23.433266
20
17.804070
0
VERTEX
8
1
10
23.414749
20
17.818344
0
VERTEX
8
1
10
23.395180
20
17.835464
42
0.098574
0
VERTEX
8
1
10
23.054474
20
18.070267
42
0.093377
0
VERTEX
8
1
10
22.924179
20
18.079781
42
-0.197639
0
SEQEND
0
POLYLINE
8
1
66
1
70
1
0
VERTEX
8
1
10
7.987328
20
19.485809
42
0.172524
0
VERTEX
8
1
10
7.936089
20
19.627640
42
-0.013648
0
VERTEX
8
1
10
7.800919
20
19.727058
42
-0.022132
0
VERTEX
8
1
10
7.726952
20
19.566963
0
VERTEX
8
1
10
7.729820
20
19.556908
0
VERTEX
8
1
10
7.739670
20
19.547211
0
VERTEX
8
1
10
7.750854
20
19.536568
42
0.259495
0
VERTEX
8
1
10
7.943443
20
19.474861
0
SEQEND
0
POLYLINE
8
1
66
1
70
1
0
VERTEX
8
1
10
20.606697
20
16.226959
42
0.059085
0
VERTEX
8
1
10
19.747131
20
16.288330
42
0.025999
0
VERTEX
8
1
10
19.541557
20
16.264900
0
VERTEX
8
1
10
20.415009
20
16.036118
0
VERTEX
8
1
10
20.416458
20
16.036568
0
VERTEX
8
1
10
20.624092
20
16.223434
0
SEQEND
0
POLYLINE
8
1
66
1
70
1
0
VERTEX
8
1
10
18.417900
20
19.459351
42
0.167816
0
VERTEX
8
1
10
18.425766
20
19.365013
42
-0.009442
0
VERTEX
8
1
10
18.440399
20
19.282654
42
0.182299
0
VERTEX
8
1
10
18.527489
20
19.301598
42
0.143123
0
VERTEX
8
1
10
18.560043
20
19.403091
0
VERTEX
8
1
10
18.561447
20
19.403397
0
VERTEX
8
1
10
18.831360
20
19.403404
0
VERTEX
8
1
10
18.834190
20
19.403137
42
-0.186158
0
VERTEX
8
1
10
18.781570
20
19.271088
0
VERTEX
8
1
10
18.764900
20
19.259102
0
VERTEX
8
1
10
18.702583
20
19.227936
42
-0.044455
0
VERTEX
8
1
10
18.528702
20
19.089081
0
VERTEX
8
1
10
18.516762
20
19.085419
0
VERTEX
8
1
10
18.528473
20
19.073082
0
VERTEX
8
1
10
18.669586
20
18.931969
42
-0.033183
0
VERTEX
8
1
10
18.904137
20
19.115326
0
VERTEX
8
1
10
18.926613
20
19.126877
42
-0.061722
0
VERTEX
8
1
10
19.087654
20
19.152382
42
0.042603
0
VERTEX
8
1
10
19.289955
20
19.378754
0
VERTEX
8
1
10
19.308441
20
19.408730
0
VERTEX
8
1
10
19.321480
20
19.436394
42
0.028382
0
VERTEX
8
1
10
19.414963
20
19.743195
42
-0.020155
0
VERTEX
8
1
10
18.928894
20
19.573463
42
-0.056918
0
VERTEX
8
1
10
18.470146
20
19.513329
0
VERTEX
8
1
10
18.442215
20
19.516953
0
VERTEX
8
1
10
18.428452
20
19.524010
42
0.015762
0
SEQEND
0
POLYLINE
8
1
66
1
70
1
0
VERTEX
8
1
10
13.450920
20
19.483734
0
VERTEX
8
1
10
13.452713
20
19.484756
0
VERTEX
8
1
10
13.426605
20
19.497223
42
0.098829
0
VERTEX
8
1
10
13.406807
20
19.482376
0
SEQEND
0
POLYLINE
8
1
66
1
70
1
0
VERTEX
8
1
10
17.830055
20
19.428780
42
-0.022446
0
VERTEX
8
1
10
17.773300
20
19.309113
0
VERTEX
8
1
10
17.776184
20
19.299049
0
VERTEX
8
1
10
17.786034
20
19.289352
0
VERTEX
8
1
10
17.797211
20
19.278709
0
VERTEX
8
1
10
17.809372
20
19.267685
42
0.295415
0
VERTEX
8
1
10
18.033676
20
19.229965
42
0.170163
0
VERTEX
8
1
10
17.982460
20
19.369774
42
-0.013619
0
VERTEX
8
1
10
17.847290
20
19.469200
42
-0.003260
0
SEQEND
0
POLYLINE
8
1
66
1
70
1
0
VERTEX
8
1
10
16.926117
20
21.037331
42
-0.207040
0
VERTEX
8
1
10
16.871864
20
20.984848
0
VERTEX
8
1
10
16.874069
20
20.983253
42
0.134240
0
VERTEX
8
1
10
16.998283
20
21.002937
42
0.013949
0
VERTEX
8
1
10
17.102104
20
21.043167
0
VERTEX
8
1
10
17.105736
20
21.049026
42
-0.022193
0
VERTEX
8
1
10
16.928642
20
21.056770
42
-0.030220
0
SEQEND
0
POLYLINE
8
1
66
1
70
1
0
VERTEX
8
1
10
13.623650
20
19.641861
42
0.134755
0
VERTEX
8
1
10
13.702080
20
19.592331
0
VERTEX
8
1
10
13.709877
20
19.592560
42
-0.034482
0
VERTEX
8
1
10
13.779175
20
19.618057
42
-0.286362
0
VERTEX
8
1
10
13.815773
20
19.588158
42
0.005986
0
VERTEX
8
1
10
13.885727
20
19.493500
0
VERTEX
8
1
10
14.171371
20
19.485504
0
VERTEX
8
1
10
14.584137
20
19.470009
42
-0.059371
0
VERTEX
8
1
10
18.084671
20
18.880135
0
VERTEX
8
1
10
18.297478
20
18.814896
0
VERTEX
8
1
10
18.440865
20
18.770790
42
-0.043800
0
VERTEX
8
1
10
18.494240
20
18.811226
0
VERTEX
8
1
10
18.395889
20
18.931435
42
-0.245373
0
VERTEX
8
1
10
18.129807
20
19.041504
42
-0.004152
0
VERTEX
8
1
10
17.679611
20
19.013565
0
VERTEX
8
1
10
17.646370
20
19.013710
42
-0.178979
0
VERTEX
8
1
10
17.509537
20
19.067863
42
-0.111838
0
VERTEX
8
1
10
17.436874
20
19.142952
42
-0.236213
0
VERTEX
8
1
10
17.451851
20
19.248726
42
0.090467
0
VERTEX
8
1
10
17.576935
20
19.632675
42
0.004442
0
VERTEX
8
1
10
17.595024
20
19.732430
42
-0.009074
0
VERTEX
8
1
10
17.540733
20
19.916710
0
VERTEX
8
1
10
17.534500
20
19.927406
42
0.061639
0
VERTEX
8
1
10
17.158958
20
20.219299
42
0.214625
0
VERTEX
8
1
10
16.900696
20
20.238716
42
0.040514
0
VERTEX
8
1
10
16.604294
20
20.142960
42
-0.029977
0
VERTEX
8
1
10
16.447609
20
20.060760
42
0.015903
0
VERTEX
8
1
10
16.191895
20
19.835327
42
-0.286324
0
VERTEX
8
1
10
16.050385
20
19.835007
42
-0.249174
0
VERTEX
8
1
10
15.912712
20
20.056335
0
VERTEX
8
1
10
15.914482
20
20.078506
0
VERTEX
8
1
10
15.919479
20
20.099869
42
-0.178385
0
VERTEX
8
1
10
16.049873
20
20.237976
42
0.039738
0
VERTEX
8
1
10
16.230942
20
20.468849
0
VERTEX
8
1
10
16.236618
20
20.481285
42
-0.062934
0
VERTEX
8
1
10
16.424599
20
20.735519
42
-0.044043
0
VERTEX
8
1
10
16.536652
20
20.868118
42
-0.218950
0
VERTEX
8
1
10
16.588959
20
20.884567
42
0.182299
0
VERTEX
8
1
10
16.743202
20
21.021080
42
-0.044343
0
VERTEX
8
1
10
16.789040
20
21.079941
42
-0.039800
0
VERTEX
8
1
10
16.578468
20
21.159538
0
VERTEX
8
1
10
16.560417
20
21.165413
42
0.366324
0
VERTEX
8
1
10
16.461960
20
21.134659
42
-0.027042
0
VERTEX
8
1
10
16.335678
20
20.974899
0
VERTEX
8
1
10
16.314354
20
20.955147
42
-0.177748
0
VERTEX
8
1
10
16.171242
20
20.894203
42
-0.032410
0
VERTEX
8
1
10
15.800621
20
20.903976
42
0.363092
0
VERTEX
8
1
10
15.610916
20
20.791756
42
-0.075017
0
VERTEX
8
1
10
15.449768
20
20.564415
42
-0.080784
0
VERTEX
8
1
10
14.972313
20
20.203659
0
VERTEX
8
1
10
14.851768
20
20.141365
0
VERTEX
8
1
10
14.756584
20
20.094955
42
0.096514
0
VERTEX
8
1
10
14.485809
20
19.862404
42
-0.139023
0
VERTEX
8
1
10
14.381287
20
19.745827
42
-0.210882
0
VERTEX
8
1
10
14.300827
20
19.741287
42
0.050442
0
VERTEX
8
1
10
14.021233
20
19.806931
42
0.156666
0
VERTEX
8
1
10
13.871902
20
19.770187
42
0.015249
0
SEQEND
0
POLYLINE
8
1
66
1
70
1
0
VERTEX
8
1
10
13.156128
20
20.389519
42
0.113136
0
VERTEX
8
1
10
13.149536
20
20.281258
42
-0.042336
0
VERTEX
8
1
10
13.167770
20
20.170288
42
0.197206
0
VERTEX
8
1
10
13.262436
20
20.189484
42
0.115326
0
VERTEX
8
1
10
13.298172
20
20.292915
0
VERTEX
8
1
10
13.583649
20
20.285187
42
-0.164202
0
VERTEX
8
1
10
13.533714
20
20.156639
0
VERTEX
8
1
10
13.517967
20
20.142906
0
VERTEX
8
1
10
13.500412
20
20.133202
0
VERTEX
8
1
10
13.441193
20
20.105507
42
-0.043216
0
VERTEX
8
1
10
13.257095
20
19.966064
0
VERTEX
8
1
10
13.244179
20
19.961945
0
VERTEX
8
1
10
13.252563
20
19.950958
0
VERTEX
8
1
10
13.397469
20
19.797997
0
VERTEX
8
1
10
13.399132
20
19.797684
42
-0.038421
0
VERTEX
8
1
10
13.657730
20
19.986954
0
VERTEX
8
1
10
13.679024
20
19.995880
42
-0.053060
0
VERTEX
8
1
10
13.841698
20
20.015907
42
0.040896
0
VERTEX
8
1
10
14.055618
20
20.241432
0
VERTEX
8
1
10
14.076233
20
20.271881
0
VERTEX
8
1
10
14.091156
20
20.299835
42
0.028061
0
VERTEX
8
1
10
14.200668
20
20.623741
42
-0.014875
0
VERTEX
8
1
10
13.729225
20
20.470222
42
-0.061245
0
VERTEX
8
1
10
13.204651
20
20.410561
0
VERTEX
8
1
10
13.176712
20
20.415154
0
VERTEX
8
1
10
13.163033
20
20.422775
42
0.008017
0
SEQEND
0
POLYLINE
8
1
66
1
70
1
0
VERTEX
8
1
10
12.510750
20
20.289268
42
-0.019211
0
VERTEX
8
1
10
12.473801
20
20.219162
0
VERTEX
8
1
10
12.473389
20
20.207802
0
VERTEX
8
1
10
12.482918
20
20.197838
0
VERTEX
8
1
10
12.493828
20
20.186775
42
0.309804
0
VERTEX
8
1
10
12.742104
20
20.124542
42
0.134051
0
VERTEX
8
1
10
12.707222
20
20.256348
0
VERTEX
8
1
10
12.688873
20
20.277779
42
-0.016969
0
VERTEX
8
1
10
12.554115
20
20.381950
42
-0.007017
0
SEQEND
0
POLYLINE
8
1
66
1
70
1
0
VERTEX
8
1
10
8.485100
20
18.853775
0
VERTEX
8
1
10
8.483818
20
18.857384
0
VERTEX
8
1
10
8.470032
20
18.860909
42
0.479335
0
VERTEX
8
1
10
8.404472
20
18.828934
0
SEQEND
0
POLYLINE
8
1
66
1
70
1
0
VERTEX
8
1
10
8.623276
20
19.189751
42
-0.034339
0
VERTEX
8
1
10
8.859444
20
19.374146
0
VERTEX
8
1
10
8.881577
20
19.385262
42
-0.057256
0
VERTEX
8
1
10
9.041611
20
19.410538
42
0.043295
0
VERTEX
8
1
10
9.244980
20
19.638687
0
VERTEX
8
1
10
9.263115
20
19.668488
0
VERTEX
8
1
10
9.275925
20
19.696190
42
0.029128
0
VERTEX
8
1
10
9.368378
20
20.000954
42
-0.020699
0
VERTEX
8
1
10
8.878777
20
19.830391
42
-0.057363
0
VERTEX
8
1
10
8.421524
20
19.771324
0
VERTEX
8
1
10
8.394470
20
19.775177
0
VERTEX
8
1
10
8.382088
20
19.781853
42
0.052179
0
VERTEX
8
1
10
8.368805
20
19.658813
42
-0.046191
0
VERTEX
8
1
10
8.394226
20
19.540497
42
0.185288
0
VERTEX
8
1
10
8.481728
20
19.560013
42
0.140777
0
VERTEX
8
1
10
8.513680
20
19.661026
0
VERTEX
8
1
10
8.515511
20
19.661247
0
VERTEX
8
1
10
8.785530
20
19.661247
0
VERTEX
8
1
10
8.787827
20
19.660873
42
-0.188821
0
VERTEX
8
1
10
8.734184
20
19.528030
0
VERTEX
8
1
10
8.717400
20
19.516388
0
VERTEX
8
1
10
8.656273
20
19.485825
42
-0.045628
0
VERTEX
8
1
10
8.481384
20
19.346497
0
VERTEX
8
1
10
8.469795
20
19.343254
0
SEQEND
0
POLYLINE
8
1
66
1
70
1
0
VERTEX
8
1
10
9.018646
20
19.013573
42
-0.029245
0
VERTEX
8
1
10
10.186874
20
19.289551
42
-0.023711
0
VERTEX
8
1
10
11.083664
20
19.390739
42
-0.008962
0
VERTEX
8
1
10
12.847748
20
19.465317
0
VERTEX
8
1
10
12.862144
20
19.478958
0
VERTEX
8
1
10
12.866150
20
19.484604
42
-0.294521
0
VERTEX
8
1
10
13.051094
20
19.558167
42
0.281707
0
VERTEX
8
1
10
13.109833
20
19.591553
42
-0.063586
0
VERTEX
8
1
10
13.210968
20
19.676750
0
VERTEX
8
1
10
13.111847
20
19.804802
42
-0.227744
0
VERTEX
8
1
10
12.855873
20
19.906372
0
VERTEX
8
1
10
12.834106
20
19.926994
42
-0.004077
0
VERTEX
8
1
10
12.370651
20
19.910454
0
VERTEX
8
1
10
12.335930
20
19.911369
42
-0.183771
0
VERTEX
8
1
10
12.193634
20
19.968987
42
-0.087402
0
VERTEX
8
1
10
12.118752
20
20.045753
42
-0.258825
0
VERTEX
8
1
10
12.136253
20
20.165581
42
0.080582
0
VERTEX
8
1
10
12.260681
20
20.490967
42
-0.071239
0
VERTEX
8
1
10
11.827103
20
20.505234
42
-0.031634
0
VERTEX
8
1
10
11.621765
20
20.577141
42
0.335115
0
VERTEX
8
1
10
11.526817
20
20.558624
0
VERTEX
8
1
10
11.515427
20
20.545105
42
-0.052294
0
VERTEX
8
1
10
11.381302
20
20.372597
42
-0.172937
0
VERTEX
8
1
10
11.250023
20
20.311157
42
-0.033272
0
VERTEX
8
1
10
10.876144
20
20.310562
42
0.348601
0
VERTEX
8
1
10
10.711090
20
20.193779
42
-0.089080
0
VERTEX
8
1
10
10.510521
20
19.918144
42
-0.078013
0
VERTEX
8
1
10
10.010498
20
19.559975
42
0.122796
0
VERTEX
8
1
10
9.662811
20
19.283394
42
-0.154797
0
VERTEX
8
1
10
9.558609
20
19.163383
42
-0.200041
0
VERTEX
8
1
10
9.482109
20
19.161186
42
0.051987
0
VERTEX
8
1
10
9.217941
20
19.215340
42
0.155424
0
VERTEX
8
1
10
9.079529
20
19.177681
42
0.015433
0
VERTEX
8
1
10
8.842827
20
19.047020
42
0.144432
0
VERTEX
8
1
10
8.921349
20
19.001808
0
VERTEX
8
1
10
8.928490
20
19.002701
42
-0.093859
0
VERTEX
8
1
10
8.998024
20
19.028282
42
-0.230753
0
SEQEND
0
POLYLINE
8
1
66
1
70
1
0
VERTEX
8
1
10
14.002701
20
16.870636
42
0.012412
0
VERTEX
8
1
10
12.488937
20
16.948189
42
0.034497
0
VERTEX
8
1
10
11.978699
20
16.931808
0
VERTEX
8
1
10
11.920799
20
16.919662
42
0.083770
0
VERTEX
8
1
10
11.549545
20
16.729591
42
0.048637
0
VERTEX
8
1
10
10.957916
20
16.202667
0
VERTEX
8
1
10
11.166252
20
15.890198
0
VERTEX
8
1
10
13.270317
20
15.973526
42
0.017718
0
VERTEX
8
1
10
13.499474
20
16.431839
42
-0.156961
0
VERTEX
8
1
10
13.614601
20
16.568542
42
-0.244922
0
VERTEX
8
1
10
13.798950
20
16.564537
42
-0.127260
0
VERTEX
8
1
10
13.999443
20
16.390167
0
VERTEX
8
1
10
14.002701
20
16.392204
0
SEQEND
0
POLYLINE
8
1
66
1
70
1
0
VERTEX
8
1
10
14.329933
20
16.787041
42
0.053405
0
VERTEX
8
1
10
14.121185
20
16.851173
0
VERTEX
8
1
10
14.121185
20
16.426491
42
-0.174052
0
VERTEX
8
1
10
14.334595
20
16.324181
0
VERTEX
8
1
10
14.338142
20
16.325294
0
SEQEND
0
POLYLINE
8
1
66
1
70
1
0
VERTEX
8
1
10
14.481750
20
16.163109
0
VERTEX
8
1
10
14.483017
20
16.154945
42
-0.004345
0
VERTEX
8
1
10
14.520805
20
16.098663
42
0.080987
0
VERTEX
8
1
10
14.730530
20
16.198654
42
0.258100
0
VERTEX
8
1
10
14.774445
20
16.335236
42
0.115621
0
VERTEX
8
1
10
14.706841
20
16.496239
42
0.113329
0
VERTEX
8
1
10
14.474113
20
16.718712
0
VERTEX
8
1
10
14.471970
20
16.713531
0
SEQEND
0
POLYLINE
8
1
66
1
70
1
0
VERTEX
8
1
10
18.889038
20
18.789314
42
0.124412
0
VERTEX
8
1
10
18.963058
20
18.744202
0
VERTEX
8
1
10
18.973465
20
18.744568
42
-0.085391
0
VERTEX
8
1
10
19.045479
20
18.770248
0
VERTEX
8
1
10
19.053047
20
18.767570
0
VERTEX
8
1
10
19.060104
20
18.761993
42
0.008188
0
VERTEX
8
1
10
19.272797
20
18.493263
42
-0.015459
0
VERTEX
8
1
10
19.232971
20
18.481949
42
0.052399
0
VERTEX
8
1
10
19.287140
20
18.462402
42
0.284965
0
VERTEX
8
1
10
19.334877
20
18.495438
42
0.070409
0
VERTEX
8
1
10
19.365814
20
18.643524
42
-0.094940
0
VERTEX
8
1
10
19.435448
20
18.877060
42
-0.087584
0
VERTEX
8
1
10
19.474312
20
18.915825
42
0.077743
0
VERTEX
8
1
10
19.242798
20
18.957291
42
0.130640
0
VERTEX
8
1
10
19.132141
20
18.922943
42
0.014553
0
SEQEND
0
POLYLINE
8
1
66
1
0
VERTEX
8
1
10
9.255646
20
18.884583
0
VERTEX
8
1
10
9.255646
20
18.180779
42
-0.134544
0
VERTEX
8
1
10
9.188087
20
17.914078
42
-0.206984
0
VERTEX
8
1
10
9.068146
20
17.822136
0
SEQEND
0
POLYLINE
8
1
66
1
0
VERTEX
8
1
10
10.005608
20
18.280441
0
VERTEX
8
1
10
9.630630
20
18.926247
0
VERTEX
8
1
10
9.068146
20
18.926247
0
SEQEND
0
POLYLINE
8
1
66
1
0
VERTEX
8
1
10
10.880562
20
18.905411
0
VERTEX
8
1
10
10.401421
20
18.905411
0
VERTEX
8
1
10
9.859772
20
17.801300
0
VERTEX
8
1
10
9.443146
20
18.530411
0
SEQEND
0
LINE
8
1
10
10.713905
20
17.926285
11
10.713905
21
18.697083
0
LINE
8
1
10
10.359764
20
17.926285
11
10.359764
21
18.384605
0
LINE
8
1
10
10.880562
20
17.842972
11
10.172264
21
17.842972
0
LINE
8
1
10
9.505630
20
17.842972
11
9.255646
21
17.842972
0
POLYLINE
8
1
66
1
0
VERTEX
8
1
10
11.776352
20
18.322105
0
VERTEX
8
1
10
11.755585
20
17.989677
42
-0.136721
0
VERTEX
8
1
10
11.605209
20
17.846130
42
-0.276546
0
VERTEX
8
1
10
11.422211
20
17.863785
0
VERTEX
8
1
10
11.387466
20
17.881302
0
VERTEX
8
1
10
11.358643
20
17.910034
42
-0.122098
0
VERTEX
8
1
10
11.292618
20
18.104256
42
-0.052813
0
VERTEX
8
1
10
11.295975
20
18.571968
0
VERTEX
8
1
10
10.838898
20
18.530411
0
SEQEND
0
POLYLINE
8
1
66
1
0
VERTEX
8
1
10
11.380539
20
17.759636
42
-0.318020
0
VERTEX
8
1
10
11.057854
20
17.925415
42
-0.116019
0
VERTEX
8
1
10
10.963921
20
18.298065
0
VERTEX
8
1
10
10.963890
20
18.301277
0
SEQEND
0
POLYLINE
8
1
66
1
0
VERTEX
8
1
10
12.088837
20
17.884621
0
VERTEX
8
1
10
12.088837
20
18.572083
0
VERTEX
8
1
10
11.588860
20
18.530411
0
SEQEND
0
LINE
8
1
10
12.234665
20
17.842972
11
11.776352
21
17.842972
0
POLYLINE
8
1
66
1
0
VERTEX
8
1
10
12.359657
20
18.009621
0
VERTEX
8
1
10
12.359657
20
17.803131
0
VERTEX
8
1
10
12.359680
20
17.801300
0
VERTEX
8
1
10
12.482513
20
17.781708
0
VERTEX
8
1
10
12.483330
20
17.781685
0
VERTEX
8
1
10
12.505402
20
17.925629
42
0.143812
0
VERTEX
8
1
10
12.837967
20
17.806259
42
0.166626
0
VERTEX
8
1
10
13.049393
20
17.860748
42
0.174304
0
VERTEX
8
1
10
13.087936
20
17.916451
0
VERTEX
8
1
10
13.083824
20
17.939514
42
0.203581
0
VERTEX
8
1
10
12.978905
20
18.012688
42
0.036933
0
VERTEX
8
1
10
12.679962
20
18.066032
42
-0.045067
0
VERTEX
8
1
10
12.399879
20
18.127480
42
-0.173754
0
VERTEX
8
1
10
12.289459
20
18.218559
42
-0.237788
0
VERTEX
8
1
10
12.289894
20
18.370956
42
-0.275860
0
VERTEX
8
1
10
12.696022
20
18.620537
0
VERTEX
8
1
10
12.776276
20
18.623581
0
VERTEX
8
1
10
12.848679
20
18.620560
42
-0.157462
0
VERTEX
8
1
10
13.164764
20
18.501724
42
-0.073657
0
VERTEX
8
1
10
13.233688
20
18.421989
0
VERTEX
8
1
10
13.276276
20
18.592911
0
SEQEND
0
POLYLINE
8
1
66
1
0
VERTEX
8
1
10
13.122208
20
17.795471
42
0.212155
0
VERTEX
8
1
10
13.189980
20
17.843315
42
0.134806
0
VERTEX
8
1
10
13.273582
20
18.056007
42
0.193050
0
VERTEX
8
1
10
13.209770
20
18.227348
42
0.238634
0
VERTEX
8
1
10
12.775940
20
18.380524
42
-0.100436
0
VERTEX
8
1
10
12.547157
20
18.405411
0
SEQEND
0
POLYLINE
8
1
66
1
0
VERTEX
8
1
10
13.984581
20
18.051285
42
-0.099743
0
VERTEX
8
1
10
13.930199
20
17.860817
0
VERTEX
8
1
10
13.912956
20
17.838539
42
-0.390975
0
VERTEX
8
1
10
13.819565
20
17.830765
42
-0.108119
0
VERTEX
8
1
10
13.713676
20
17.948380
42
-0.020472
0
VERTEX
8
1
10
13.711403
20
18.810379
42
-0.242708
0
VERTEX
8
1
10
13.480637
20
18.551582
42
-0.038579
0
VERTEX
8
1
10
13.422104
20
18.530411
0
SEQEND
0
POLYLINE
8
1
66
1
0
VERTEX
8
1
10
13.713745
20
17.780472
0
VERTEX
8
1
10
13.588776
20
17.780472
0
VERTEX
8
1
10
13.553986
20
17.779846
0
VERTEX
8
1
10
13.524338
20
17.793259
0
VERTEX
8
1
10
13.499443
20
17.818634
0
VERTEX
8
1
10
13.478874
20
17.853897
0
VERTEX
8
1
10
13.462227
20
17.896973
42
-0.071230
0
VERTEX
8
1
10
13.421898
20
18.294121
0
VERTEX
8
1
10
13.422104
20
18.301277
0
SEQEND
0
LINE
8
1
10
13.755409
20
18.530411
11
13.963745
21
18.530411
0
POLYLINE
8
1
66
1
0
VERTEX
8
1
10
15.338676
20
18.030457
42
-0.120229
0
VERTEX
8
1
10
15.286476
20
17.860283
42
-0.539475
0
VERTEX
8
1
10
15.198448
20
17.859337
0
VERTEX
8
1
10
15.184677
20
17.876099
42
-0.158780
0
VERTEX
8
1
10
15.129677
20
18.124626
0
VERTEX
8
1
10
15.134140
20
18.166428
42
0.214246
0
VERTEX
8
1
10
15.037224
20
18.503143
42
0.132026
0
VERTEX
8
1
10
14.870361
20
18.610474
42
0.086471
0
VERTEX
8
1
10
14.365463
20
18.599442
42
0.169790
0
VERTEX
8
1
10
14.177757
20
18.492165
42
0.385499
0
VERTEX
8
1
10
14.202293
20
18.288536
0
VERTEX
8
1
10
14.222084
20
18.281258
42
0.161011
0
VERTEX
8
1
10
14.363968
20
18.332352
42
0.313860
0
VERTEX
8
1
10
14.380402
20
18.426247
0
SEQEND
0
POLYLINE
8
1
66
1
0
VERTEX
8
1
10
15.005356
20
17.780472
0
VERTEX
8
1
10
14.985970
20
17.783859
42
-0.223245
0
VERTEX
8
1
10
14.806961
20
17.888420
0
VERTEX
8
1
10
14.795319
20
17.902542
0
VERTEX
8
1
10
14.782814
20
17.918022
0
VERTEX
8
1
10
14.763649
20
17.906693
42
-0.192371
0
VERTEX
8
1
10
14.531563
20
17.768570
42
-0.151965
0
VERTEX
8
1
10
14.180130
20
17.804039
42
-0.176334
0
VERTEX
8
1
10
14.088745
20
17.884621
0
VERTEX
8
1
10
14.082535
20
17.935287
42
-0.314358
0
VERTEX
8
1
10
14.181923
20
18.122307
42
-0.083889
0
VERTEX
8
1
10
14.426277
20
18.188873
42
0.028439
0
VERTEX
8
1
10
14.651459
20
18.232323
42
0.184624
0
VERTEX
8
1
10
14.799843
20
18.346954
42
0.342023
0
VERTEX
8
1
10
14.760460
20
18.484512
0
VERTEX
8
1
10
14.756721
20
18.487671
0
VERTEX
8
1
10
14.755356
20
18.488747
0
SEQEND
0
POLYLINE
8
1
66
1
0
VERTEX
8
1
10
14.380402
20
17.947121
42
-0.437013
0
VERTEX
8
1
10
14.377792
20
18.033058
42
-0.081992
0
VERTEX
8
1
10
14.422050
20
18.072121
0
SEQEND
0
LINE
8
1
10
14.838692
20
18.113785
11
14.838692
21
18.238777
0
POLYLINE
8
1
66
1
0
VERTEX
8
1
10
15.880302
20
18.592911
0
VERTEX
8
1
10
15.851128
20
18.578476
0
VERTEX
8
1
10
15.818748
20
18.566299
0
VERTEX
8
1
10
15.783859
20
18.556198
42
-0.064991
0
VERTEX
8
1
10
15.422012
20
18.530411
0
SEQEND
0
LINE
8
1
10
15.588661
20
17.843697
11
15.588661
21
18.322083
0
LINE
8
1
10
16.067802
20
17.842972
11
15.401176
21
17.842972
0
POLYLINE
8
1
66
1
0
VERTEX
8
1
10
16.713608
20
18.051285
0
VERTEX
8
1
10
16.713608
20
18.306786
42
0.228021
0
VERTEX
8
1
10
16.593781
20
18.509346
0
VERTEX
8
1
10
16.559799
20
18.530899
42
0.202233
0
VERTEX
8
1
10
16.111526
20
18.564644
0
VERTEX
8
1
10
16.060547
20
18.539787
42
0.306514
0
VERTEX
8
1
10
15.873131
20
18.160378
42
0.034230
0
VERTEX
8
1
10
15.880302
20
18.113785
0
SEQEND
0
LINE
8
1
10
16.838593
20
17.822136
11
16.234467
21
17.822136
0
POLYLINE
8
1
66
1
0
VERTEX
8
1
10
16.401108
20
18.009621
0
VERTEX
8
1
10
16.401115
20
18.258446
42
0.182233
0
VERTEX
8
1
10
16.358017
20
18.427979
42
0.236029
0
VERTEX
8
1
10
16.255302
20
18.467911
0
SEQEND
0
POLYLINE
8
1
66
1
0
VERTEX
8
1
10
18.109375
20
18.509583
42
0.470839
0
VERTEX
8
1
10
18.169502
20
18.652931
42
0.154808
0
VERTEX
8
1
10
18.109375
20
18.717911
0
VERTEX
8
1
10
18.067543
20
18.722870
42
0.347976
0
VERTEX
8
1
10
17.895782
20
18.595322
42
0.056894
0
VERTEX
8
1
10
17.880219
20
18.530411
0
SEQEND
0
POLYLINE
8
1
66
1
0
VERTEX
8
1
10
17.171913
20
18.551247
42
0.087967
0
VERTEX
8
1
10
17.020775
20
18.447815
42
0.333547
0
VERTEX
8
1
10
16.983215
20
18.207741
42
0.105483
0
VERTEX
8
1
10
17.109428
20
18.051285
42
0.062021
0
VERTEX
8
1
10
17.526070
20
18.009621
42
0.141935
0
VERTEX
8
1
10
17.841042
20
18.133636
42
0.226868
0
VERTEX
8
1
10
17.942711
20
18.342941
42
0.271216
0
VERTEX
8
1
10
17.796303
20
18.535645
0
VERTEX
8
1
10
17.757957
20
18.551094
42
0.107520
0
VERTEX
8
1
10
17.405090
20
18.572708
0
VERTEX
8
1
10
17.401070
20
18.572083
0
SEQEND
0
POLYLINE
8
1
66
1
0
VERTEX
8
1
10
17.609406
20
18.176277
0
VERTEX
8
1
10
17.626144
20
18.193123
0
VERTEX
8
1
10
17.638268
20
18.214180
0
VERTEX
8
1
10
17.646355
20
18.238480
42
0.107661
0
VERTEX
8
1
10
17.630234
20
18.447082
0
SEQEND
0
POLYLINE
8
1
66
1
0
VERTEX
8
1
10
17.296913
20
18.238777
0
VERTEX
8
1
10
17.283310
20
18.262413
0
VERTEX
8
1
10
17.275902
20
18.287361
42
-0.168837
0
VERTEX
8
1
10
17.317749
20
18.447082
0
SEQEND
0
POLYLINE
8
1
66
1
0
VERTEX
8
1
10
16.984428
20
17.613800
42
0.155904
0
VERTEX
8
1
10
17.119461
20
17.481178
42
0.039918
0
VERTEX
8
1
10
17.192749
20
17.447136
42
0.061800
0
VERTEX
8
1
10
17.606308
20
17.410103
0
VERTEX
8
1
10
17.650307
20
17.414879
0
VERTEX
8
1
10
17.688492
20
17.422104
0
VERTEX
8
1
10
17.721367
20
17.431519
42
0.252641
0
VERTEX
8
1
10
17.859390
20
17.572136
0
VERTEX
8
1
10
17.855255
20
17.591652
42
0.205785
0
VERTEX
8
1
10
17.766701
20
17.647011
42
0.044781
0
VERTEX
8
1
10
17.377647
20
17.693253
42
-0.030428
0
VERTEX
8
1
10
17.064957
20
17.726578
42
-0.222048
0
VERTEX
8
1
10
16.947403
20
17.806702
42
-0.236259
0
VERTEX
8
1
10
16.973434
20
17.971619
42
-0.020800
0
VERTEX
8
1
10
16.984428
20
17.988785
0
SEQEND
0
POLYLINE
8
1
66
1
0
VERTEX
8
1
10
17.963539
20
17.509636
0
VERTEX
8
1
10
17.993393
20
17.543381
0
VERTEX
8
1
10
18.015770
20
17.576912
42
0.328744
0
VERTEX
8
1
10
17.991753
20
17.811272
0
VERTEX
8
1
10
17.971672
20
17.833076
42
0.263841
0
VERTEX
8
1
10
17.759949
20
17.901176
42
-0.023433
0
VERTEX
8
1
10
17.192749
20
17.905457
0
SEQEND
0
POLYLINE
8
1
66
1
0
VERTEX
8
1
10
7.047432
20
18.717911
42
-0.627608
0
VERTEX
8
1
10
7.067268
20
18.704681
42
-0.088405
0
VERTEX
8
1
10
6.952652
20
18.671928
0
VERTEX
8
1
10
6.945480
20
18.671646
42
0.396169
0
VERTEX
8
1
10
6.920807
20
18.660988
0
VERTEX
8
1
10
6.917267
20
18.658745
42
-0.141989
0
VERTEX
8
1
10
6.855438
20
18.673615
0
VERTEX
8
1
10
6.845253
20
18.676117
42
-0.121428
0
VERTEX
8
1
10
6.737862
20
18.691177
0
VERTEX
8
1
10
6.722549
20
18.694618
42
0.053018
0
VERTEX
8
1
10
6.575768
20
18.695107
0
VERTEX
8
1
10
6.562523
20
18.690369
42
-0.166555
0
VERTEX
8
1
10
6.457291
20
18.651321
0
VERTEX
8
1
10
6.446457
20
18.646690
42
0.327315
0
VERTEX
8
1
10
6.433434
20
18.536064
42
0.105741
0
VERTEX
8
1
10
6.499458
20
18.422951
42
0.125027
0
VERTEX
8
1
10
6.599144
20
18.383224
0
VERTEX
8
1
10
6.611588
20
18.378624
42
-0.028619
0
VERTEX
8
1
10
6.799026
20
18.304962
0
VERTEX
8
1
10
6.814117
20
18.301773
42
-0.048029
0
VERTEX
8
1
10
6.906891
20
18.293312
42
0.189065
0
VERTEX
8
1
10
6.972115
20
18.280586
42
0.158697
0
VERTEX
8
1
10
7.068253
20
18.301277
0
SEQEND
0
POLYLINE
8
1
66
1
0
VERTEX
8
1
10
6.255798
20
18.905411
42
-0.109105
0
VERTEX
8
1
10
6.020493
20
18.863129
0
VERTEX
8
1
10
5.979179
20
18.863075
42
0.066613
0
VERTEX
8
1
10
5.696632
20
18.835648
42
0.574083
0
VERTEX
8
1
10
5.654129
20
18.686104
0
VERTEX
8
1
10
5.668259
20
18.675774
42
0.095859
0
VERTEX
8
1
10
5.799240
20
18.647110
42
-0.043124
0
VERTEX
8
1
10
5.882225
20
18.616737
42
0.097186
0
VERTEX
8
1
10
6.089638
20
18.620148
0
VERTEX
8
1
10
6.096619
20
18.623230
42
-0.203131
0
VERTEX
8
1
10
6.225273
20
18.655334
0
VERTEX
8
1
10
6.234978
20
18.655411
0
SEQEND
0
POLYLINE
8
1
66
1
0
VERTEX
8
1
10
5.755821
20
17.842972
0
VERTEX
8
1
10
5.753860
20
17.853973
42
-0.124149
0
VERTEX
8
1
10
5.734985
20
18.009621
42
0.116651
0
VERTEX
8
1
10
5.707954
20
18.174294
0
VERTEX
8
1
10
5.703453
20
18.192078
42
0.036178
0
VERTEX
8
1
10
5.677071
20
18.362946
42
-0.031803
0
VERTEX
8
1
10
5.672501
20
18.467911
0
SEQEND
0
POLYLINE
8
1
66
1
0
VERTEX
8
1
10
6.609955
20
17.426300
42
0.044646
0
VERTEX
8
1
10
6.607460
20
17.630165
42
-0.139109
0
VERTEX
8
1
10
6.589119
20
17.780472
42
0.122057
0
VERTEX
8
1
10
6.570801
20
17.922974
0
VERTEX
8
1
10
6.569130
20
17.932457
42
0.083170
0
VERTEX
8
1
10
6.555374
20
18.074356
0
VERTEX
8
1
10
6.547455
20
18.092957
0
SEQEND
0
POLYLINE
8
1
66
1
0
VERTEX
8
1
10
20.130112
20
18.572083
42
-0.042438
0
VERTEX
8
1
10
20.159561
20
18.593483
0
VERTEX
8
1
10
20.160561
20
18.591591
42
0.074449
0
VERTEX
8
1
10
20.133179
20
18.514481
42
-0.120984
0
VERTEX
8
1
10
20.033607
20
18.413200
42
-0.100570
0
VERTEX
8
1
10
19.952072
20
18.401657
0
VERTEX
8
1
10
19.945763
20
18.398026
42
-0.329884
0
VERTEX
8
1
10
19.902542
20
18.382698
42
0.223266
0
VERTEX
8
1
10
19.821205
20
18.370888
42
-0.195795
0
VERTEX
8
1
10
19.681419
20
18.383217
42
0.009828
0
VERTEX
8
1
10
19.551819
20
18.385269
42
0.526584
0
VERTEX
8
1
10
19.525970
20
18.363777
0
SEQEND
0
POLYLINE
8
1
66
1
0
VERTEX
8
1
10
20.859238
20
18.801247
0
VERTEX
8
1
10
20.870537
20
18.802284
42
0.260005
0
VERTEX
8
1
10
20.878876
20
18.757828
42
-0.412112
0
VERTEX
8
1
10
20.852081
20
18.701080
0
VERTEX
8
1
10
20.839264
20
18.692825
42
-0.296606
0
VERTEX
8
1
10
20.771095
20
18.687317
42
0.157401
0
VERTEX
8
1
10
20.679764
20
18.695313
42
-0.170263
0
VERTEX
8
1
10
20.580299
20
18.713837
0
VERTEX
8
1
10
20.567078
20
18.716713
42
-0.028016
0
VERTEX
8
1
10
20.479973
20
18.717354
42
-0.219884
0
VERTEX
8
1
10
20.460297
20
18.731293
0
VERTEX
8
1
10
20.452660
20
18.735245
0
VERTEX
8
1
10
20.437309
20
18.736938
0
VERTEX
8
1
10
20.421928
20
18.737595
42
-0.198735
0
VERTEX
8
1
10
20.317894
20
18.768173
0
VERTEX
8
1
10
20.306938
20
18.774826
0
VERTEX
8
1
10
20.296768
20
18.780411
0
SEQEND
0
POLYLINE
8
1
66
1
0
VERTEX
8
1
10
20.859238
20
18.176277
42
-0.689662
0
VERTEX
8
1
10
20.821968
20
18.158249
0
VERTEX
8
1
10
20.827820
20
18.177612
42
0.006559
0
VERTEX
8
1
10
20.917618
20
18.350182
0
VERTEX
8
1
10
20.925072
20
18.371429
42
0.031118
0
VERTEX
8
1
10
20.944389
20
18.521767
42
0.319381
0
VERTEX
8
1
10
20.942574
20
18.572083
0
SEQEND
0
POLYLINE
8
1
66
1
0
VERTEX
8
1
10
22.150841
20
18.530411
42
-0.087679
0
VERTEX
8
1
10
22.054230
20
18.442116
42
-0.128334
0
VERTEX
8
1
10
21.934990
20
18.351677
42
0.079351
0
VERTEX
8
1
10
21.849213
20
18.268578
42
0.042411
0
VERTEX
8
1
10
21.713242
20
18.128105
42
-0.042268
0
VERTEX
8
1
10
21.546700
20
17.947121
0
SEQEND
0
POLYLINE
8
1
66
1
0
VERTEX
8
1
10
5.005875
20
18.030457
0
VERTEX
8
1
10
5.006935
20
18.018921
42
-0.155150
0
VERTEX
8
1
10
4.971977
20
18.080971
42
0.078698
0
VERTEX
8
1
10
4.733284
20
18.417496
42
-0.124819
0
VERTEX
8
1
10
4.640434
20
18.533287
42
0.071755
0
VERTEX
8
1
10
4.497665
20
18.670601
0
VERTEX
8
1
10
4.475899
20
18.679138
0
VERTEX
8
1
10
4.467949
20
18.681664
0
VERTEX
8
1
10
4.464241
20
18.697083
0
SEQEND
0
ARC
8
1
10
5.821908
20
13.161626
40
1.308293
50
-43.817382
51
35.654533
0
POLYLINE
8
1
66
1
0
VERTEX
8
1
10
5.098198
20
14.382477
42
0.265789
0
VERTEX
8
1
10
4.303230
20
13.291428
0
VERTEX
8
1
10
4.299034
20
13.237610
0
VERTEX
8
1
10
4.297050
20
13.183235
0
SEQEND
0
POLYLINE
8
1
66
1
0
VERTEX
8
1
10
19.098251
20
13.471603
42
0.274179
0
VERTEX
8
1
10
18.253090
20
14.647812
0
VERTEX
8
1
10
18.202255
20
14.669563
0
SEQEND
0
ARC
8
1
10
17.527575
20
13.363468
40
1.369636
50
175.382348
51
-156.928522
0
POLYLINE
8
1
66
1
0
VERTEX
8
1
10
19.457504
20
13.494469
42
0.111494
0
VERTEX
8
1
10
19.349205
20
14.158211
42
0.105483
0
VERTEX
8
1
10
19.180626
20
14.407013
42
0.140207
0
VERTEX
8
1
10
18.557312
20
14.736908
0
VERTEX
8
1
10
18.499557
20
14.749565
42
0.068790
0
VERTEX
8
1
10
17.691635
20
14.779121
42
0.010859
0
VERTEX
8
1
10
17.226799
20
14.728851
42
0.210974
0
VERTEX
8
1
10
16.333748
20
14.159637
0
VERTEX
8
1
10
16.292442
20
14.096916
0
VERTEX
8
1
10
16.254395
20
14.033157
42
0.113510
0
VERTEX
8
1
10
15.975357
20
13.026299
42
-0.294099
0
VERTEX
8
1
10
15.859390
20
12.923126
42
-0.078478
0
VERTEX
8
1
10
15.723907
20
12.911095
42
-0.001386
0
VERTEX
8
1
10
8.292694
20
12.789108
42
-0.006957
0
VERTEX
8
1
10
7.549843
20
12.785583
0
VERTEX
8
1
10
7.533783
20
12.816521
0
VERTEX
8
1
10
7.521461
20
12.864441
0
VERTEX
8
1
10
7.508972
20
12.911621
42
0.070097
0
VERTEX
8
1
10
7.195702
20
13.700401
42
0.067543
0
VERTEX
8
1
10
6.780159
20
14.214470
42
0.101279
0
VERTEX
8
1
10
6.320648
20
14.442566
0
VERTEX
8
1
10
6.254662
20
14.460518
0
VERTEX
8
1
10
6.187508
20
14.476379
0
VERTEX
8
1
10
6.119400
20
14.490250
0
VERTEX
8
1
10
6.050537
20
14.502205
42
0.088493
0
VERTEX
8
1
10
4.783470
20
14.459671
42
0.081314
0
VERTEX
8
1
10
4.571312
20
14.375427
42
0.232433
0
VERTEX
8
1
10
4.099388
20
13.705521
42
0.093615
0
VERTEX
8
1
10
4.104103
20
13.223648
0
SEQEND
0
ARC
8
1
10
5.261657
20
13.354095
40
1.411533
50
91.323674
51
148.166571
0
POLYLINE
8
1
66
1
0
VERTEX
8
1
10
17.707588
20
15.015236
42
0.192339
0
VERTEX
8
1
10
16.339760
20
14.480965
0
VERTEX
8
1
10
16.332672
20
14.473595
0
SEQEND
0
ARC
8
1
10
6.248279
20
13.464144
40
1.077773
50
37.446095
51
57.135931
0
ARC
8
1
10
18.445343
20
13.854587
40
1.083707
50
59.264518
51
77.130726
0
POLYLINE
8
1
66
1
0
VERTEX
8
1
10
9.228844
20
13.306984
0
VERTEX
8
1
10
9.083023
20
13.744461
0
VERTEX
8
1
10
9.062225
20
13.810654
42
-0.086121
0
VERTEX
8
1
10
8.958031
20
14.890236
0
VERTEX
8
1
10
8.963264
20
14.920151
0
VERTEX
8
1
10
8.972427
20
14.953293
0
VERTEX
8
1
10
8.985046
20
14.989166
0
VERTEX
8
1
10
9.000694
20
15.027237
42
-0.041738
0
VERTEX
8
1
10
9.283096
20
15.503517
0
VERTEX
8
1
10
9.291344
20
15.515213
0
SEQEND
0
POLYLINE
8
1
66
1
0
VERTEX
8
1
10
14.832726
20
13.411148
42
0.008814
0
VERTEX
8
1
10
14.837105
20
14.907814
0
VERTEX
8
1
10
14.835114
20
14.946533
0
VERTEX
8
1
10
14.832726
20
14.973572
42
0.024126
0
VERTEX
8
1
10
14.687981
20
15.599236
0
VERTEX
8
1
10
14.666084
20
15.681862
0
SEQEND
0
POLYLINE
8
1
66
1
0
VERTEX
8
1
10
3.020821
20
14.952736
42
-0.100464
0
VERTEX
8
1
10
3.464310
20
15.158134
0
VERTEX
8
1
10
3.503700
20
15.168640
0
VERTEX
8
1
10
3.544052
20
15.178688
42
-0.035272
0
VERTEX
8
1
10
4.434837
20
15.304604
42
-0.017603
0
VERTEX
8
1
10
5.473305
20
15.365639
42
-0.004158
0
VERTEX
8
1
10
8.978859
20
15.452713
0
SEQEND
0
ARC
8
1
10
1.927364
20
13.668569
40
1.399364
50
21.522374
51
59.106859
0
POLYLINE
8
1
66
1
0
VERTEX
8
1
10
2.979156
20
13.619469
0
VERTEX
8
1
10
3.520905
20
13.577805
42
0.160139
0
VERTEX
8
1
10
3.660103
20
13.625534
0
VERTEX
8
1
10
3.672371
20
13.638214
0
VERTEX
8
1
10
3.682938
20
13.652954
0
VERTEX
8
1
10
3.682930
20
13.677521
42
0.260355
0
VERTEX
8
1
10
3.553787
20
13.813492
0
VERTEX
8
1
10
3.524429
20
13.823097
42
0.023742
0
VERTEX
8
1
10
3.233482
20
13.876122
42
-0.073440
0
VERTEX
8
1
10
2.875008
20
13.994461
0
SEQEND
0
POLYLINE
8
1
66
1
0
VERTEX
8
1
10
2.999985
20
13.765289
42
-0.064077
0
VERTEX
8
1
10
2.590118
20
13.866333
0
VERTEX
8
1
10
2.585030
20
13.868645
0
VERTEX
8
1
10
2.583351
20
13.869461
0
SEQEND
0
ARC
8
1
10
32.368717
20
-2974.871826
40
2989.897805
50
90.339237
51
90.444232
0
POLYLINE
8
1
66
1
0
VERTEX
8
1
10
8.833061
20
14.933289
42
0.009088
0
VERTEX
8
1
10
4.249756
20
14.809174
42
0.001966
0
VERTEX
8
1
10
3.291641
20
14.765251
0
SEQEND
0
POLYLINE
8
1
66
1
0
VERTEX
8
1
10
15.791031
20
13.181999
42
-0.001542
0
VERTEX
8
1
10
9.525734
20
13.078735
42
0.013941
0
VERTEX
8
1
10
8.115509
20
13.036530
42
0.001729
0
VERTEX
8
1
10
7.708092
20
13.015335
0
SEQEND
0
LINE
8
1
10
8.187241
20
15.661026
11
4.333252
21
15.473541
0
ARC
8
1
10
8.273084
20
15.779566
40
0.212603
50
134.246681
51
172.623425
0
POLYLINE
8
1
66
1
0
VERTEX
8
1
10
3.666618
20
13.327820
0
VERTEX
8
1
10
3.874954
20
13.327820
0
VERTEX
8
1
10
3.833282
20
13.452820
0
VERTEX
8
1
10
3.520798
20
13.473648
0
SEQEND
0
POLYLINE
8
1
66
1
0
VERTEX
8
1
10
10.270462
20
15.806862
0
VERTEX
8
1
10
10.581985
20
15.765320
0
VERTEX
8
1
10
10.582939
20
15.766411
0
VERTEX
8
1
10
10.582939
20
16.161018
42
0.042069
0
VERTEX
8
1
10
9.977051
20
16.071320
42
0.164559
0
VERTEX
8
1
10
9.900848
20
16.022530
42
0.299335
0
VERTEX
8
1
10
9.912888
20
15.944481
42
0.086024
0
VERTEX
8
1
10
10.020477
20
15.848526
0
SEQEND
0
POLYLINE
8
1
66
1
0
VERTEX
8
1
10
10.312126
20
15.619377
42
-0.028952
0
VERTEX
8
1
10
9.978172
20
15.600182
0
VERTEX
8
1
10
9.965019
20
15.604713
42
-0.504394
0
VERTEX
8
1
10
9.971001
20
15.640205
42
-0.053803
0
VERTEX
8
1
10
10.020477
20
15.681862
0
SEQEND
0
POLYLINE
8
1
66
1
0
VERTEX
8
1
10
11.062088
20
17.223465
0
VERTEX
8
1
10
11.124588
20
17.140129
0
VERTEX
8
1
10
9.416344
20
15.702698
0
SEQEND
0
POLYLINE
8
1
66
1
0
VERTEX
8
1
10
14.707748
20
15.827698
0
VERTEX
8
1
10
15.560570
20
16.098122
0
VERTEX
8
1
10
15.561890
20
16.098587
42
0.144001
0
VERTEX
8
1
10
15.562782
20
16.365585
0
VERTEX
8
1
10
15.547485
20
16.392273
0
VERTEX
8
1
10
15.526291
20
16.421921
0
VERTEX
8
1
10
15.501816
20
16.452499
0
VERTEX
8
1
10
15.474396
20
16.483826
0
VERTEX
8
1
10
15.444389
20
16.515732
0
VERTEX
8
1
10
15.412109
20
16.548050
42
0.040231
0
VERTEX
8
1
10
14.813499
20
17.014069
0
VERTEX
8
1
10
14.811386
20
17.015160
42
0.007889
0
VERTEX
8
1
10
12.294426
20
17.135834
42
0.024973
0
VERTEX
8
1
10
11.626511
20
17.130264
0
VERTEX
8
1
10
11.576103
20
17.122871
42
0.065276
0
VERTEX
8
1
10
11.317345
20
16.993629
0
VERTEX
8
1
10
11.261856
20
16.959000
42
0.019349
0
VERTEX
8
1
10
10.353790
20
16.306839
0
SEQEND
0
LINE
8
1
10
14.499420
20
15.786026
11
10.770439
21
15.702698
0
LINE
8
1
10
10.937103
20
15.869362
11
10.728775
21
16.161018
0
POLYLINE
8
1
66
1
0
VERTEX
8
1
10
17.603432
20
16.119347
0
VERTEX
8
1
10
17.537178
20
16.119011
42
0.016708
0
VERTEX
8
1
10
15.791031
20
16.015198
0
SEQEND
0
POLYLINE
8
1
66
1
0
VERTEX
8
1
10
15.061890
20
14.973572
42
0.015904
0
VERTEX
8
1
10
15.739441
20
15.013710
0
VERTEX
8
1
10
15.762505
20
15.017769
0
VERTEX
8
1
10
15.781937
20
15.022980
0
VERTEX
8
1
10
15.798477
20
15.029274
42
0.358275
0
VERTEX
8
1
10
15.854683
20
15.122536
42
0.047843
0
VERTEX
8
1
10
15.927711
20
15.454178
0
VERTEX
8
1
10
15.935318
20
15.504623
42
0.156633
0
VERTEX
8
1
10
15.922722
20
15.663254
0
VERTEX
8
1
10
15.907738
20
15.686424
0
VERTEX
8
1
10
15.889587
20
15.704216
0
VERTEX
8
1
10
15.869080
20
15.717262
42
0.163522
0
VERTEX
8
1
10
15.706306
20
15.723450
0
VERTEX
8
1
10
14.916054
20
15.681862
0
SEQEND
0
LINE
8
1
10
14.561920
20
15.452721
11
13.936943
21
15.431892
0
LINE
8
1
10
18.936699
20
16.411003
11
15.883003
21
17.232803
0
LINE
8
1
10
3.874954
20
13.161163
11
3.729118
21
13.161163
0
POLYLINE
8
1
66
1
0
VERTEX
8
1
10
21.499023
20
14.223541
0
VERTEX
8
1
10
21.207382
20
14.244377
0
VERTEX
8
1
10
21.228218
20
14.390198
0
VERTEX
8
1
10
21.540688
20
14.390198
0
SEQEND
0
POLYLINE
8
1
66
1
0
VERTEX
8
1
10
21.769859
20
14.015213
0
VERTEX
8
1
10
21.769859
20
14.411018
42
-0.352101
0
VERTEX
8
1
10
21.845467
20
14.512093
42
-0.113023
0
VERTEX
8
1
10
22.061508
20
14.515183
0
SEQEND
0
LINE
8
1
10
20.707413
20
16.348419
11
21.186562
21
16.348419
0
LINE
8
1
10
20.665741
20
15.931778
11
20.540756
21
15.952614
0
POLYLINE
8
1
66
1
0
VERTEX
8
1
10
20.824669
20
15.780457
42
0.013905
0
VERTEX
8
1
10
18.493103
20
15.896446
42
0.003283
0
VERTEX
8
1
10
17.435776
20
15.919342
0
SEQEND
0
POLYLINE
8
1
66
1
0
VERTEX
8
1
10
6.667519
20
13.661636
0
VERTEX
8
1
10
6.644234
20
13.703026
0
VERTEX
8
1
10
6.619255
20
13.743233
42
0.547147
0
VERTEX
8
1
10
4.866051
20
13.747269
42
0.225206
0
VERTEX
8
1
10
4.738197
20
12.803474
0
SEQEND
0
POLYLINE
8
1
66
1
0
VERTEX
8
1
10
4.887520
20
12.504471
42
0.525931
0
VERTEX
8
1
10
6.601509
20
12.513512
42
0.215904
0
VERTEX
8
1
10
6.763130
20
13.414383
0
SEQEND
0
POLYLINE
8
1
66
1
0
VERTEX
8
1
10
5.937347
20
13.952789
0
VERTEX
8
1
10
5.666534
20
13.369484
0
VERTEX
8
1
10
5.354042
20
13.890289
0
SEQEND
0
POLYLINE
8
1
66
1
0
VERTEX
8
1
10
6.437317
20
13.181999
0
VERTEX
8
1
10
5.895683
20
13.265320
0
VERTEX
8
1
10
6.291496
20
13.723625
0
SEQEND
0
POLYLINE
8
1
66
1
0
VERTEX
8
1
10
4.916565
20
13.036163
0
VERTEX
8
1
10
5.458199
20
13.223663
0
VERTEX
8
1
10
4.999901
20
13.577805
0
SEQEND
0
POLYLINE
8
1
66
1
0
VERTEX
8
1
10
5.604034
20
12.348709
0
VERTEX
8
1
10
5.583199
20
12.973663
0
VERTEX
8
1
10
5.062386
20
12.682022
0
SEQEND
0
POLYLINE
8
1
66
1
0
VERTEX
8
1
10
5.979012
20
12.473694
0
VERTEX
8
1
10
5.854019
20
13.015335
0
VERTEX
8
1
10
6.374817
20
12.848679
0
SEQEND
0
LINE
8
1
10
5.645699
20
13.119499
11
5.741333
21
13.141563
0
POLYLINE
8
1
66
1
0
VERTEX
8
1
10
18.641884
20
13.944572
42
0.598928
0
VERTEX
8
1
10
16.629318
20
13.952454
42
0.205674
0
VERTEX
8
1
10
16.541244
20
13.020393
0
SEQEND
0
POLYLINE
8
1
66
1
0
VERTEX
8
1
10
16.703827
20
12.698395
42
0.549308
0
VERTEX
8
1
10
18.625832
20
12.795662
42
0.194859
0
VERTEX
8
1
10
18.745987
20
13.678299
0
SEQEND
0
POLYLINE
8
1
66
1
0
VERTEX
8
1
10
17.846886
20
14.258133
0
VERTEX
8
1
10
17.552002
20
13.629944
0
VERTEX
8
1
10
17.211761
20
14.190811
0
SEQEND
0
POLYLINE
8
1
66
1
0
VERTEX
8
1
10
18.391235
20
13.428024
0
VERTEX
8
1
10
17.801514
20
13.517776
0
VERTEX
8
1
10
18.232460
20
14.011330
0
SEQEND
0
POLYLINE
8
1
66
1
0
VERTEX
8
1
10
16.735443
20
13.270988
0
VERTEX
8
1
10
17.325195
20
13.472908
0
VERTEX
8
1
10
16.826187
20
13.854294
0
SEQEND
0
POLYLINE
8
1
66
1
0
VERTEX
8
1
10
17.483955
20
12.530647
0
VERTEX
8
1
10
17.461273
20
13.203690
0
VERTEX
8
1
10
16.894218
20
12.889610
0
SEQEND
0
POLYLINE
8
1
66
1
0
VERTEX
8
1
10
17.892250
20
12.665245
0
VERTEX
8
1
10
17.756157
20
13.248550
0
VERTEX
8
1
10
18.323204
20
13.069084
0
SEQEND
0
LINE
8
1
10
17.529327
20
13.360733
11
17.633461
21
13.384499
0
POLYLINE
8
1
66
1
0
VERTEX
8
1
10
18.549667
20
16.663361
0
VERTEX
8
1
10
18.519119
20
16.766533
42
0.004972
0
VERTEX
8
1
10
18.088333
20
16.780945
0
VERTEX
8
1
10
18.033112
20
16.905182
0
VERTEX
8
1
10
18.032066
20
16.905487
0
VERTEX
8
1
10
17.617981
20
16.919281
0
VERTEX
8
1
10
17.616295
20
16.919464
0
VERTEX
8
1
10
17.574921
20
17.043579
0
VERTEX
8
1
10
17.574554
20
17.044342
0
VERTEX
8
1
10
17.116333
20
17.058235
0
VERTEX
8
1
10
17.088570
20
17.169319
0
VERTEX
8
1
10
16.644554
20
17.197098
0
VERTEX
8
1
10
16.644005
20
17.197502
0
VERTEX
8
1
10
16.616394
20
17.294128
0
VERTEX
8
1
10
16.615814
20
17.294296
42
-0.041225
0
VERTEX
8
1
10
16.269699
20
17.292313
0
VERTEX
8
1
10
16.246521
20
17.299156
42
0.093030
0
VERTEX
8
1
10
15.975899
20
17.366173
42
0.008840
0
VERTEX
8
1
10
15.607826
20
17.389015
0
VERTEX
8
1
10
15.524353
20
17.405258
0
VERTEX
8
1
10
15.216286
20
17.478172
0
VERTEX
8
1
10
14.899910
20
17.536125
42
0.033790
0
VERTEX
8
1
10
13.614204
20
17.644508
42
0.040517
0
VERTEX
8
1
10
11.271889
20
17.496696
0
SEQEND
0
POLYLINE
8
1
66
1
70
1
0
VERTEX
8
1
10
23.038521
20
6.669418
0
VERTEX
8
1
10
23.079903
20
6.559067
0
VERTEX
8
1
10
23.089622
20
6.539291
42
0.133208
0
VERTEX
8
1
10
23.222542
20
6.440460
42
-0.009460
0
VERTEX
8
1
10
23.512215
20
6.314911
42
-0.287025
0
VERTEX
8
1
10
23.638519
20
6.125443
42
-0.031048
0
VERTEX
8
1
10
23.635818
20
5.915359
42
0.376383
0
VERTEX
8
1
10
23.679970
20
5.858536
0
VERTEX
8
1
10
23.702263
20
5.855011
0
VERTEX
8
1
10
23.728371
20
5.854736
0
VERTEX
8
1
10
23.757965
20
5.857208
42
-0.006137
0
VERTEX
8
1
10
24.079254
20
5.914536
42
-0.216879
0
VERTEX
8
1
10
24.525490
20
5.776413
42
0.067461
0
VERTEX
8
1
10
24.692688
20
5.651474
42
0.101751
0
VERTEX
8
1
10
25.141739
20
5.481323
42
0.156129
0
VERTEX
8
1
10
25.289680
20
5.497696
42
0.351059
0
VERTEX
8
1
10
25.316353
20
5.600311
42
-0.223129
0
VERTEX
8
1
10
25.430786
20
5.761551
0
VERTEX
8
1
10
25.444946
20
5.764694
0
VERTEX
8
1
10
25.458405
20
5.764252
0
VERTEX
8
1
10
25.471123
20
5.760712
42
-0.177840
0
VERTEX
8
1
10
25.552376
20
5.655640
42
-0.105928
0
VERTEX
8
1
10
25.343132
20
5.469666
0
VERTEX
8
1
10
25.306076
20
5.447754
42
-0.133073
0
VERTEX
8
1
10
25.038254
20
5.366837
0
VERTEX
8
1
10
24.972496
20
5.368698
0
VERTEX
8
1
10
24.906967
20
5.376678
0
VERTEX
8
1
10
24.842194
20
5.389954
42
-0.091431
0
VERTEX
8
1
10
24.330910
20
5.641144
0
VERTEX
8
1
10
24.312431
20
5.652847
42
0.174230
0
VERTEX
8
1
10
24.075409
20
5.671341
42
0.045481
0
VERTEX
8
1
10
23.883209
20
5.605209
42
-0.099298
0
VERTEX
8
1
10
23.580887
20
5.577774
0
VERTEX
8
1
10
23.543800
20
5.580093
42
-0.115493
0
VERTEX
8
1
10
23.353592
20
5.621780
42
-0.198901
0
VERTEX
8
1
10
23.209274
20
5.836273
42
-0.056611
0
VERTEX
8
1
10
23.188972
20
6.004333
42
0.558089
0
VERTEX
8
1
10
23.150566
20
6.030060
0
VERTEX
8
1
10
23.140343
20
6.026825
0
VERTEX
8
1
10
23.129250
20
6.022385
42
-0.258089
0
VERTEX
8
1
10
22.855865
20
6.016678
42
0.033334
0
VERTEX
8
1
10
22.690048
20
6.094620
42
0.162991
0
VERTEX
8
1
10
22.486099
20
6.080231
0
VERTEX
8
1
10
22.462845
20
6.071991
0
VERTEX
8
1
10
22.413300
20
6.053177
42
-0.220327
0
VERTEX
8
1
10
22.180168
20
6.092789
42
-0.020114
0
VERTEX
8
1
10
22.046310
20
6.182663
42
0.320710
0
VERTEX
8
1
10
21.886383
20
6.180542
42
0.054388
0
VERTEX
8
1
10
21.751709
20
6.077255
42
-0.158153
0
VERTEX
8
1
10
21.586075
20
6.020782
0
VERTEX
8
1
10
21.537804
20
6.019897
42
-0.077996
0
VERTEX
8
1
10
21.177406
20
6.099976
0
VERTEX
8
1
10
21.094749
20
5.796890
0
VERTEX
8
1
10
21.075722
20
5.746384
42
-0.238197
0
VERTEX
8
1
10
20.935776
20
5.644348
0
VERTEX
8
1
10
20.890686
20
5.638596
0
VERTEX
8
1
10
20.843895
20
5.638611
42
-0.084507
0
VERTEX
8
1
10
20.538612
20
5.724411
42
-0.038428
0
VERTEX
8
1
10
20.566223
20
5.301331
0
VERTEX
8
1
10
20.562164
20
5.259735
42
-0.306679
0
VERTEX
8
1
10
20.421677
20
5.110748
42
-0.107267
0
VERTEX
8
1
10
20.274117
20
5.101257
0
VERTEX
8
1
10
20.191681
20
5.307358
42
-0.084232
0
VERTEX
8
1
10
20.170830
20
5.089203
0
VERTEX
8
1
10
20.163879
20
5.059723
42
-0.089705
0
VERTEX
8
1
10
19.534775
20
4.890030
42
-0.037502
0
VERTEX
8
1
10
19.532890
20
4.864212
0
VERTEX
8
1
10
19.535217
20
4.863144
0
VERTEX
8
1
10
19.563759
20
4.866226
0
VERTEX
8
1
10
19.611954
20
4.869934
42
-0.031767
0
VERTEX
8
1
10
21.810120
20
4.839279
0
VERTEX
8
1
10
21.871605
20
4.829697
0
VERTEX
8
1
10
21.878525
20
4.818512
42
-0.442616
0
VERTEX
8
1
10
21.701477
20
4.495270
0
VERTEX
8
1
10
21.658188
20
4.486069
42
-0.120248
0
VERTEX
8
1
10
21.269012
20
4.529266
0
VERTEX
8
1
10
21.266479
20
4.522568
0
VERTEX
8
1
10
21.254875
20
4.487762
42
0.002062
0
VERTEX
8
1
10
22.136536
20
4.361191
42
-0.197327
0
VERTEX
8
1
10
22.321724
20
4.228897
0
VERTEX
8
1
10
22.333450
20
4.202530
0
VERTEX
8
1
10
22.349968
20
4.156693
42
-0.009411
0
VERTEX
8
1
10
22.685425
20
3.001541
0
VERTEX
8
1
10
22.685425
20
2.932190
42
-0.261398
0
VERTEX
8
1
10
22.745575
20
2.885712
42
-0.196182
0
VERTEX
8
1
10
22.728790
20
2.822205
42
-0.075279
0
VERTEX
8
1
10
22.459137
20
2.444214
42
-0.085779
0
VERTEX
8
1
10
22.296539
20
2.334946
0
VERTEX
8
1
10
22.241241
20
2.293503
42
-0.122127
0
VERTEX
8
1
10
21.481613
20
1.808670
0
VERTEX
8
1
10
21.404953
20
1.792633
0
VERTEX
8
1
10
21.314919
20
1.777100
0
VERTEX
8
1
10
21.213120
20
1.761566
42
-0.012374
0
VERTEX
8
1
10
19.974655
20
1.627396
42
-0.272386
0
VERTEX
8
1
10
19.880623
20
1.725174
0
VERTEX
8
1
10
19.878708
20
1.738846
0
VERTEX
8
1
10
19.868813
20
1.745499
0
VERTEX
8
1
10
19.855782
20
1.750748
0
VERTEX
8
1
10
19.840126
20
1.754745
42
0.063613
0
VERTEX
8
1
10
19.630020
20
1.751663
0
VERTEX
8
1
10
19.587288
20
1.737808
42
-0.178806
0
VERTEX
8
1
10
19.217407
20
0.853256
42
-0.183956
0
VERTEX
8
1
10
18.267151
20
0.384003
0
VERTEX
8
1
10
18.123894
20
0.376663
42
-0.263271
0
VERTEX
8
1
10
16.843239
20
1.080704
0
VERTEX
8
1
10
16.810677
20
1.098709
0
VERTEX
8
1
10
16.810127
20
1.098862
0
VERTEX
8
1
10
15.519684
20
1.098862
42
-0.126877
0
VERTEX
8
1
10
15.461929
20
1.001846
42
-0.413212
0
VERTEX
8
1
10
15.324181
20
1.033051
42
-0.192491
0
VERTEX
8
1
10
15.282509
20
1.194931
0
VERTEX
8
1
10
15.235886
20
1.191559
0
VERTEX
8
1
10
15.150391
20
1.187332
42
-0.005814
0
VERTEX
8
1
10
13.060333
20
1.168030
0
VERTEX
8
1
10
13.032867
20
1.085617
0
VERTEX
8
1
10
13.032280
20
1.084946
0
VERTEX
8
1
10
11.422722
20
1.015579
0
VERTEX
8
1
10
11.421539
20
1.015854
0
VERTEX
8
1
10
11.421547
20
1.070816
0
VERTEX
8
1
10
11.421257
20
1.071060
0
VERTEX
8
1
10
11.199326
20
1.057190
42
-0.184361
0
VERTEX
8
1
10
11.108978
20
0.952820
42
-0.343947
0
VERTEX
8
1
10
10.985786
20
0.994949
42
-0.072013
0
VERTEX
8
1
10
10.949265
20
1.057190
0
VERTEX
8
1
10
10.755020
20
1.057175
42
-0.025736
0
VERTEX
8
1
10
10.315102
20
0.855347
42
-0.151587
0
VERTEX
8
1
10
10.168663
20
0.838348
0
VERTEX
8
1
10
10.124725
20
0.844757
42
-0.009990
0
VERTEX
8
1
10
9.477959
20
0.985825
42
0.076445
0
VERTEX
8
1
10
9.199524
20
1.007126
42
0.016708
0
VERTEX
8
1
10
8.574265
20
0.959656
0
VERTEX
8
1
10
8.560539
20
0.863525
0
VERTEX
8
1
10
8.560272
20
0.862762
0
VERTEX
8
1
10
7.852615
20
0.904388
0
VERTEX
8
1
10
7.851959
20
0.904327
0
VERTEX
8
1
10
7.830383
20
0.891647
42
-0.125869
0
VERTEX
8
1
10
7.198174
20
0.596420
0
VERTEX
8
1
10
7.163704
20
0.599869
42
-0.210072
0
VERTEX
8
1
10
6.048813
20
0.245300
42
-0.198144
0
VERTEX
8
1
10
5.083023
20
0.758026
42
-0.145475
0
VERTEX
8
1
10
4.789177
20
1.453491
0
VERTEX
8
1
10
4.658272
20
1.459930
0
VERTEX
8
1
10
4.657333
20
1.459946
0
VERTEX
8
1
10
4.407661
20
1.446075
42
-0.018658
0
VERTEX
8
1
10
3.849594
20
1.117996
0
VERTEX
8
1
10
3.825676
20
1.112747
42
-0.060819
0
VERTEX
8
1
10
3.600746
20
1.131851
0
VERTEX
8
1
10
3.583725
20
1.138519
42
-0.530599
0
VERTEX
8
1
10
3.563614
20
1.195374
0
VERTEX
8
1
10
3.576416
20
1.212387
42
-0.027481
0
VERTEX
8
1
10
4.018478
20
1.598618
42
-0.087905
0
VERTEX
8
1
10
3.565048
20
1.784470
42
-0.142043
0
VERTEX
8
1
10
3.340118
20
2.040558
0
VERTEX
8
1
10
3.313766
20
2.085953
42
-0.100691
0
VERTEX
8
1
10
2.986626
20
2.186752
42
-0.175435
0
VERTEX
8
1
10
2.926048
20
2.259201
0
VERTEX
8
1
10
2.926071
20
2.287094
0
VERTEX
8
1
10
2.938850
20
2.316788
0
VERTEX
8
1
10
2.965981
20
2.348175
0
VERTEX
8
1
10
3.009041
20
2.381271
42
-0.015592
0
VERTEX
8
1
10
3.338242
20
2.557663
42
0.120820
0
VERTEX
8
1
10
3.295166
20
2.823807
42
0.027341
0
VERTEX
8
1
10
3.055435
20
3.200546
42
-0.180498
0
VERTEX
8
1
10
2.986427
20
3.331680
42
-0.237448
0
VERTEX
8
1
10
3.041679
20
3.444626
42
-0.068165
0
VERTEX
8
1
10
3.326286
20
3.604111
0
VERTEX
8
1
10
3.398521
20
3.633835
42
-0.069512
0
VERTEX
8
1
10
4.481422
20
3.875748
42
-0.045921
0
VERTEX
8
1
10
5.133064
20
4.142578
0
VERTEX
8
1
10
5.252571
20
4.179825
42
-0.065839
0
VERTEX
8
1
10
6.487457
20
4.390778
0
VERTEX
8
1
10
6.659889
20
4.398590
42
-0.010133
0
VERTEX
8
1
10
8.708679
20
4.430389
42
-0.224876
0
VERTEX
8
1
10
8.805786
20
4.364014
42
-0.056213
0
VERTEX
8
1
10
8.824303
20
4.113571
0
VERTEX
8
1
10
8.825111
20
4.112793
42
-0.000046
0
VERTEX
8
1
10
9.490944
20
4.154388
0
VERTEX
8
1
10
11.389137
20
5.664642
0
VERTEX
8
1
10
11.393723
20
5.668610
42
-0.103888
0
VERTEX
8
1
10
11.399673
20
5.781326
42
-0.143871
0
VERTEX
8
1
10
11.460350
20
5.827652
0
VERTEX
8
1
10
11.467087
20
5.831314
42
0.035691
0
VERTEX
8
1
10
9.309380
20
5.348328
42
0.025249
0
VERTEX
8
1
10
8.759285
20
5.151657
0
VERTEX
8
1
10
8.630173
20
5.104172
42
-0.120286
0
VERTEX
8
1
10
7.638954
20
5.010757
42
-0.065508
0
VERTEX
8
1
10
7.419052
20
5.067856
42
-0.276516
0
VERTEX
8
1
10
7.367012
20
5.136612
42
-0.048432
0
VERTEX
8
1
10
7.357582
20
5.311340
0
VERTEX
8
1
10
7.354912
20
5.334015
0
VERTEX
8
1
10
7.349976
20
5.345428
0
VERTEX
8
1
10
7.343109
20
5.346954
0
VERTEX
8
1
10
7.334648
20
5.339966
0
VERTEX
8
1
10
7.324944
20
5.325806
42
0.038367
0
VERTEX
8
1
10
7.232964
20
5.086090
0
VERTEX
8
1
10
7.087708
20
5.165314
42
-0.219660
0
VERTEX
8
1
10
7.008873
20
5.276352
0
VERTEX
8
1
10
6.999283
20
5.317749
42
-0.074027
0
VERTEX
8
1
10
7.010345
20
5.722656
0
VERTEX
8
1
10
7.010643
20
5.724945
42
0.000513
0
VERTEX
8
1
10
6.748795
20
5.634293
0
VERTEX
8
1
10
6.721046
20
5.630692
0
VERTEX
8
1
10
6.693665
20
5.631088
0
VERTEX
8
1
10
6.666832
20
5.634995
42
-0.176299
0
VERTEX
8
1
10
6.453514
20
5.784073
42
-0.006350
0
VERTEX
8
1
10
6.316299
20
6.127762
0
VERTEX
8
1
10
6.197495
20
6.061752
0
VERTEX
8
1
10
6.173790
20
6.050156
42
-0.136382
0
VERTEX
8
1
10
5.975510
20
6.049591
42
-0.079261
0
VERTEX
8
1
10
5.603416
20
6.200836
42
0.332758
0
VERTEX
8
1
10
5.399025
20
6.177155
42
0.007310
0
VERTEX
8
1
10
5.296509
20
6.084137
42
-0.307131
0
VERTEX
8
1
10
5.095604
20
6.064011
42
0.027041
0
VERTEX
8
1
10
4.978775
20
6.122787
42
0.212716
0
VERTEX
8
1
10
4.885628
20
6.102417
0
VERTEX
8
1
10
4.868530
20
6.093353
42
-0.132994
0
VERTEX
8
1
10
4.535515
20
5.986191
42
-0.081939
0
VERTEX
8
1
10
4.410980
20
6.011276
42
0.380942
0
VERTEX
8
1
10
4.359673
20
5.983032
0
VERTEX
8
1
10
4.352615
20
5.967789
42
-0.035933
0
VERTEX
8
1
10
4.239258
20
5.682892
42
-0.243311
0
VERTEX
8
1
10
4.027740
20
5.542191
0
VERTEX
8
1
10
3.983299
20
5.537857
42
-0.092727
0
VERTEX
8
1
10
3.611496
20
5.611237
42
0.055563
0
VERTEX
8
1
10
3.422142
20
5.670883
42
0.162182
0
VERTEX
8
1
10
3.311157
20
5.641632
42
-0.008214
0
VERTEX
8
1
10
2.982162
20
5.452438
42
-0.200501
0
VERTEX
8
1
10
2.246178
20
5.400742
42
-0.108847
0
VERTEX
8
1
10
2.083504
20
5.495743
0
VERTEX
8
1
10
2.062866
20
5.521790
42
-0.133930
0
VERTEX
8
1
10
2.032967
20
5.663727
42
-0.330197
0
VERTEX
8
1
10
2.080406
20
5.694656
42
-0.073279
0
VERTEX
8
1
10
2.164612
20
5.692947
42
-0.395641
0
VERTEX
8
1
10
2.192368
20
5.633850
42
-0.055914
0
VERTEX
8
1
10
2.164169
20
5.557281
42
0.132675
0
VERTEX
8
1
10
2.228661
20
5.517242
42
0.066420
0
VERTEX
8
1
10
2.498802
20
5.456635
42
0.156113
0
VERTEX
8
1
10
2.753036
20
5.531662
42
0.044252
0
VERTEX
8
1
10
3.052116
20
5.786057
42
-0.099054
0
VERTEX
8
1
10
3.234810
20
5.914230
42
-0.133425
0
VERTEX
8
1
10
3.446701
20
5.923141
42
0.049361
0
VERTEX
8
1
10
3.817070
20
5.876999
42
0.159049
0
VERTEX
8
1
10
3.931900
20
5.904755
42
0.266590
0
VERTEX
8
1
10
3.952774
20
5.970032
42
-0.015221
0
VERTEX
8
1
10
3.926903
20
6.109146
42
-0.271275
0
VERTEX
8
1
10
4.007408
20
6.275787
42
-0.049210
0
VERTEX
8
1
10
4.266823
20
6.411179
42
0.052091
0
VERTEX
8
1
10
4.462326
20
6.516708
0
VERTEX
8
1
10
4.483650
20
6.535400
42
0.317632
0
VERTEX
8
1
10
4.515900
20
6.658371
42
-0.103914
0
VERTEX
8
1
10
4.510544
20
6.710052
0
VERTEX
8
1
10
4.507004
20
6.711411
0
VERTEX
8
1
10
4.499832
20
6.707535
42
-0.052159
0
VERTEX
8
1
10
4.291740
20
6.554550
42
-0.126125
0
VERTEX
8
1
10
4.132477
20
6.516113
42
0.116372
0
VERTEX
8
1
10
3.861427
20
6.411407
42
-0.006122
0
VERTEX
8
1
10
3.633095
20
6.265182
0
VERTEX
8
1
10
3.611679
20
6.254379
42
-0.365082
0
VERTEX
8
1
10
3.489731
20
6.270050
42
-0.020137
0
VERTEX
8
1
10
3.365067
20
6.411575
42
0.216063
0
VERTEX
8
1
10
3.145737
20
6.511536
42
0.097031
0
VERTEX
8
1
10
2.807320
20
6.443939
42
-0.065961
0
VERTEX
8
1
10
2.411545
20
6.342102
0
VERTEX
8
1
10
2.365578
20
6.339539
42
-0.222455
0
VERTEX
8
1
10
1.952812
20
6.503616
0
VERTEX
8
1
10
1.938148
20
6.524796
42
-0.438546
0
VERTEX
8
1
10
1.966393
20
6.666260
0
VERTEX
8
1
10
1.986137
20
6.678177
42
-0.296733
0
VERTEX
8
1
10
2.086327
20
6.682495
0
VERTEX
8
1
10
2.097649
20
6.670319
0
VERTEX
8
1
10
2.106506
20
6.655380
42
-0.102338
0
VERTEX
8
1
10
2.123009
20
6.516098
0
VERTEX
8
1
10
2.126015
20
6.514786
42
0.131453
0
VERTEX
8
1
10
2.391144
20
6.493500
0
VERTEX
8
1
10
2.421677
20
6.503143
42
0.065748
0
VERTEX
8
1
10
2.917274
20
6.785004
42
-0.275233
0
VERTEX
8
1
10
3.001122
20
6.814682
42
-0.025021
0
VERTEX
8
1
10
3.218857
20
6.757217
42
0.085152
0
VERTEX
8
1
10
3.391060
20
6.741882
0
VERTEX
8
1
10
3.428482
20
6.751556
0
VERTEX
8
1
10
3.466843
20
6.767166
0
VERTEX
8
1
10
3.505814
20
6.787888
0
VERTEX
8
1
10
3.545074
20
6.812943
42
0.048755
0
VERTEX
8
1
10
3.858620
20
7.102417
0
VERTEX
8
1
10
3.883141
20
7.127136
0
VERTEX
8
1
10
3.904427
20
7.147446
42
-0.183319
0
VERTEX
8
1
10
4.098564
20
7.235336
0
VERTEX
8
1
10
4.141647
20
7.241196
42
-0.037763
0
VERTEX
8
1
10
4.391563
20
7.268097
42
0.086883
0
VERTEX
8
1
10
4.529793
20
7.317871
42
-0.274397
0
VERTEX
8
1
10
4.771446
20
7.305893
42
-0.068463
0
VERTEX
8
1
10
4.857964
20
7.238876
0
VERTEX
8
1
10
5.226364
20
7.197937
42
0.075614
0
VERTEX
8
1
10
5.694626
20
7.232529
0
VERTEX
8
1
10
5.779724
20
7.250519
42
0.014452
0
VERTEX
8
1
10
6.504974
20
7.451904
42
-0.169401
0
VERTEX
8
1
10
6.768471
20
7.445053
42
-0.213088
0
VERTEX
8
1
10
6.969109
20
7.211105
42
0.036278
0
VERTEX
8
1
10
7.364204
20
7.395782
42
-0.314404
0
VERTEX
8
1
10
7.563232
20
7.358627
42
-0.143058
0
VERTEX
8
1
10
7.681084
20
7.173813
42
-0.027186
0
VERTEX
8
1
10
7.762154
20
6.864319
42
0.007173
0
VERTEX
8
1
10
8.585876
20
7.150635
0
VERTEX
8
1
10
8.645638
20
7.174988
42
-0.001415
0
VERTEX
8
1
10
8.484047
20
7.180649
0
VERTEX
8
1
10
8.604546
20
7.301086
42
-0.236037
0
VERTEX
8
1
10
8.747108
20
7.384628
0
VERTEX
8
1
10
8.755486
20
7.384201
42
0.369431
0
VERTEX
8
1
10
8.842087
20
7.419495
42
-0.067357
0
VERTEX
8
1
10
8.933395
20
7.498901
0
VERTEX
8
1
10
8.834946
20
7.619232
42
-0.243145
0
VERTEX
8
1
10
8.577789
20
7.721146
0
VERTEX
8
1
10
8.557083
20
7.728653
42
-0.011290
0
VERTEX
8
1
10
8.089386
20
7.701004
42
-0.184568
0
VERTEX
8
1
10
7.943359
20
7.759506
42
-0.094273
0
VERTEX
8
1
10
7.878021
20
7.826157
42
-0.233980
0
VERTEX
8
1
10
7.886879
20
7.927734
42
0.088275
0
VERTEX
8
1
10
8.009392
20
8.283966
42
0.008302
0
VERTEX
8
1
10
8.034218
20
8.420410
42
-0.005015
0
VERTEX
8
1
10
7.978409
20
8.608368
0
VERTEX
8
1
10
7.970329
20
8.619186
42
0.062311
0
VERTEX
8
1
10
7.587540
20
8.911972
42
0.205262
0
VERTEX
8
1
10
7.340561
20
8.926193
42
0.046146
0
VERTEX
8
1
10
7.031227
20
8.824005
42
-0.017150
0
VERTEX
8
1
10
6.882317
20
8.745041
42
0.015632
0
VERTEX
8
1
10
6.633286
20
8.523987
42
-0.307536
0
VERTEX
8
1
10
6.480446
20
8.527496
42
-0.237759
0
VERTEX
8
1
10
6.352112
20
8.742432
42
-0.200810
0
VERTEX
8
1
10
6.395409
20
8.846848
42
-0.136211
0
VERTEX
8
1
10
6.487793
20
8.924057
0
VERTEX
8
1
10
6.488235
20
8.924179
42
0.044326
0
VERTEX
8
1
10
6.673004
20
9.161545
0
VERTEX
8
1
10
6.677467
20
9.171967
42
-0.056385
0
VERTEX
8
1
10
6.866890
20
9.426376
42
-0.039688
0
VERTEX
8
1
10
6.975662
20
9.555176
42
-0.218201
0
VERTEX
8
1
10
7.028740
20
9.572067
42
0.186432
0
VERTEX
8
1
10
7.184319
20
9.711182
42
-0.141824
0
VERTEX
8
1
10
7.354568
20
9.856262
42
-0.108890
0
VERTEX
8
1
10
7.363899
20
9.718689
42
-0.153342
0
VERTEX
8
1
10
7.311516
20
9.671188
42
0.135826
0
VERTEX
8
1
10
7.450256
20
9.694748
42
0.007087
0
VERTEX
8
1
10
7.842400
20
9.858536
42
-0.079812
0
VERTEX
8
1
10
7.902275
20
9.874496
0
VERTEX
8
1
10
7.903778
20
9.868942
42
0.105707
0
VERTEX
8
1
10
7.848396
20
9.738007
42
0.515576
0
VERTEX
8
1
10
7.884178
20
9.708557
0
VERTEX
8
1
10
7.901672
20
9.710785
42
-0.020897
0
VERTEX
8
1
10
8.417694
20
9.834534
42
-0.066800
0
VERTEX
8
1
10
8.498985
20
9.838669
0
VERTEX
8
1
10
8.508026
20
9.833054
0
VERTEX
8
1
10
8.505875
20
9.823212
42
0.003858
0
VERTEX
8
1
10
8.436272
20
9.744431
42
0.451742
0
VERTEX
8
1
10
8.451431
20
9.730286
42
0.078798
0
VERTEX
8
1
10
8.603424
20
9.725250
42
-0.015344
0
VERTEX
8
1
10
9.035492
20
9.741318
42
-0.128956
0
VERTEX
8
1
10
9.089500
20
9.730392
0
VERTEX
8
1
10
9.085419
20
9.723022
0
VERTEX
8
1
10
9.074333
20
9.714508
42
0.015216
0
VERTEX
8
1
10
8.905914
20
9.623047
0
VERTEX
8
1
10
8.894333
20
9.613159
42
0.695835
0
VERTEX
8
1
10
8.899788
20
9.579010
42
-0.156362
0
VERTEX
8
1
10
8.995758
20
9.525360
42
-0.435577
0
VERTEX
8
1
10
8.981049
20
9.494629
0
VERTEX
8
1
10
8.972603
20
9.490158
42
0.128122
0
VERTEX
8
1
10
8.846649
20
9.416748
42
0.614601
0
VERTEX
8
1
10
8.854660
20
9.398422
0
VERTEX
8
1
10
8.864815
20
9.396393
42
-0.037999
0
VERTEX
8
1
10
9.180092
20
9.367371
42
0.086764
0
VERTEX
8
1
10
9.852310
20
9.409607
42
-0.138567
0
VERTEX
8
1
10
10.727989
20
9.352066
0
VERTEX
8
1
10
10.808739
20
9.318237
0
VERTEX
8
1
10
10.888885
20
9.277985
0
VERTEX
8
1
10
10.968033
20
9.230911
42
0.011453
0
VERTEX
8
1
10
11.339279
20
8.991943
42
0.138254
0
VERTEX
8
1
10
11.448120
20
8.960556
0
VERTEX
8
1
10
11.464661
20
8.964600
0
VERTEX
8
1
10
11.479919
20
8.972382
0
VERTEX
8
1
10
11.491730
20
8.982956
0
VERTEX
8
1
10
11.498924
20
8.993607
0
VERTEX
8
1
10
11.505241
20
9.004883
42
0.074633
0
VERTEX
8
1
10
11.542061
20
9.177734
42
-0.281300
0
VERTEX
8
1
10
11.751015
20
9.422806
42
-0.138011
0
VERTEX
8
1
10
11.990463
20
9.433853
42
-0.028190
0
VERTEX
8
1
10
12.548393
20
9.289581
42
0.044012
0
VERTEX
8
1
10
12.734558
20
9.277893
42
0.203134
0
VERTEX
8
1
10
12.707306
20
9.321106
42
0.051229
0
VERTEX
8
1
10
12.348946
20
9.610870
42
0.213063
0
VERTEX
8
1
10
12.088028
20
9.646027
42
0.048281
0
VERTEX
8
1
10
11.744331
20
9.543381
42
-0.032212
0
VERTEX
8
1
10
11.595337
20
9.470230
42
0.020930
0
VERTEX
8
1
10
11.328590
20
9.246521
42
-0.294390
0
VERTEX
8
1
10
11.180313
20
9.240463
42
-0.260448
0
VERTEX
8
1
10
11.034744
20
9.481094
42
-0.197981
0
VERTEX
8
1
10
11.084320
20
9.588165
42
-0.137272
0
VERTEX
8
1
10
11.182114
20
9.664719
42
0.045769
0
VERTEX
8
1
10
11.382568
20
9.908875
42
-0.066327
0
VERTEX
8
1
10
11.564201
20
10.147964
42
-0.016140
0
VERTEX
8
1
10
11.700340
20
10.302994
42
-0.245668
0
VERTEX
8
1
10
11.765770
20
10.326584
42
0.187210
0
VERTEX
8
1
10
11.933487
20
10.469833
42
-0.139935
0
VERTEX
8
1
10
12.113884
20
10.614212
42
-0.110534
0
VERTEX
8
1
10
12.119324
20
10.468979
42
-0.141506
0
VERTEX
8
1
10
12.063873
20
10.421921
42
0.138230
0
VERTEX
8
1
10
12.214417
20
10.444427
42
0.005857
0
VERTEX
8
1
10
12.627785
20
10.604126
42
-0.090509
0
VERTEX
8
1
10
12.687614
20
10.617340
0
VERTEX
8
1
10
12.687637
20
10.610718
42
0.079584
0
VERTEX
8
1
10
12.627647
20
10.487305
42
0.607970
0
VERTEX
8
1
10
12.665253
20
10.444885
0
VERTEX
8
1
10
12.684128
20
10.447144
42
-0.021943
0
VERTEX
8
1
10
13.229149
20
10.561951
42
-0.072627
0
VERTEX
8
1
10
13.311142
20
10.562866
0
VERTEX
8
1
10
13.319069
20
10.556244
0
VERTEX
8
1
10
13.315125
20
10.545547
42
-0.026859
0
VERTEX
8
1
10
13.243225
20
10.470947
42
0.578916
0
VERTEX
8
1
10
13.249275
20
10.454300
42
0.099238
0
VERTEX
8
1
10
13.376137
20
10.441559
42
-0.012052
0
VERTEX
8
1
10
13.871346
20
10.446152
0
VERTEX
8
1
10
13.899162
20
10.443130
0
VERTEX
8
1
10
13.917099
20
10.438690
0
VERTEX
8
1
10
13.923645
20
10.432632
0
VERTEX
8
1
10
13.917816
20
10.424881
0
VERTEX
8
1
10
13.905487
20
10.416214
42
-0.009976
0
VERTEX
8
1
10
13.742592
20
10.335480
42
0.255133
0
VERTEX
8
1
10
13.706139
20
10.296448
0
VERTEX
8
1
10
13.710861
20
10.287766
0
VERTEX
8
1
10
13.722794
20
10.279694
42
-0.162846
0
VERTEX
8
1
10
13.820030
20
10.221130
42
-0.426144
0
VERTEX
8
1
10
13.802483
20
10.189606
42
0.081784
0
VERTEX
8
1
10
13.672104
20
10.125183
42
0.457080
0
VERTEX
8
1
10
13.662476
20
10.096268
0
VERTEX
8
1
10
13.669724
20
10.092850
42
-0.034227
0
VERTEX
8
1
10
14.011108
20
10.051086
42
0.087070
0
VERTEX
8
1
10
14.718773
20
10.077805
42
-0.122922
0
VERTEX
8
1
10
15.551514
20
10.019516
42
-0.077976
0
VERTEX
8
1
10
15.940201
20
9.811569
42
0.018538
0
VERTEX
8
1
10
16.257179
20
9.596069
42
0.143576
0
VERTEX
8
1
10
16.368858
20
9.562317
0
VERTEX
8
1
10
16.386108
20
9.566544
0
VERTEX
8
1
10
16.402138
20
9.574692
0
VERTEX
8
1
10
16.413887
20
9.585510
42
0.123782
0
VERTEX
8
1
10
16.465416
20
9.751221
42
-0.284916
0
VERTEX
8
1
10
16.662743
20
10.023773
42
-0.164952
0
VERTEX
8
1
10
16.954323
20
10.039627
42
-0.026025
0
VERTEX
8
1
10
17.528244
20
9.874039
42
0.083114
0
VERTEX
8
1
10
17.860031
20
9.868393
42
0.125943
0
VERTEX
8
1
10
18.160248
20
10.010620
0
VERTEX
8
1
10
18.174309
20
10.009567
0
VERTEX
8
1
10
18.185326
20
9.998947
42
-0.199163
0
VERTEX
8
1
10
18.215179
20
9.841980
42
-0.166447
0
VERTEX
8
1
10
18.106026
20
9.646362
0
VERTEX
8
1
10
18.060135
20
9.606415
0
VERTEX
8
1
10
18.004379
20
9.567398
0
VERTEX
8
1
10
17.899361
20
9.507980
42
0.385247
0
VERTEX
8
1
10
17.909645
20
9.453903
42
0.167762
0
VERTEX
8
1
10
17.962372
20
9.456436
42
-0.026081
0
VERTEX
8
1
10
18.488548
20
9.580002
42
-0.116503
0
VERTEX
8
1
10
18.552673
20
9.577423
0
VERTEX
8
1
10
18.554214
20
9.568985
42
-0.016696
0
VERTEX
8
1
10
18.483093
20
9.488037
42
0.515572
0
VERTEX
8
1
10
18.494919
20
9.473297
42
0.086731
0
VERTEX
8
1
10
18.635727
20
9.466843
42
-0.017810
0
VERTEX
8
1
10
19.101692
20
9.482269
0
VERTEX
8
1
10
19.123260
20
9.479202
0
VERTEX
8
1
10
19.134621
20
9.474442
0
VERTEX
8
1
10
19.134331
20
9.467712
42
-0.044344
0
VERTEX
8
1
10
18.991501
20
9.389236
42
0.100611
0
VERTEX
8
1
10
18.935242
20
9.348801
42
0.523615
0
VERTEX
8
1
10
18.941956
20
9.323456
0
VERTEX
8
1
10
18.957794
20
9.316498
42
-0.158623
0
VERTEX
8
1
10
19.041176
20
9.269287
42
-0.457272
0
VERTEX
8
1
10
19.029716
20
9.238251
0
VERTEX
8
1
10
19.021828
20
9.233688
42
0.118733
0
VERTEX
8
1
10
18.894241
20
9.160873
42
0.777055
0
VERTEX
8
1
10
18.907547
20
9.139053
42
-0.038445
0
VERTEX
8
1
10
19.218651
20
9.110382
42
0.085686
0
VERTEX
8
1
10
19.881195
20
9.148178
42
-0.135698
0
VERTEX
8
1
10
20.748619
20
9.103668
42
-0.065444
0
VERTEX
8
1
10
21.056847
20
8.945480
42
0.013232
0
VERTEX
8
1
10
21.376892
20
8.738785
42
0.124671
0
VERTEX
8
1
10
21.488922
20
8.702164
0
VERTEX
8
1
10
21.505920
20
8.705048
42
0.260605
0
VERTEX
8
1
10
21.564804
20
8.779831
42
0.031232
0
VERTEX
8
1
10
21.591827
20
8.942169
42
-0.310074
0
VERTEX
8
1
10
21.866577
20
9.182053
42
-0.097939
0
VERTEX
8
1
10
22.077316
20
9.167526
42
-0.024637
0
VERTEX
8
1
10
22.588821
20
9.033218
42
0.094555
0
VERTEX
8
1
10
22.935921
20
9.039459
42
0.107610
0
VERTEX
8
1
10
23.179276
20
9.163025
0
VERTEX
8
1
10
23.206627
20
9.180115
0
VERTEX
8
1
10
23.217438
20
9.172470
42
-0.206462
0
VERTEX
8
1
10
23.256020
20
9.030563
42
-0.169109
0
VERTEX
8
1
10
23.166847
20
8.840637
42
-0.100405
0
VERTEX
8
1
10
22.947578
20
8.687744
42
-0.093656
0
VERTEX
8
1
10
22.366562
20
8.675278
42
-0.033896
0
VERTEX
8
1
10
22.158241
20
8.747421
0
VERTEX
8
1
10
22.143051
20
8.751831
42
0.370901
0
VERTEX
8
1
10
22.049568
20
8.719299
42
-0.042039
0
VERTEX
8
1
10
21.917458
20
8.547989
0
VERTEX
8
1
10
21.898926
20
8.531830
42
-0.171134
0
VERTEX
8
1
10
21.775749
20
8.482056
42
-0.033322
0
VERTEX
8
1
10
21.409325
20
8.482224
42
0.348122
0
VERTEX
8
1
10
21.244034
20
8.367294
42
-0.089062
0
VERTEX
8
1
10
21.038307
20
8.085419
42
-0.070258
0
VERTEX
8
1
10
20.603294
20
7.764404
0
VERTEX
8
1
10
20.499565
20
7.709595
42
0.112421
0
VERTEX
8
1
10
20.194901
20
7.454987
42
-0.059010
0
VERTEX
8
1
10
20.150154
20
7.383881
42
-0.077988
0
VERTEX
8
1
10
20.611053
20
7.242661
0
VERTEX
8
1
10
20.636223
20
7.231186
0
VERTEX
8
1
10
20.649658
20
7.225296
42
-0.271053
0
VERTEX
8
1
10
20.851837
20
7.484497
42
-0.129299
0
VERTEX
8
1
10
20.962715
20
7.487457
0
VERTEX
8
1
10
20.999809
20
7.479614
0
VERTEX
8
1
10
21.042892
20
7.468460
42
0.010809
0
VERTEX
8
1
10
21.877289
20
7.230576
42
0.069251
0
VERTEX
8
1
10
22.396423
20
7.170624
42
0.151064
0
VERTEX
8
1
10
22.779617
20
7.303497
42
-0.140665
0
VERTEX
8
1
10
22.948166
20
7.374023
42
-0.193208
0
VERTEX
8
1
10
23.023476
20
7.335953
42
0.175460
0
VERTEX
8
1
10
23.205345
20
7.244415
0
VERTEX
8
1
10
23.218697
20
7.244797
42
-0.117122
0
VERTEX
8
1
10
23.492157
20
7.241837
42
-0.124360
0
VERTEX
8
1
10
23.664299
20
7.126724
0
VERTEX
8
1
10
23.692551
20
7.098709
42
0.097159
0
VERTEX
8
1
10
24.179184
20
6.739609
0
VERTEX
8
1
10
24.218819
20
6.725021
42
0.256822
0
VERTEX
8
1
10
24.417770
20
6.748718
42
-0.194786
0
VERTEX
8
1
10
24.610146
20
6.800919
42
-0.139899
0
VERTEX
8
1
10
24.742531
20
6.712494
0
VERTEX
8
1
10
24.752792
20
6.703522
42
0.134924
0
VERTEX
8
1
10
25.337021
20
6.515381
42
0.151048
0
VERTEX
8
1
10
25.452911
20
6.537598
42
0.189622
0
VERTEX
8
1
10
25.476952
20
6.607697
42
-0.325900
0
VERTEX
8
1
10
25.546455
20
6.685211
0
VERTEX
8
1
10
25.560471
20
6.684174
0
VERTEX
8
1
10
25.573921
20
6.679565
0
VERTEX
8
1
10
25.586723
20
6.671967
42
-0.119659
0
VERTEX
8
1
10
25.663521
20
6.558228
0
VERTEX
8
1
10
25.660736
20
6.549698
0
VERTEX
8
1
10
25.652748
20
6.539505
0
VERTEX
8
1
10
25.639954
20
6.527878
0
VERTEX
8
1
10
25.622719
20
6.515030
42
-0.080757
0
VERTEX
8
1
10
25.166756
20
6.330917
42
-0.141523
0
VERTEX
8
1
10
24.938820
20
6.364349
42
0.011367
0
VERTEX
8
1
10
24.657684
20
6.484055
42
0.108132
0
VERTEX
8
1
10
24.388947
20
6.520355
42
0.199370
0
VERTEX
8
1
10
24.215561
20
6.418747
42
-0.041855
0
VERTEX
8
1
10
24.058662
20
6.248276
0
VERTEX
8
1
10
24.034340
20
6.230988
42
-0.354288
0
VERTEX
8
1
10
23.919029
20
6.233582
0
VERTEX
8
1
10
23.900505
20
6.247849
0
VERTEX
8
1
10
23.880936
20
6.264969
42
0.098561
0
VERTEX
8
1
10
23.540237
20
6.499786
42
0.093316
0
VERTEX
8
1
10
23.409927
20
6.509293
42
-0.198410
0
SEQEND
0
POLYLINE
8
1
66
1
70
1
0
VERTEX
8
1
10
8.473083
20
7.915314
42
0.172498
0
VERTEX
8
1
10
8.421852
20
8.057129
42
-0.015091
0
VERTEX
8
1
10
8.286674
20
8.156570
42
-0.022317
0
VERTEX
8
1
10
8.212708
20
7.996460
0
VERTEX
8
1
10
8.215584
20
7.986404
0
VERTEX
8
1
10
8.225433
20
7.976715
0
VERTEX
8
1
10
8.236618
20
7.966080
42
0.259587
0
VERTEX
8
1
10
8.429199
20
7.904373
0
SEQEND
0
POLYLINE
8
1
66
1
70
1
0
VERTEX
8
1
10
5.522774
20
6.462585
42
0.315622
0
VERTEX
8
1
10
5.499771
20
6.490143
42
0.067609
0
VERTEX
8
1
10
5.423111
20
6.636322
42
0.078786
0
VERTEX
8
1
10
5.216354
20
6.891602
42
-0.113390
0
VERTEX
8
1
10
5.152802
20
6.979218
42
0.072414
0
VERTEX
8
1
10
5.002731
20
7.125092
0
VERTEX
8
1
10
4.979698
20
7.136322
42
0.969396
0
VERTEX
8
1
10
4.919754
20
7.118713
42
0.420295
0
VERTEX
8
1
10
4.955696
20
7.078018
0
VERTEX
8
1
10
4.976364
20
7.068375
42
-0.113728
0
VERTEX
8
1
10
5.121986
20
6.907227
42
0.079223
0
VERTEX
8
1
10
5.217979
20
6.804840
42
-0.064349
0
VERTEX
8
1
10
5.427101
20
6.503204
42
0.187111
0
VERTEX
8
1
10
5.480972
20
6.418472
42
0.669034
0
SEQEND
0
POLYLINE
8
1
66
1
70
1
0
VERTEX
8
1
10
6.258446
20
6.327316
42
-0.086577
0
VERTEX
8
1
10
6.251991
20
6.439072
42
0.121956
0
VERTEX
8
1
10
6.221237
20
6.621536
42
0.031566
0
VERTEX
8
1
10
6.194504
20
6.791214
42
-0.024857
0
VERTEX
8
1
10
6.188385
20
6.905731
42
0.873851
0
VERTEX
8
1
10
6.127007
20
6.897430
42
0.060688
0
VERTEX
8
1
10
6.150818
20
6.684158
42
0.101830
0
VERTEX
8
1
10
6.178940
20
6.553711
0
VERTEX
8
1
10
6.183830
20
6.533356
0
VERTEX
8
1
10
6.186928
20
6.511826
42
0.001634
0
VERTEX
8
1
10
6.190041
20
6.343674
42
0.012908
0
VERTEX
8
1
10
6.216064
20
6.254440
42
0.886166
0
VERTEX
8
1
10
6.271240
20
6.284866
42
0.044451
0
SEQEND
0
POLYLINE
8
1
66
1
70
1
0
VERTEX
8
1
10
6.386604
20
7.324509
42
0.026949
0
VERTEX
8
1
10
6.183907
20
7.297989
42
0.623609
0
VERTEX
8
1
10
6.124588
20
7.088028
0
VERTEX
8
1
10
6.159142
20
7.068161
0
VERTEX
8
1
10
6.208107
20
7.054214
0
VERTEX
8
1
10
6.220978
20
7.052170
42
-0.134635
0
VERTEX
8
1
10
6.351967
20
7.018402
42
0.114693
0
VERTEX
8
1
10
6.590904
20
7.022263
0
VERTEX
8
1
10
6.596809
20
7.025024
42
-0.210185
0
VERTEX
8
1
10
6.711609
20
7.053604
42
1.288851
0
VERTEX
8
1
10
6.711792
20
7.116119
0
VERTEX
8
1
10
6.704590
20
7.116135
42
0.181870
0
VERTEX
8
1
10
6.563423
20
7.078537
42
-0.122197
0
VERTEX
8
1
10
6.361458
20
7.081772
42
0.102820
0
VERTEX
8
1
10
6.229378
20
7.114105
42
-0.189367
0
VERTEX
8
1
10
6.153175
20
7.147400
42
-0.543492
0
VERTEX
8
1
10
6.205383
20
7.238953
0
VERTEX
8
1
10
6.226807
20
7.242294
42
-0.063694
0
VERTEX
8
1
10
6.507339
20
7.261414
42
0.104768
0
VERTEX
8
1
10
6.755104
20
7.306763
42
1.055921
0
VERTEX
8
1
10
6.724777
20
7.361557
0
VERTEX
8
1
10
6.683380
20
7.345764
42
-0.072808
0
VERTEX
8
1
10
6.418106
20
7.324326
42
0.002181
0
SEQEND
0
POLYLINE
8
1
66
1
70
1
0
VERTEX
8
1
10
7.111916
20
6.103531
42
-0.102593
0
VERTEX
8
1
10
7.106133
20
6.209396
42
0.096010
0
VERTEX
8
1
10
7.095596
20
6.334167
42
-0.141216
0
VERTEX
8
1
10
7.085640
20
6.396088
42
0.151226
0
VERTEX
8
1
10
7.055618
20
6.544266
42
0.953667
0
VERTEX
8
1
10
7.008636
20
6.501022
42
-0.103769
0
VERTEX
8
1
10
7.023010
20
6.368179
42
0.057056
0
VERTEX
8
1
10
7.039642
20
6.303162
42
-0.033351
0
VERTEX
8
1
10
7.041939
20
6.139267
42
0.054988
0
VERTEX
8
1
10
7.064995
20
6.041290
42
-0.025173
0
VERTEX
8
1
10
7.064468
20
5.855133
42
1.049165
0
VERTEX
8
1
10
7.126976
20
5.859772
42
0.034259
0
VERTEX
8
1
10
7.126129
20
6.054764
42
0.049411
0
SEQEND
0
POLYLINE
8
1
66
1
70
1
0
VERTEX
8
1
10
7.434525
20
6.740967
0
VERTEX
8
1
10
7.428749
20
6.741211
42
0.152196
0
VERTEX
8
1
10
7.328629
20
6.760696
0
VERTEX
8
1
10
7.318901
20
6.760941
0
VERTEX
8
1
10
7.309532
20
6.761581
42
-0.059602
0
VERTEX
8
1
10
7.201523
20
6.804459
0
VERTEX
8
1
10
7.188545
20
6.808853
42
0.030436
0
VERTEX
8
1
10
7.028069
20
6.861267
0
VERTEX
8
1
10
7.012566
20
6.870621
0
VERTEX
8
1
10
6.995949
20
6.885757
42
-0.076851
0
VERTEX
8
1
10
6.938324
20
7.008911
42
-0.155699
0
VERTEX
8
1
10
6.949707
20
7.050247
42
0.159318
0
VERTEX
8
1
10
7.061546
20
7.091568
0
VERTEX
8
1
10
7.068024
20
7.093994
42
-0.047500
0
VERTEX
8
1
10
7.212677
20
7.091309
0
VERTEX
8
1
10
7.223320
20
7.088333
42
0.138701
0
VERTEX
8
1
10
7.326485
20
7.074692
42
0.084057
0
VERTEX
8
1
10
7.402092
20
7.056030
42
0.170963
0
VERTEX
8
1
10
7.429123
20
7.068817
42
0.115192
0
VERTEX
8
1
10
7.542763
20
7.097015
42
1.111583
0
VERTEX
8
1
10
7.534393
20
7.178955
42
0.381628
0
VERTEX
8
1
10
7.500755
20
7.148132
42
-0.107899
0
VERTEX
8
1
10
7.404732
20
7.130814
0
VERTEX
8
1
10
7.399460
20
7.128845
0
VERTEX
8
1
10
7.394653
20
7.125992
42
-0.422043
0
VERTEX
8
1
10
7.372070
20
7.125214
42
0.155605
0
VERTEX
8
1
10
7.286392
20
7.135986
42
0.014800
0
VERTEX
8
1
10
7.193443
20
7.157394
42
0.021978
0
VERTEX
8
1
10
7.063011
20
7.156921
42
0.056148
0
VERTEX
8
1
10
6.984665
20
7.119461
42
-0.059139
0
VERTEX
8
1
10
6.942017
20
7.112366
42
0.314773
0
VERTEX
8
1
10
6.883270
20
7.055008
42
0.216986
0
VERTEX
8
1
10
6.899094
20
6.933563
42
0.188240
0
VERTEX
8
1
10
7.000427
20
6.805191
42
-0.030750
0
VERTEX
8
1
10
7.198578
20
6.738037
0
VERTEX
8
1
10
7.207787
20
6.733719
42
0.163961
0
VERTEX
8
1
10
7.362938
20
6.697418
0
VERTEX
8
1
10
7.370621
20
6.696564
0
VERTEX
8
1
10
7.376625
20
6.695480
42
0.177631
0
VERTEX
8
1
10
7.469345
20
6.678787
42
0.161032
0
VERTEX
8
1
10
7.575989
20
6.708572
42
0.911954
0
VERTEX
8
1
10
7.535980
20
6.756775
42
-0.137264
0
SEQEND
0
POLYLINE
8
1
66
1
70
1
0
VERTEX
8
1
10
22.224365
20
2.446808
42
1.015181
0
VERTEX
8
1
10
22.286842
20
2.443619
0
VERTEX
8
1
10
22.286865
20
2.835892
42
-0.340242
0
VERTEX
8
1
10
22.330536
20
2.907669
0
VERTEX
8
1
10
22.354202
20
2.916153
42
-0.096781
0
VERTEX
8
1
10
22.549278
20
2.913498
42
0.979287
0
VERTEX
8
1
10
22.545547
20
2.976913
42
0.113601
0
VERTEX
8
1
10
22.322495
20
2.971680
42
0.346713
0
VERTEX
8
1
10
22.224365
20
2.840530
0
SEQEND
0
POLYLINE
8
1
66
1
70
1
0
VERTEX
8
1
10
21.983551
20
2.621826
42
0.969327
0
VERTEX
8
1
10
21.987953
20
2.684143
0
VERTEX
8
1
10
21.728828
20
2.702667
0
VERTEX
8
1
10
21.740662
20
2.785629
0
VERTEX
8
1
10
21.741356
20
2.788452
0
VERTEX
8
1
10
22.019806
20
2.788467
42
1.180816
0
VERTEX
8
1
10
22.021736
20
2.850952
0
VERTEX
8
1
10
21.715179
20
2.850952
42
0.376486
0
VERTEX
8
1
10
21.683167
20
2.824951
0
VERTEX
8
1
10
21.662201
20
2.678314
42
0.445392
0
VERTEX
8
1
10
21.692047
20
2.642639
0
SEQEND
0
POLYLINE
8
1
66
1
70
1
0
VERTEX
8
1
10
18.908257
20
7.920212
42
0.124445
0
VERTEX
8
1
10
18.905792
20
7.815689
42
-0.029888
0
VERTEX
8
1
10
18.926163
20
7.712158
42
0.182210
0
VERTEX
8
1
10
19.013245
20
7.731110
42
0.143003
0
VERTEX
8
1
10
19.045807
20
7.832596
0
VERTEX
8
1
10
19.047211
20
7.832901
0
VERTEX
8
1
10
19.317123
20
7.832901
0
VERTEX
8
1
10
19.319946
20
7.832642
42
-0.186023
0
VERTEX
8
1
10
19.267326
20
7.700607
0
VERTEX
8
1
10
19.250656
20
7.688614
0
VERTEX
8
1
10
19.188339
20
7.657440
42
-0.044431
0
VERTEX
8
1
10
19.014465
20
7.518600
0
VERTEX
8
1
10
19.002518
20
7.514923
0
VERTEX
8
1
10
19.014236
20
7.502594
0
VERTEX
8
1
10
19.155334
20
7.361481
42
-0.033224
0
VERTEX
8
1
10
19.389900
20
7.544830
0
VERTEX
8
1
10
19.412384
20
7.556396
42
-0.061532
0
VERTEX
8
1
10
19.573418
20
7.581879
42
0.042572
0
VERTEX
8
1
10
19.775711
20
7.808273
0
VERTEX
8
1
10
19.794197
20
7.838242
0
VERTEX
8
1
10
19.807236
20
7.865921
42
0.028414
0
VERTEX
8
1
10
19.900726
20
8.172699
42
-0.020170
0
VERTEX
8
1
10
19.414650
20
8.002975
42
-0.056922
0
VERTEX
8
1
10
18.955902
20
7.942841
0
VERTEX
8
1
10
18.927979
20
7.946457
0
VERTEX
8
1
10
18.914215
20
7.953522
42
0.008006
0
SEQEND
0
POLYLINE
8
1
66
1
70
1
0
VERTEX
8
1
10
16.387238
20
4.422806
42
-0.012439
0
VERTEX
8
1
10
17.878448
20
4.514572
42
-0.005351
0
VERTEX
8
1
10
18.093117
20
4.517853
42
0.932356
0
VERTEX
8
1
10
18.089638
20
4.580109
0
VERTEX
8
1
10
17.986855
20
4.579315
0
VERTEX
8
1
10
17.858826
20
4.576569
42
0.013898
0
VERTEX
8
1
10
16.264854
20
4.473602
42
0.859313
0
VERTEX
8
1
10
16.279572
20
4.413574
42
-0.001278
0
SEQEND
0
POLYLINE
8
1
66
1
70
1
0
VERTEX
8
1
10
16.841637
20
2.882172
0
VERTEX
8
1
10
16.850204
20
2.890915
0
VERTEX
8
1
10
16.870483
20
2.910477
42
-0.185658
0
VERTEX
8
1
10
18.197960
20
3.413834
42
0.928502
0
VERTEX
8
1
10
18.193344
20
3.475998
42
0.187962
0
VERTEX
8
1
10
16.815125
20
2.944000
0
VERTEX
8
1
10
16.799301
20
2.928299
42
1.088546
0
SEQEND
0
POLYLINE
8
1
66
1
70
1
0
VERTEX
8
1
10
16.187218
20
4.184006
0
VERTEX
8
1
10
15.399956
20
4.142563
42
1.117783
0
VERTEX
8
1
10
15.411545
20
4.080597
0
VERTEX
8
1
10
16.195419
20
4.121841
42
-0.093852
0
VERTEX
8
1
10
16.309746
20
4.129471
42
-0.371350
0
VERTEX
8
1
10
16.394859
20
4.023712
42
-0.073497
0
VERTEX
8
1
10
16.381882
20
3.884033
0
VERTEX
8
1
10
16.371216
20
3.819885
42
-0.020930
0
VERTEX
8
1
10
16.308205
20
3.546143
42
-0.407099
0
VERTEX
8
1
10
16.269768
20
3.486572
42
-0.086559
0
VERTEX
8
1
10
16.180168
20
3.469360
42
-0.006241
0
VERTEX
8
1
10
15.537857
20
3.432770
42
0.858176
0
VERTEX
8
1
10
15.548103
20
3.371826
42
0.011972
0
VERTEX
8
1
10
16.206818
20
3.409409
0
VERTEX
8
1
10
16.243027
20
3.414398
0
VERTEX
8
1
10
16.257050
20
3.417221
0
VERTEX
8
1
10
16.270309
20
3.420624
0
VERTEX
8
1
10
16.282799
20
3.424606
42
0.365490
0
VERTEX
8
1
10
16.371391
20
3.544846
42
0.051851
0
VERTEX
8
1
10
16.458168
20
4.005493
0
VERTEX
8
1
10
16.457138
20
4.028000
42
0.432469
0
VERTEX
8
1
10
16.278549
20
4.195175
42
0.067556
0
SEQEND
0
POLYLINE
8
1
66
1
70
1
0
VERTEX
8
1
10
11.742538
20
6.966553
0
VERTEX
8
1
10
11.746017
20
6.952744
42
0.061991
0
VERTEX
8
1
10
11.751175
20
6.504868
0
VERTEX
8
1
10
11.768707
20
6.429016
0
VERTEX
8
1
10
11.794319
20
6.362656
0
VERTEX
8
1
10
11.829239
20
6.309494
0
VERTEX
8
1
10
11.874718
20
6.273209
0
VERTEX
8
1
10
11.901321
20
6.260498
42
0.298824
0
VERTEX
8
1
10
12.133110
20
6.262741
42
0.144980
0
VERTEX
8
1
10
12.272057
20
6.412827
0
VERTEX
8
1
10
12.272461
20
6.416214
0
VERTEX
8
1
10
12.293350
20
6.750671
42
0.972897
0
VERTEX
8
1
10
12.230988
20
6.754333
0
VERTEX
8
1
10
12.210938
20
6.433823
0
VERTEX
8
1
10
12.209854
20
6.426971
42
-0.155774
0
VERTEX
8
1
10
12.058838
20
6.296661
42
-0.228579
0
VERTEX
8
1
10
11.917686
20
6.322998
0
VERTEX
8
1
10
11.913048
20
6.324509
0
VERTEX
8
1
10
11.879761
20
6.346451
0
VERTEX
8
1
10
11.852890
20
6.384277
42
-0.099208
0
VERTEX
8
1
10
11.799614
20
6.644196
42
-0.040752
0
VERTEX
8
1
10
11.814125
20
7.003967
42
0.418510
0
VERTEX
8
1
10
11.780106
20
7.032715
0
VERTEX
8
1
10
11.326447
20
6.991470
42
1.071115
0
VERTEX
8
1
10
11.327484
20
6.928802
0
SEQEND
0
POLYLINE
8
1
66
1
70
1
0
VERTEX
8
1
10
12.604218
20
6.303726
42
0.034008
0
VERTEX
8
1
10
12.605843
20
6.313492
0
VERTEX
8
1
10
12.605850
20
7.001892
42
0.466521
0
VERTEX
8
1
10
12.568169
20
7.032410
0
VERTEX
8
1
10
12.079895
20
6.991714
42
1.210449
0
VERTEX
8
1
10
12.082512
20
6.929230
0
VERTEX
8
1
10
12.538063
20
6.967194
0
VERTEX
8
1
10
12.543350
20
6.965378
0
VERTEX
8
1
10
12.543350
20
6.314072
42
0.083445
0
VERTEX
8
1
10
12.545174
20
6.303955
0
VERTEX
8
1
10
12.540802
20
6.303726
0
VERTEX
8
1
10
12.264290
20
6.303726
42
1.024530
0
VERTEX
8
1
10
12.261520
20
6.241241
0
VERTEX
8
1
10
12.718285
20
6.241226
42
1.033440
0
VERTEX
8
1
10
12.720428
20
6.303726
0
SEQEND
0
POLYLINE
8
1
66
1
70
1
0
VERTEX
8
1
10
13.607956
20
6.256226
0
VERTEX
8
1
10
13.607964
20
6.194107
42
0.190706
0
VERTEX
8
1
10
13.671608
20
6.223129
0
VERTEX
8
1
10
13.689255
20
6.240402
42
0.155637
0
VERTEX
8
1
10
13.790665
20
6.490341
42
0.211402
0
VERTEX
8
1
10
13.697594
20
6.700272
42
0.185928
0
VERTEX
8
1
10
13.327255
20
6.847198
0
VERTEX
8
1
10
13.289131
20
6.843872
42
-0.106671
0
VERTEX
8
1
10
13.033104
20
6.866165
42
0.994924
0
VERTEX
8
1
10
13.034447
20
6.801331
42
0.108366
0
VERTEX
8
1
10
13.314323
20
6.783813
42
-0.200820
0
VERTEX
8
1
10
13.665878
20
6.643204
42
-0.296058
0
VERTEX
8
1
10
13.713898
20
6.413925
42
-0.132836
0
VERTEX
8
1
10
13.625435
20
6.266388
0
VERTEX
8
1
10
13.617371
20
6.261002
42
-0.180304
0
SEQEND
0
POLYLINE
8
1
66
1
70
1
0
VERTEX
8
1
10
13.792305
20
7.014679
42
1.011771
0
VERTEX
8
1
10
13.731583
20
7.029465
0
VERTEX
8
1
10
13.705368
20
6.924255
0
VERTEX
8
1
10
13.700211
20
6.927551
42
0.148710
0
VERTEX
8
1
10
13.446617
20
7.064621
42
0.102924
0
VERTEX
8
1
10
13.062500
20
7.065781
42
0.213901
0
VERTEX
8
1
10
12.746498
20
6.811462
0
VERTEX
8
1
10
12.731964
20
6.768555
42
0.326779
0
VERTEX
8
1
10
12.815468
20
6.558990
42
0.108527
0
VERTEX
8
1
10
12.904594
20
6.517807
42
0.039394
0
VERTEX
8
1
10
13.278641
20
6.448074
42
-0.069936
0
VERTEX
8
1
10
13.494743
20
6.396713
42
-0.174914
0
VERTEX
8
1
10
13.542946
20
6.351486
42
-0.212697
0
VERTEX
8
1
10
13.491196
20
6.299210
42
-0.167002
0
VERTEX
8
1
10
13.242027
20
6.277176
42
-0.099865
0
VERTEX
8
1
10
13.002014
20
6.385132
42
0.476704
0
VERTEX
8
1
10
12.960320
20
6.360291
0
VERTEX
8
1
10
12.942932
20
6.246902
0
VERTEX
8
1
10
12.876701
20
6.257477
42
-0.003380
0
VERTEX
8
1
10
12.876480
20
6.442612
42
0.954247
0
VERTEX
8
1
10
12.814171
20
6.438583
0
VERTEX
8
1
10
12.814178
20
6.230316
42
0.360705
0
VERTEX
8
1
10
12.840111
20
6.200012
0
VERTEX
8
1
10
12.964981
20
6.180115
42
0.408520
0
VERTEX
8
1
10
12.999977
20
6.206406
0
VERTEX
8
1
10
13.014717
20
6.302628
42
0.162284
0
VERTEX
8
1
10
13.387123
20
6.206268
0
VERTEX
8
1
10
13.431885
20
6.213120
0
VERTEX
8
1
10
13.473007
20
6.224060
0
VERTEX
8
1
10
13.509995
20
6.238785
0
VERTEX
8
1
10
13.530403
20
6.249496
42
0.278751
0
VERTEX
8
1
10
13.605713
20
6.358185
42
0.154779
0
VERTEX
8
1
10
13.585869
20
6.402512
42
0.158515
0
VERTEX
8
1
10
13.465393
20
6.474548
0
VERTEX
8
1
10
13.423119
20
6.485840
0
VERTEX
8
1
10
13.377159
20
6.495438
0
VERTEX
8
1
10
13.328094
20
6.503845
42
-0.031372
0
VERTEX
8
1
10
12.945602
20
6.570801
0
VERTEX
8
1
10
12.912338
20
6.580917
42
-0.302081
0
VERTEX
8
1
10
12.789055
20
6.708298
42
-0.157524
0
VERTEX
8
1
10
12.816177
20
6.811935
42
-0.208103
0
VERTEX
8
1
10
13.102791
20
7.010101
42
-0.074686
0
VERTEX
8
1
10
13.400894
20
7.010239
0
VERTEX
8
1
10
13.479874
20
6.990555
42
-0.157884
0
VERTEX
8
1
10
13.679382
20
6.855026
0
VERTEX
8
1
10
13.688835
20
6.840302
42
0.745966
0
VERTEX
8
1
10
13.749397
20
6.842422
0
SEQEND
0
POLYLINE
8
1
66
1
70
1
0
VERTEX
8
1
10
16.057770
20
5.789932
42
-0.004609
0
VERTEX
8
1
10
16.486862
20
5.761414
0
VERTEX
8
1
10
16.524368
20
5.756424
42
-0.091733
0
VERTEX
8
1
10
16.736153
20
5.692978
42
0.045109
0
VERTEX
8
1
10
17.079086
20
5.690628
0
VERTEX
8
1
10
17.099792
20
5.618134
42
0.318941
0
VERTEX
8
1
10
17.127975
20
5.595444
0
VERTEX
8
1
10
17.547623
20
5.569214
0
VERTEX
8
1
10
17.549614
20
5.568787
0
VERTEX
8
1
10
17.571762
20
5.480209
42
0.338689
0
VERTEX
8
1
10
17.601448
20
5.456497
0
VERTEX
8
1
10
18.036461
20
5.443329
0
VERTEX
8
1
10
18.037865
20
5.442734
0
VERTEX
8
1
10
18.072449
20
5.338989
42
0.320041
0
VERTEX
8
1
10
18.101715
20
5.317596
0
VERTEX
8
1
10
18.497574
20
5.304382
0
VERTEX
8
1
10
18.498512
20
5.303574
0
VERTEX
8
1
10
18.545830
20
5.197098
42
0.295332
0
VERTEX
8
1
10
18.574562
20
5.178680
0
VERTEX
8
1
10
18.981087
20
5.165573
0
VERTEX
8
1
10
18.981560
20
5.164734
0
VERTEX
8
1
10
19.005630
20
5.083450
42
0.993764
0
VERTEX
8
1
10
19.065346
20
5.101898
0
VERTEX
8
1
10
19.034882
20
5.204773
42
0.324908
0
VERTEX
8
1
10
19.005867
20
5.227310
0
VERTEX
8
1
10
18.597084
20
5.240509
0
VERTEX
8
1
10
18.594780
20
5.240860
0
VERTEX
8
1
10
18.547356
20
5.347580
42
0.289910
0
VERTEX
8
1
10
18.519638
20
5.366196
0
VERTEX
8
1
10
18.126205
20
5.379333
0
VERTEX
8
1
10
18.124702
20
5.379837
0
VERTEX
8
1
10
18.090080
20
5.483734
42
0.319092
0
VERTEX
8
1
10
18.060829
20
5.505112
0
VERTEX
8
1
10
17.627518
20
5.518250
0
VERTEX
8
1
10
17.626534
20
5.518845
0
VERTEX
8
1
10
17.604614
20
5.606491
42
0.335179
0
VERTEX
8
1
10
17.575218
20
5.630112
0
VERTEX
8
1
10
17.154198
20
5.656418
0
VERTEX
8
1
10
17.153648
20
5.657150
0
VERTEX
8
1
10
17.132011
20
5.732880
42
0.338458
0
VERTEX
8
1
10
17.101044
20
5.755081
42
-0.042831
0
VERTEX
8
1
10
16.754478
20
5.753464
42
0.092723
0
VERTEX
8
1
10
16.477913
20
5.825317
42
0.003697
0
VERTEX
8
1
10
16.070549
20
5.851608
42
0.043978
0
VERTEX
8
1
10
14.841835
20
6.063828
0
VERTEX
8
1
10
14.622177
20
6.081390
0
VERTEX
8
1
10
14.405029
20
6.094101
42
0.047501
0
VERTEX
8
1
10
11.744316
20
5.954483
42
0.884542
0
VERTEX
8
1
10
11.763763
20
5.895538
42
-0.041204
0
VERTEX
8
1
10
14.159622
20
6.040115
0
VERTEX
8
1
10
14.582382
20
6.021149
0
VERTEX
8
1
10
15.009308
20
5.984100
0
VERTEX
8
1
10
15.433044
20
5.925949
0
VERTEX
8
1
10
15.846153
20
5.843658
0
VERTEX
8
1
10
16.052261
20
5.790909
42
0.040945
0
SEQEND
0
POLYLINE
8
1
66
1
70
1
0
VERTEX
8
1
10
14.168343
20
6.374207
42
0.153127
0
VERTEX
8
1
10
14.184059
20
6.342560
42
0.117881
0
VERTEX
8
1
10
14.299232
20
6.228271
42
0.395364
0
VERTEX
8
1
10
14.431534
20
6.258423
0
VERTEX
8
1
10
14.446510
20
6.281006
42
0.095754
0
VERTEX
8
1
10
14.501190
20
6.485840
42
0.823067
0
VERTEX
8
1
10
14.439857
20
6.487732
42
-0.103437
0
VERTEX
8
1
10
14.387192
20
6.303864
42
-0.517705
0
VERTEX
8
1
10
14.320030
20
6.287994
42
-0.112933
0
VERTEX
8
1
10
14.230164
20
6.388519
42
-0.016043
0
VERTEX
8
1
10
14.223312
20
6.934418
42
0.153483
0
VERTEX
8
1
10
14.240891
20
6.928696
42
0.016757
0
VERTEX
8
1
10
14.460754
20
6.930771
42
0.824132
0
VERTEX
8
1
10
14.449974
20
6.991196
0
VERTEX
8
1
10
14.240631
20
6.991180
42
0.144311
0
VERTEX
8
1
10
14.223831
20
6.985855
42
-0.002647
0
VERTEX
8
1
10
14.229622
20
7.259949
42
0.773654
0
VERTEX
8
1
10
14.169113
20
7.258926
0
VERTEX
8
1
10
14.158669
20
7.217392
0
VERTEX
8
1
10
14.134804
20
7.163757
42
-0.182258
0
VERTEX
8
1
10
13.895256
20
6.988510
42
0.976066
0
VERTEX
8
1
10
13.919319
20
6.930634
42
0.141547
0
VERTEX
8
1
10
14.162819
20
7.086258
42
0.018316
0
SEQEND
0
POLYLINE
8
1
66
1
70
1
0
VERTEX
8
1
10
13.936676
20
7.913254
0
VERTEX
8
1
10
13.938469
20
7.914276
0
VERTEX
8
1
10
13.912361
20
7.926743
42
0.099561
0
VERTEX
8
1
10
13.892563
20
7.911880
0
SEQEND
0
POLYLINE
8
1
66
1
70
1
0
VERTEX
8
1
10
14.077728
20
6.178726
0
VERTEX
8
1
10
14.198288
20
6.178741
42
1.039550
0
VERTEX
8
1
10
14.198257
20
6.241226
0
VERTEX
8
1
10
14.073723
20
6.241211
42
-0.236047
0
VERTEX
8
1
10
14.025116
20
6.250656
0
VERTEX
8
1
10
13.999008
20
6.283844
0
VERTEX
8
1
10
13.978500
20
6.332123
42
-0.073914
0
VERTEX
8
1
10
13.939064
20
6.732651
42
1.107811
0
VERTEX
8
1
10
13.876282
20
6.720825
42
0.050113
0
VERTEX
8
1
10
13.900185
20
6.387970
0
VERTEX
8
1
10
13.919861
20
6.312759
0
VERTEX
8
1
10
13.947716
20
6.248947
0
VERTEX
8
1
10
13.985100
20
6.202637
42
0.232770
0
SEQEND
0
POLYLINE
8
1
66
1
70
1
0
VERTEX
8
1
10
15.348595
20
7.074341
42
0.059394
0
VERTEX
8
1
10
14.922592
20
7.074203
42
0.083819
0
VERTEX
8
1
10
14.725723
20
7.014130
0
VERTEX
8
1
10
14.685081
20
6.987656
0
VERTEX
8
1
10
14.654579
20
6.959839
42
0.484967
0
VERTEX
8
1
10
14.692085
20
6.679596
0
VERTEX
8
1
10
14.696442
20
6.678848
42
0.144572
0
VERTEX
8
1
10
14.862190
20
6.731003
42
0.397592
0
VERTEX
8
1
10
14.886162
20
6.879761
42
0.873581
0
VERTEX
8
1
10
14.840607
20
6.834793
42
-0.407018
0
VERTEX
8
1
10
14.803596
20
6.767029
42
-0.112162
0
VERTEX
8
1
10
14.705193
20
6.744492
42
-0.475002
0
VERTEX
8
1
10
14.719727
20
6.935852
42
-0.111783
0
VERTEX
8
1
10
14.847229
20
6.996124
0
VERTEX
8
1
10
14.914963
20
7.010696
42
-0.065809
0
VERTEX
8
1
10
15.342857
20
7.011383
42
-0.273751
0
VERTEX
8
1
10
15.579834
20
6.757019
42
-0.091367
0
VERTEX
8
1
10
15.584969
20
6.566559
42
0.143175
0
VERTEX
8
1
10
15.635254
20
6.302811
0
VERTEX
8
1
10
15.652649
20
6.277695
0
VERTEX
8
1
10
15.671898
20
6.257767
42
0.484409
0
VERTEX
8
1
10
15.799080
20
6.273788
42
0.124497
0
VERTEX
8
1
10
15.854866
20
6.467102
42
0.899403
0
VERTEX
8
1
10
15.792854
20
6.459061
42
-0.103364
0
VERTEX
8
1
10
15.751709
20
6.314178
42
-0.647430
0
VERTEX
8
1
10
15.709412
20
6.307877
0
VERTEX
8
1
10
15.698761
20
6.320129
42
-0.166223
0
VERTEX
8
1
10
15.646797
20
6.554947
42
0.162776
0
VERTEX
8
1
10
15.598412
20
6.880127
42
0.203971
0
SEQEND
0
POLYLINE
8
1
66
1
70
1
0
VERTEX
8
1
10
15.293198
20
6.543304
42
1.015855
0
VERTEX
8
1
10
15.355698
20
6.544312
0
VERTEX
8
1
10
15.355698
20
6.668289
42
1.015824
0
VERTEX
8
1
10
15.293198
20
6.667282
0
SEQEND
0
POLYLINE
8
1
66
1
70
1
0
VERTEX
8
1
10
14.545708
20
6.302002
42
0.164617
0
VERTEX
8
1
10
14.629402
20
6.217484
42
0.212281
0
VERTEX
8
1
10
15.125298
20
6.198898
42
0.105132
0
VERTEX
8
1
10
15.250572
20
6.287674
0
VERTEX
8
1
10
15.272758
20
6.293152
42
0.197000
0
VERTEX
8
1
10
15.441383
20
6.187698
0
VERTEX
8
1
10
15.474373
20
6.181152
42
1.273638
0
VERTEX
8
1
10
15.490738
20
6.241745
0
VERTEX
8
1
10
15.459641
20
6.247498
42
-0.210118
0
VERTEX
8
1
10
15.321770
20
6.331940
0
VERTEX
8
1
10
15.300644
20
6.357513
0
VERTEX
8
1
10
15.285538
20
6.376297
42
0.509461
0
VERTEX
8
1
10
15.235153
20
6.371887
42
-0.206250
0
VERTEX
8
1
10
15.027901
20
6.232727
42
-0.171641
0
VERTEX
8
1
10
14.664345
20
6.269623
0
VERTEX
8
1
10
14.642250
20
6.283279
42
-0.313600
0
VERTEX
8
1
10
14.599388
20
6.368240
42
-0.313215
0
VERTEX
8
1
10
14.683472
20
6.524979
0
VERTEX
8
1
10
14.712433
20
6.539063
0
VERTEX
8
1
10
14.744576
20
6.550980
0
VERTEX
8
1
10
14.779449
20
6.561081
0
VERTEX
8
1
10
14.816628
20
6.569748
0
VERTEX
8
1
10
14.855659
20
6.577347
0
VERTEX
8
1
10
14.896118
20
6.584229
42
0.048895
0
VERTEX
8
1
10
15.171471
20
6.640198
42
0.157996
0
VERTEX
8
1
10
15.313377
20
6.762054
42
0.351708
0
VERTEX
8
1
10
15.263771
20
6.940140
42
1.205622
0
VERTEX
8
1
10
15.228813
20
6.887650
42
-0.419744
0
VERTEX
8
1
10
15.245872
20
6.771179
42
-0.181279
0
VERTEX
8
1
10
15.068169
20
6.676758
42
-0.006412
0
VERTEX
8
1
10
14.800896
20
6.630341
42
0.105853
0
VERTEX
8
1
10
14.618942
20
6.557190
42
0.271408
0
VERTEX
8
1
10
14.538277
20
6.346573
42
0.087916
0
SEQEND
0
POLYLINE
8
1
66
1
70
1
0
VERTEX
8
1
10
14.888260
20
6.398727
42
-0.444979
0
VERTEX
8
1
10
14.884300
20
6.437958
42
-0.094153
0
VERTEX
8
1
10
14.930244
20
6.479874
42
0.972945
0
VERTEX
8
1
10
14.885818
20
6.524658
42
0.251538
0
VERTEX
8
1
10
14.815025
20
6.415619
42
0.318857
0
VERTEX
8
1
10
14.862328
20
6.345612
42
0.713504
0
SEQEND
0
POLYLINE
8
1
66
1
70
1
0
VERTEX
8
1
10
16.855621
20
6.444214
42
1.066859
0
VERTEX
8
1
10
16.918114
20
6.438538
0
VERTEX
8
1
10
16.918114
20
6.712845
42
0.184125
0
VERTEX
8
1
10
16.864502
20
6.881180
42
0.264528
0
VERTEX
8
1
10
16.727776
20
6.925705
42
0.921666
0
VERTEX
8
1
10
16.751381
20
6.866806
42
-0.358866
0
VERTEX
8
1
10
16.845329
20
6.790207
42
-0.073830
0
VERTEX
8
1
10
16.855621
20
6.709518
0
SEQEND
0
POLYLINE
8
1
66
1
70
1
0
VERTEX
8
1
10
17.324356
20
6.220398
42
1.000000
0
VERTEX
8
1
10
17.324356
20
6.282898
0
VERTEX
8
1
10
16.720230
20
6.282898
42
1.000000
0
VERTEX
8
1
10
16.720230
20
6.220398
0
SEQEND
0
POLYLINE
8
1
66
1
70
1
0
VERTEX
8
1
10
17.230598
20
6.752777
42
0.249617
0
VERTEX
8
1
10
17.052933
20
6.991959
42
0.185251
0
VERTEX
8
1
10
16.605110
20
7.030853
42
0.132431
0
VERTEX
8
1
10
16.412971
20
6.897781
42
0.226758
0
VERTEX
8
1
10
16.340019
20
6.526031
42
0.892278
0
VERTEX
8
1
10
16.395493
20
6.554749
42
-0.216631
0
VERTEX
8
1
10
16.462593
20
6.859940
0
VERTEX
8
1
10
16.506569
20
6.904160
0
VERTEX
8
1
10
16.564301
20
6.943512
0
VERTEX
8
1
10
16.631180
20
6.973450
42
-0.206221
0
VERTEX
8
1
10
17.056618
20
6.916763
42
-0.209297
0
VERTEX
8
1
10
17.168121
20
6.748474
0
VERTEX
8
1
10
17.168121
20
6.480927
42
1.001894
0
VERTEX
8
1
10
17.230621
20
6.480804
0
SEQEND
0
POLYLINE
8
1
66
1
70
1
0
VERTEX
8
1
10
15.952789
20
6.926773
42
0.070345
0
VERTEX
8
1
10
16.304672
20
6.963150
42
0.064472
0
VERTEX
8
1
10
16.386124
20
6.998474
42
0.891822
0
VERTEX
8
1
10
16.351967
20
7.050308
0
VERTEX
8
1
10
16.315887
20
7.033066
0
VERTEX
8
1
10
16.259682
20
7.015305
42
-0.059627
0
VERTEX
8
1
10
15.901245
20
6.990417
42
1.019331
0
VERTEX
8
1
10
15.917816
20
6.928070
42
0.007535
0
SEQEND
0
POLYLINE
8
1
66
1
70
1
0
VERTEX
8
1
10
16.074356
20
6.241226
0
VERTEX
8
1
10
16.553558
20
6.241226
42
1.000061
0
VERTEX
8
1
10
16.553558
20
6.303726
0
VERTEX
8
1
10
16.109261
20
6.303726
0
VERTEX
8
1
10
16.105675
20
6.307312
0
VERTEX
8
1
10
16.105675
20
6.751587
42
1.000321
0
VERTEX
8
1
10
16.043175
20
6.751587
0
VERTEX
8
1
10
16.043175
20
6.307327
0
VERTEX
8
1
10
16.041924
20
6.303726
0
VERTEX
8
1
10
15.886932
20
6.303726
42
1.000092
0
VERTEX
8
1
10
15.886932
20
6.241226
0
SEQEND
0
POLYLINE
8
1
66
1
70
1
0
VERTEX
8
1
10
17.587715
20
6.450455
42
0.060981
0
VERTEX
8
1
10
18.025528
20
6.409271
42
0.124972
0
VERTEX
8
1
10
18.325821
20
6.521851
0
VERTEX
8
1
10
18.371170
20
6.561478
42
0.207251
0
VERTEX
8
1
10
18.459557
20
6.775574
42
0.168775
0
VERTEX
8
1
10
18.384262
20
6.932129
42
0.202608
0
VERTEX
8
1
10
18.400215
20
6.975967
42
-0.247467
0
VERTEX
8
1
10
18.493439
20
7.111328
42
-0.179790
0
VERTEX
8
1
10
18.589867
20
7.113480
42
-0.458242
0
VERTEX
8
1
10
18.615982
20
6.985931
42
-0.049383
0
VERTEX
8
1
10
18.573143
20
6.961304
42
0.786298
0
VERTEX
8
1
10
18.604538
20
6.909256
42
0.488410
0
VERTEX
8
1
10
18.679848
20
7.103317
42
0.170612
0
VERTEX
8
1
10
18.601418
20
7.178040
42
0.385964
0
VERTEX
8
1
10
18.360199
20
7.055496
42
0.064046
0
VERTEX
8
1
10
18.336380
20
6.974274
42
0.130330
0
VERTEX
8
1
10
18.018394
20
7.043015
42
0.058303
0
VERTEX
8
1
10
17.874214
20
7.030197
42
0.901742
0
VERTEX
8
1
10
17.893372
20
6.970993
42
-0.104352
0
VERTEX
8
1
10
18.232704
20
6.951401
0
VERTEX
8
1
10
18.283165
20
6.929703
42
-0.277476
0
VERTEX
8
1
10
18.396873
20
6.759232
42
-0.224449
0
VERTEX
8
1
10
18.295464
20
6.577133
42
-0.169384
0
VERTEX
8
1
10
17.938057
20
6.471466
42
-0.049897
0
VERTEX
8
1
10
17.609680
20
6.509308
42
-0.131350
0
VERTEX
8
1
10
17.484947
20
6.682388
42
-0.289176
0
VERTEX
8
1
10
17.529823
20
6.856537
42
-0.084876
0
VERTEX
8
1
10
17.678604
20
6.957535
42
0.838319
0
VERTEX
8
1
10
17.645996
20
7.009735
42
0.134582
0
VERTEX
8
1
10
17.450066
20
6.855530
42
0.248961
0
VERTEX
8
1
10
17.432335
20
6.643661
42
0.140370
0
VERTEX
8
1
10
17.584702
20
6.451355
0
SEQEND
0
POLYLINE
8
1
66
1
70
1
0
VERTEX
8
1
10
17.807671
20
6.687027
0
VERTEX
8
1
10
17.793961
20
6.715500
0
VERTEX
8
1
10
17.790627
20
6.746445
42
-0.102807
0
VERTEX
8
1
10
17.834076
20
6.870056
42
0.990276
0
VERTEX
8
1
10
17.770226
20
6.882034
42
0.122001
0
VERTEX
8
1
10
17.728165
20
6.743362
42
0.174457
0
VERTEX
8
1
10
17.759972
20
6.646805
42
0.944623
0
SEQEND
0
POLYLINE
8
1
66
1
70
1
0
VERTEX
8
1
10
18.103676
20
6.575714
42
0.179566
0
VERTEX
8
1
10
18.132874
20
6.598831
0
VERTEX
8
1
10
18.155533
20
6.638428
0
VERTEX
8
1
10
18.167000
20
6.684921
42
0.110579
0
VERTEX
8
1
10
18.141029
20
6.895294
42
0.838943
0
VERTEX
8
1
10
18.086060
20
6.867615
42
-0.109775
0
VERTEX
8
1
10
18.101891
20
6.674667
0
VERTEX
8
1
10
18.091164
20
6.647552
0
VERTEX
8
1
10
18.075676
20
6.630203
42
0.818950
0
SEQEND
0
POLYLINE
8
1
66
1
70
1
0
VERTEX
8
1
10
18.442795
20
5.908585
42
0.254217
0
VERTEX
8
1
10
18.471397
20
5.917053
0
VERTEX
8
1
10
18.501289
20
5.950378
0
VERTEX
8
1
10
18.524246
20
5.983032
42
0.368396
0
VERTEX
8
1
10
18.480072
20
6.283691
42
0.262183
0
VERTEX
8
1
10
18.236565
20
6.361267
42
-0.016220
0
VERTEX
8
1
10
17.670784
20
6.365097
42
0.865203
0
VERTEX
8
1
10
17.677155
20
6.303741
42
0.020277
0
VERTEX
8
1
10
18.245438
20
6.299362
0
VERTEX
8
1
10
18.287788
20
6.304138
0
VERTEX
8
1
10
18.303642
20
6.305176
42
-0.306616
0
VERTEX
8
1
10
18.495468
20
6.134705
42
-0.234229
0
VERTEX
8
1
10
18.449364
20
5.985611
0
VERTEX
8
1
10
18.427208
20
5.961243
42
0.594862
0
SEQEND
0
POLYLINE
8
1
66
1
70
1
0
VERTEX
8
1
10
17.816513
20
6.094696
42
-0.027806
0
VERTEX
8
1
10
18.210167
20
6.054932
42
-0.143350
0
VERTEX
8
1
10
18.307686
20
6.014832
42
-0.425603
0
VERTEX
8
1
10
18.308243
20
5.994049
42
-0.244269
0
VERTEX
8
1
10
18.188377
20
5.887894
0
VERTEX
8
1
10
18.136292
20
5.875900
0
VERTEX
8
1
10
18.070274
20
5.869385
42
-0.062416
0
VERTEX
8
1
10
17.671379
20
5.913071
42
-0.165886
0
VERTEX
8
1
10
17.502739
20
6.047760
42
1.367475
0
VERTEX
8
1
10
17.447670
20
6.018417
0
VERTEX
8
1
10
17.455170
20
6.005753
42
0.157892
0
VERTEX
8
1
10
17.672775
20
5.845947
42
0.056057
0
VERTEX
8
1
10
18.080650
20
5.807373
42
0.137630
0
VERTEX
8
1
10
18.285828
20
5.865967
42
0.178861
0
VERTEX
8
1
10
18.376396
20
6.001221
42
0.243867
0
VERTEX
8
1
10
18.342560
20
6.068634
42
0.119909
0
VERTEX
8
1
10
18.178749
20
6.124710
42
0.011921
0
VERTEX
8
1
10
17.711739
20
6.165710
42
-0.060718
0
VERTEX
8
1
10
17.522896
20
6.197769
42
-0.427688
0
VERTEX
8
1
10
17.457932
20
6.316986
42
-0.053304
0
VERTEX
8
1
10
17.501007
20
6.413071
42
0.849983
0
VERTEX
8
1
10
17.442307
20
6.432938
42
0.142356
0
VERTEX
8
1
10
17.391647
20
6.281860
42
0.311003
0
VERTEX
8
1
10
17.493469
20
6.142517
42
0.076914
0
VERTEX
8
1
10
17.710449
20
6.103058
42
0.004598
0
SEQEND
0
POLYLINE
8
1
66
1
70
1
0
VERTEX
8
1
10
10.830612
20
4.768967
0
VERTEX
8
1
10
10.820137
20
4.760834
42
1.019867
0
VERTEX
8
1
10
10.859962
20
4.712631
42
-0.016544
0
VERTEX
8
1
10
11.716133
20
5.331238
42
-0.041195
0
VERTEX
8
1
10
12.033493
20
5.510696
0
VERTEX
8
1
10
12.073669
20
5.522995
0
VERTEX
8
1
10
12.129723
20
5.530380
42
-0.022994
0
VERTEX
8
1
10
12.896820
20
5.531189
42
-0.007346
0
VERTEX
8
1
10
15.216797
20
5.418381
0
VERTEX
8
1
10
15.293991
20
5.409546
42
-0.034477
0
VERTEX
8
1
10
15.840767
20
4.988831
42
-0.056019
0
VERTEX
8
1
10
16.011200
20
4.798431
0
VERTEX
8
1
10
16.021118
20
4.775116
42
-0.118192
0
VERTEX
8
1
10
16.022972
20
4.553970
0
VERTEX
8
1
10
16.018944
20
4.551712
0
VERTEX
8
1
10
15.184135
20
4.287018
42
1.006978
0
VERTEX
8
1
10
15.203278
20
4.227524
0
VERTEX
8
1
10
16.057518
20
4.498398
42
0.255214
0
VERTEX
8
1
10
16.087067
20
4.552948
42
0.119653
0
VERTEX
8
1
10
16.074699
20
4.814438
42
0.071619
0
VERTEX
8
1
10
15.864441
20
5.051956
42
0.037365
0
VERTEX
8
1
10
15.307266
20
5.474365
0
VERTEX
8
1
10
15.303528
20
5.475327
0
VERTEX
8
1
10
15.299698
20
5.475800
42
0.007352
0
VERTEX
8
1
10
12.847198
20
5.594803
42
0.016246
0
VERTEX
8
1
10
12.194260
20
5.596497
0
VERTEX
8
1
10
12.098816
20
5.589417
0
VERTEX
8
1
10
12.038635
20
5.578674
0
VERTEX
8
1
10
11.992859
20
5.561478
0
VERTEX
8
1
10
11.938591
20
5.535858
0
VERTEX
8
1
10
11.876991
20
5.502823
0
VERTEX
8
1
10
11.809227
20
5.463333
0
VERTEX
8
1
10
11.736427
20
5.418396
42
0.019666
0
SEQEND
0
POLYLINE
8
1
66
1
70
1
0
VERTEX
8
1
10
15.287285
20
1.845230
42
1.113335
0
VERTEX
8
1
10
15.349770
20
1.843201
42
0.008966
0
VERTEX
8
1
10
15.353485
20
3.351273
0
VERTEX
8
1
10
15.350311
20
3.399551
0
VERTEX
8
1
10
15.345749
20
3.432953
42
0.019568
0
VERTEX
8
1
10
15.177834
20
4.128723
42
0.871610
0
VERTEX
8
1
10
15.122093
20
4.101669
42
-0.022350
0
VERTEX
8
1
10
15.287476
20
3.399200
0
VERTEX
8
1
10
15.290749
20
3.356613
42
-0.009726
0
VERTEX
8
1
10
15.289787
20
2.032486
0
SEQEND
0
POLYLINE
8
1
66
1
70
1
0
VERTEX
8
1
10
11.240143
20
4.608414
42
1.083529
0
VERTEX
8
1
10
11.192032
20
4.568268
0
VERTEX
8
1
10
11.394501
20
4.284821
42
1.075661
0
VERTEX
8
1
10
11.448288
20
4.317032
0
SEQEND
0
POLYLINE
8
1
66
1
70
1
0
VERTEX
8
1
10
11.652008
20
4.319702
42
0.000007
0
VERTEX
8
1
10
13.230057
20
4.382202
0
VERTEX
8
1
10
13.756073
20
4.403046
42
0.014567
0
VERTEX
8
1
10
14.005867
20
4.900665
0
VERTEX
8
1
10
14.027870
20
4.933624
42
-0.360227
0
VERTEX
8
1
10
14.258659
20
5.004578
42
-0.147471
0
VERTEX
8
1
10
14.485199
20
4.819687
0
VERTEX
8
1
10
14.488457
20
4.821716
0
VERTEX
8
1
10
14.488457
20
5.300156
42
0.012135
0
VERTEX
8
1
10
12.974701
20
5.377686
42
0.034539
0
VERTEX
8
1
10
12.464462
20
5.361313
0
VERTEX
8
1
10
12.406563
20
5.349167
42
0.083797
0
VERTEX
8
1
10
12.035316
20
5.159103
42
0.048618
0
VERTEX
8
1
10
11.443680
20
4.632187
0
SEQEND
0
POLYLINE
8
1
66
1
70
1
0
VERTEX
8
1
10
11.225159
20
4.128464
42
0.380392
0
VERTEX
8
1
10
11.256332
20
4.100952
0
VERTEX
8
1
10
14.984245
20
4.184280
42
1.125481
0
VERTEX
8
1
10
14.978004
20
4.246643
0
VERTEX
8
1
10
11.255501
20
4.163437
42
0.443121
0
SEQEND
0
POLYLINE
8
1
66
1
70
1
0
VERTEX
8
1
10
14.815689
20
5.216553
42
0.051354
0
VERTEX
8
1
10
14.606949
20
5.280685
0
VERTEX
8
1
10
14.606949
20
4.856003
42
-0.174018
0
VERTEX
8
1
10
14.820358
20
4.753693
0
VERTEX
8
1
10
14.823898
20
4.754807
0
SEQEND
0
POLYLINE
8
1
66
1
70
1
0
VERTEX
8
1
10
15.048363
20
3.850983
42
1.028089
0
VERTEX
8
1
10
15.045212
20
3.913422
0
VERTEX
8
1
10
14.421661
20
3.892639
42
0.983803
0
VERTEX
8
1
10
14.422729
20
3.830154
0
SEQEND
0
POLYLINE
8
1
66
1
70
1
0
VERTEX
8
1
10
15.012062
20
4.529694
42
0.067428
0
VERTEX
8
1
10
15.203117
20
4.617615
42
0.264020
0
VERTEX
8
1
10
15.261833
20
4.744186
42
0.126133
0
VERTEX
8
1
10
15.209450
20
4.899185
42
0.126840
0
VERTEX
8
1
10
14.957619
20
5.149139
0
VERTEX
8
1
10
14.967590
20
4.587753
42
-0.004952
0
VERTEX
8
1
10
15.006012
20
4.528030
0
SEQEND
0
POLYLINE
8
1
66
1
70
1
0
VERTEX
8
1
10
11.037445
20
4.230667
0
VERTEX
8
1
10
11.031525
20
4.231201
0
VERTEX
8
1
10
10.759506
20
4.267456
42
0.968799
0
VERTEX
8
1
10
10.750984
20
4.205551
0
VERTEX
8
1
10
11.065468
20
4.163620
42
0.444547
0
VERTEX
8
1
10
11.099945
20
4.194733
0
VERTEX
8
1
10
11.099930
20
4.591507
42
0.506051
0
VERTEX
8
1
10
11.052956
20
4.620789
42
0.043879
0
VERTEX
8
1
10
10.447876
20
4.528778
42
0.209817
0
VERTEX
8
1
10
10.354385
20
4.457230
42
0.241324
0
VERTEX
8
1
10
10.364708
20
4.369324
42
0.124284
0
VERTEX
8
1
10
10.499146
20
4.247589
42
0.973322
0
VERTEX
8
1
10
10.513786
20
4.310287
42
-0.141377
0
VERTEX
8
1
10
10.411896
20
4.416153
0
VERTEX
8
1
10
10.410820
20
4.427765
0
VERTEX
8
1
10
10.412437
20
4.433899
42
-0.192956
0
VERTEX
8
1
10
10.481316
20
4.473755
42
-0.038686
0
VERTEX
8
1
10
11.023056
20
4.555756
0
VERTEX
8
1
10
11.037445
20
4.554123
0
SEQEND
0
POLYLINE
8
1
66
1
70
1
0
VERTEX
8
1
10
10.760834
20
4.076767
42
-0.017175
0
VERTEX
8
1
10
10.490334
20
4.059311
42
0.006914
0
VERTEX
8
1
10
10.532333
20
4.094177
42
0.817375
0
VERTEX
8
1
10
10.488899
20
4.137375
42
0.174983
0
VERTEX
8
1
10
10.414070
20
4.056412
42
0.499185
0
VERTEX
8
1
10
10.469604
20
3.997375
42
0.024185
0
VERTEX
8
1
10
10.807198
20
4.019058
42
0.903338
0
VERTEX
8
1
10
10.794769
20
4.079987
0
SEQEND
0
POLYLINE
8
1
66
1
70
1
0
VERTEX
8
1
10
11.632004
20
3.411362
42
0.001262
0
VERTEX
8
1
10
9.664070
20
3.395584
42
0.867834
0
VERTEX
8
1
10
9.673141
20
3.334366
42
-0.000116
0
VERTEX
8
1
10
15.159508
20
3.372772
42
0.885910
0
VERTEX
8
1
10
15.151649
20
3.434326
42
0.000227
0
SEQEND
0
POLYLINE
8
1
66
1
70
1
0
VERTEX
8
1
10
19.414818
20
4.810211
42
0.998613
0
VERTEX
8
1
10
19.430183
20
4.870804
0
VERTEX
8
1
10
16.375893
20
5.692734
42
0.983947
0
VERTEX
8
1
10
16.360634
20
5.632141
0
SEQEND
0
POLYLINE
8
1
66
1
70
1
0
VERTEX
8
1
10
18.292770
20
7.806320
42
-0.021385
0
VERTEX
8
1
10
18.259064
20
7.738632
0
VERTEX
8
1
10
18.261940
20
7.728561
0
VERTEX
8
1
10
18.271790
20
7.718857
0
VERTEX
8
1
10
18.282967
20
7.708221
0
VERTEX
8
1
10
18.295128
20
7.697189
42
0.295349
0
VERTEX
8
1
10
18.519432
20
7.659470
42
0.170236
0
VERTEX
8
1
10
18.468216
20
7.799286
42
-0.015123
0
VERTEX
8
1
10
18.333046
20
7.898712
42
-0.007048
0
SEQEND
0
POLYLINE
8
1
66
1
70
1
0
VERTEX
8
1
10
17.411880
20
9.466843
42
-0.207093
0
VERTEX
8
1
10
17.357628
20
9.414352
0
VERTEX
8
1
10
17.359833
20
9.412766
42
0.134253
0
VERTEX
8
1
10
17.484039
20
9.432449
42
0.013938
0
VERTEX
8
1
10
17.587860
20
9.472672
0
VERTEX
8
1
10
17.591492
20
9.478531
42
-0.022233
0
VERTEX
8
1
10
17.414406
20
9.486282
42
-0.030320
0
SEQEND
0
POLYLINE
8
1
66
1
70
1
0
VERTEX
8
1
10
14.109421
20
8.071381
42
0.135105
0
VERTEX
8
1
10
14.187843
20
8.021851
0
VERTEX
8
1
10
14.195633
20
8.022064
42
-0.034594
0
VERTEX
8
1
10
14.264931
20
8.047577
0
VERTEX
8
1
10
14.270966
20
8.047256
42
-0.165080
0
VERTEX
8
1
10
14.309669
20
8.006348
42
0.004329
0
VERTEX
8
1
10
14.371483
20
7.923004
0
VERTEX
8
1
10
14.657127
20
7.915009
42
-0.057020
0
VERTEX
8
1
10
18.088333
20
7.443497
42
-0.013509
0
VERTEX
8
1
10
18.926620
20
7.200302
42
-0.044549
0
VERTEX
8
1
10
18.979996
20
7.240723
0
VERTEX
8
1
10
18.881638
20
7.360947
42
-0.245343
0
VERTEX
8
1
10
18.615562
20
7.471008
42
-0.004152
0
VERTEX
8
1
10
18.165375
20
7.443085
0
VERTEX
8
1
10
18.132133
20
7.443207
42
-0.178821
0
VERTEX
8
1
10
17.995300
20
7.497375
42
-0.111567
0
VERTEX
8
1
10
17.922630
20
7.572464
42
-0.236232
0
VERTEX
8
1
10
17.937614
20
7.678253
42
0.090016
0
VERTEX
8
1
10
18.061958
20
8.058273
42
0.006833
0
VERTEX
8
1
10
18.080780
20
8.161942
42
-0.009137
0
VERTEX
8
1
10
18.026497
20
8.346222
0
VERTEX
8
1
10
18.020264
20
8.356918
42
0.061615
0
VERTEX
8
1
10
17.644714
20
8.648819
42
0.214540
0
VERTEX
8
1
10
17.386452
20
8.668228
42
0.040575
0
VERTEX
8
1
10
17.090042
20
8.572464
42
-0.027386
0
VERTEX
8
1
10
16.933372
20
8.490280
42
0.019496
0
VERTEX
8
1
10
16.685493
20
8.270309
42
-0.306959
0
VERTEX
8
1
10
16.536140
20
8.264511
42
-0.249061
0
VERTEX
8
1
10
16.398468
20
8.485840
0
VERTEX
8
1
10
16.400238
20
8.508011
0
VERTEX
8
1
10
16.405243
20
8.529388
42
-0.178105
0
VERTEX
8
1
10
16.535629
20
8.667496
42
0.039795
0
VERTEX
8
1
10
16.716698
20
8.898361
0
VERTEX
8
1
10
16.722374
20
8.910797
42
-0.062962
0
VERTEX
8
1
10
16.910362
20
9.165024
42
-0.044033
0
VERTEX
8
1
10
17.022415
20
9.297638
42
-0.217742
0
VERTEX
8
1
10
17.074722
20
9.314087
42
0.182367
0
VERTEX
8
1
10
17.228958
20
9.450592
42
-0.044418
0
VERTEX
8
1
10
17.274796
20
9.509460
42
-0.039834
0
VERTEX
8
1
10
17.064224
20
9.589050
0
VERTEX
8
1
10
17.046181
20
9.594910
42
0.366622
0
VERTEX
8
1
10
16.947723
20
9.564178
42
-0.027051
0
VERTEX
8
1
10
16.821426
20
9.404404
0
VERTEX
8
1
10
16.800110
20
9.384659
42
-0.177654
0
VERTEX
8
1
10
16.656998
20
9.323715
42
-0.032473
0
VERTEX
8
1
10
16.286377
20
9.333496
42
0.363000
0
VERTEX
8
1
10
16.096672
20
9.221268
42
-0.075131
0
VERTEX
8
1
10
15.935524
20
8.993927
42
-0.080826
0
VERTEX
8
1
10
15.458069
20
8.633179
0
VERTEX
8
1
10
15.337524
20
8.570892
0
VERTEX
8
1
10
15.242340
20
8.524475
42
0.096429
0
VERTEX
8
1
10
14.971565
20
8.291916
42
-0.139061
0
VERTEX
8
1
10
14.867050
20
8.175339
42
-0.210949
0
VERTEX
8
1
10
14.786583
20
8.170807
42
0.050339
0
VERTEX
8
1
10
14.506989
20
8.236450
42
0.156661
0
VERTEX
8
1
10
14.357666
20
8.199707
42
0.014410
0
SEQEND
0
POLYLINE
8
1
66
1
70
1
0
VERTEX
8
1
10
13.636307
20
8.787384
42
0.170150
0
VERTEX
8
1
10
13.640648
20
8.690308
42
-0.020742
0
VERTEX
8
1
10
13.653534
20
8.599808
42
0.197256
0
VERTEX
8
1
10
13.748192
20
8.618988
42
0.115349
0
VERTEX
8
1
10
13.783928
20
8.722427
0
VERTEX
8
1
10
14.069405
20
8.714706
42
-0.164221
0
VERTEX
8
1
10
14.019470
20
8.586166
0
VERTEX
8
1
10
14.003731
20
8.572433
0
VERTEX
8
1
10
13.986176
20
8.562714
0
VERTEX
8
1
10
13.926949
20
8.535034
42
-0.043187
0
VERTEX
8
1
10
13.742851
20
8.395569
0
VERTEX
8
1
10
13.729935
20
8.391464
0
VERTEX
8
1
10
13.738319
20
8.380463
0
VERTEX
8
1
10
13.883217
20
8.227493
0
VERTEX
8
1
10
13.884888
20
8.227188
42
-0.038421
0
VERTEX
8
1
10
14.143486
20
8.416458
0
VERTEX
8
1
10
14.164780
20
8.425400
42
-0.052927
0
VERTEX
8
1
10
14.327454
20
8.445419
42
0.040898
0
VERTEX
8
1
10
14.541382
20
8.670929
0
VERTEX
8
1
10
14.561989
20
8.701401
0
VERTEX
8
1
10
14.576912
20
8.729340
42
0.028119
0
VERTEX
8
1
10
14.686424
20
9.053253
42
-0.014879
0
VERTEX
8
1
10
14.214981
20
8.899734
42
-0.061274
0
VERTEX
8
1
10
13.690399
20
8.840073
0
VERTEX
8
1
10
13.662468
20
8.844666
0
VERTEX
8
1
10
13.648788
20
8.852280
42
0.014852
0
SEQEND
0
POLYLINE
8
1
66
1
70
1
0
VERTEX
8
1
10
12.996506
20
8.718796
42
-0.019293
0
VERTEX
8
1
10
12.959564
20
8.648682
0
VERTEX
8
1
10
12.959145
20
8.637314
0
VERTEX
8
1
10
12.968674
20
8.627350
0
VERTEX
8
1
10
12.979584
20
8.616287
42
0.309874
0
VERTEX
8
1
10
13.227867
20
8.554062
42
0.134051
0
VERTEX
8
1
10
13.192986
20
8.685867
0
VERTEX
8
1
10
13.174622
20
8.707291
42
-0.016851
0
VERTEX
8
1
10
13.039879
20
8.811462
42
-0.007185
0
SEQEND
0
POLYLINE
8
1
66
1
70
1
0
VERTEX
8
1
10
8.970856
20
7.283295
0
VERTEX
8
1
10
8.969574
20
7.286896
0
VERTEX
8
1
10
8.955788
20
7.290405
42
0.479189
0
VERTEX
8
1
10
8.890228
20
7.258438
0
SEQEND
0
POLYLINE
8
1
66
1
70
1
0
VERTEX
8
1
10
9.109039
20
7.619278
42
-0.034314
0
VERTEX
8
1
10
9.345207
20
7.803665
0
VERTEX
8
1
10
9.367332
20
7.814789
42
-0.057222
0
VERTEX
8
1
10
9.527367
20
7.840057
42
0.043337
0
VERTEX
8
1
10
9.730743
20
8.068192
0
VERTEX
8
1
10
9.748863
20
8.097977
0
VERTEX
8
1
10
9.761681
20
8.125702
42
0.029088
0
VERTEX
8
1
10
9.854141
20
8.430466
42
-0.020722
0
VERTEX
8
1
10
9.364532
20
8.259903
42
-0.057400
0
VERTEX
8
1
10
8.907280
20
8.200851
0
VERTEX
8
1
10
8.880226
20
8.204681
0
VERTEX
8
1
10
8.867844
20
8.211365
42
0.077078
0
VERTEX
8
1
10
8.856674
20
8.080170
42
-0.038543
0
VERTEX
8
1
10
8.879982
20
7.970001
42
0.185203
0
VERTEX
8
1
10
8.967484
20
7.989532
42
0.140836
0
VERTEX
8
1
10
8.999443
20
8.090530
0
VERTEX
8
1
10
9.001274
20
8.090759
0
VERTEX
8
1
10
9.271286
20
8.090744
0
VERTEX
8
1
10
9.273590
20
8.090378
42
-0.188900
0
VERTEX
8
1
10
9.219940
20
7.957550
0
VERTEX
8
1
10
9.203163
20
7.945908
0
VERTEX
8
1
10
9.142036
20
7.915329
42
-0.045530
0
VERTEX
8
1
10
8.967148
20
7.776001
0
VERTEX
8
1
10
8.955551
20
7.772766
0
SEQEND
0
POLYLINE
8
1
66
1
70
1
0
VERTEX
8
1
10
9.504402
20
7.443069
42
-0.029251
0
VERTEX
8
1
10
10.672638
20
7.719070
42
-0.023703
0
VERTEX
8
1
10
11.569420
20
7.820267
42
-0.008957
0
VERTEX
8
1
10
13.333504
20
7.894821
0
VERTEX
8
1
10
13.347900
20
7.908463
42
-0.241505
0
VERTEX
8
1
10
13.501915
20
7.991486
0
VERTEX
8
1
10
13.511436
20
7.990555
42
0.355765
0
VERTEX
8
1
10
13.595596
20
8.021057
42
-0.063554
0
VERTEX
8
1
10
13.696732
20
8.106247
0
VERTEX
8
1
10
13.597603
20
8.234314
42
-0.227899
0
VERTEX
8
1
10
13.341637
20
8.335892
0
VERTEX
8
1
10
13.319862
20
8.356506
42
-0.004044
0
VERTEX
8
1
10
12.856400
20
8.339966
0
VERTEX
8
1
10
12.821686
20
8.340881
42
-0.183983
0
VERTEX
8
1
10
12.679398
20
8.398499
42
-0.087435
0
VERTEX
8
1
10
12.604507
20
8.475266
42
-0.258810
0
VERTEX
8
1
10
12.622009
20
8.595093
42
0.080629
0
VERTEX
8
1
10
12.746437
20
8.920486
42
-0.071273
0
VERTEX
8
1
10
12.312859
20
8.934769
42
-0.031655
0
VERTEX
8
1
10
12.107513
20
9.006653
42
0.335155
0
VERTEX
8
1
10
12.012573
20
8.988129
42
-0.001249
0
VERTEX
8
1
10
11.904472
20
8.841034
0
VERTEX
8
1
10
11.886497
20
8.821091
42
-0.224372
0
VERTEX
8
1
10
11.700195
20
8.737152
42
-0.018626
0
VERTEX
8
1
10
11.342079
20
8.739639
42
0.316708
0
VERTEX
8
1
10
11.196854
20
8.623276
42
-0.089084
0
VERTEX
8
1
10
10.996277
20
8.347656
42
-0.077994
0
VERTEX
8
1
10
10.496254
20
7.989471
42
0.122916
0
VERTEX
8
1
10
10.148567
20
7.712906
42
-0.154631
0
VERTEX
8
1
10
10.044373
20
7.592896
42
-0.199842
0
VERTEX
8
1
10
9.967873
20
7.590698
42
0.051810
0
VERTEX
8
1
10
9.703705
20
7.644867
42
0.155244
0
VERTEX
8
1
10
9.565292
20
7.607193
42
0.014643
0
VERTEX
8
1
10
9.328590
20
7.476532
42
0.146609
0
VERTEX
8
1
10
9.407112
20
7.431305
0
VERTEX
8
1
10
9.414238
20
7.432205
42
-0.094241
0
VERTEX
8
1
10
9.483788
20
7.457779
42
-0.231471
0
SEQEND
0
POLYLINE
8
1
66
1
70
1
0
VERTEX
8
1
10
9.772652
20
6.586807
0
VERTEX
8
1
10
9.772636
20
7.315063
42
0.075984
0
VERTEX
8
1
10
9.770844
20
7.324203
0
VERTEX
8
1
10
9.774010
20
7.324509
0
VERTEX
8
1
10
10.095139
20
7.324509
0
VERTEX
8
1
10
10.099327
20
7.322906
0
VERTEX
8
1
10
10.464340
20
6.694260
42
1.000492
0
VERTEX
8
1
10
10.518394
20
6.725647
0
VERTEX
8
1
10
10.144363
20
7.369797
42
0.293617
0
VERTEX
8
1
10
10.114952
20
7.387009
0
VERTEX
8
1
10
9.553909
20
7.387009
42
1.006429
0
VERTEX
8
1
10
9.554314
20
7.324509
0
VERTEX
8
1
10
9.712067
20
7.324509
42
0.082234
0
VERTEX
8
1
10
9.710152
20
7.314407
0
VERTEX
8
1
10
9.710152
20
6.593262
42
-0.115762
0
VERTEX
8
1
10
9.651245
20
6.365692
0
VERTEX
8
1
10
9.631844
20
6.338226
42
-0.171472
0
VERTEX
8
1
10
9.537430
20
6.278214
42
0.881632
0
VERTEX
8
1
10
9.563751
20
6.221695
42
0.190230
0
VERTEX
8
1
10
9.694771
20
6.318436
0
VERTEX
8
1
10
9.719406
20
6.360474
42
0.089797
0
VERTEX
8
1
10
9.772667
20
6.585846
0
SEQEND
0
POLYLINE
8
1
66
1
70
1
0
VERTEX
8
1
10
9.744324
20
6.303726
42
1.027380
0
VERTEX
8
1
10
9.740311
20
6.241241
0
VERTEX
8
1
10
9.991386
20
6.241226
42
1.020998
0
VERTEX
8
1
10
9.990067
20
6.303726
0
SEQEND
0
POLYLINE
8
1
66
1
70
1
0
VERTEX
8
1
10
10.362694
20
6.204697
42
0.141222
0
VERTEX
8
1
10
10.373970
20
6.217819
0
VERTEX
8
1
10
10.903984
20
7.298233
0
VERTEX
8
1
10
10.907959
20
7.303680
0
VERTEX
8
1
10
11.365410
20
7.303680
42
1.139625
0
VERTEX
8
1
10
11.358086
20
7.366180
0
VERTEX
8
1
10
11.337120
20
7.366180
0
VERTEX
8
1
10
11.305565
20
7.366180
0
VERTEX
8
1
10
11.265633
20
7.366180
0
VERTEX
8
1
10
11.219498
20
7.366180
42
0.000715
0
VERTEX
8
1
10
10.882637
20
7.365845
42
0.235791
0
VERTEX
8
1
10
10.859718
20
7.349854
0
VERTEX
8
1
10
10.344086
20
6.298813
0
VERTEX
8
1
10
10.340416
20
6.302734
0
VERTEX
8
1
10
9.956062
20
6.975388
42
1.026413
0
VERTEX
8
1
10
9.902588
20
6.942978
0
VERTEX
8
1
10
10.317207
20
6.217392
42
0.453567
0
SEQEND
0
POLYLINE
8
1
66
1
70
1
0
VERTEX
8
1
10
11.168419
20
6.359589
42
1.065732
0
VERTEX
8
1
10
11.230919
20
6.356232
0
VERTEX
8
1
10
11.230919
20
7.126587
42
1.101744
0
VERTEX
8
1
10
11.168419
20
7.119904
0
SEQEND
0
POLYLINE
8
1
66
1
70
1
0
VERTEX
8
1
10
10.814270
20
6.359238
42
1.038721
0
VERTEX
8
1
10
10.876762
20
6.354935
0
VERTEX
8
1
10
10.876770
20
6.814117
42
1.024227
0
VERTEX
8
1
10
10.814270
20
6.812576
0
SEQEND
0
POLYLINE
8
1
66
1
70
1
0
VERTEX
8
1
10
10.658020
20
6.303726
42
0.976444
0
VERTEX
8
1
10
10.656548
20
6.241241
0
VERTEX
8
1
10
11.366318
20
6.241226
42
1.100775
0
VERTEX
8
1
10
11.359642
20
6.303726
0
SEQEND
0
POLYLINE
8
1
66
1
70
1
0
VERTEX
8
1
10
11.868942
20
6.158005
42
0.966568
0
VERTEX
8
1
10
11.865814
20
6.220367
42
-0.269344
0
VERTEX
8
1
10
11.601738
20
6.325150
0
VERTEX
8
1
10
11.565887
20
6.378891
0
VERTEX
8
1
10
11.537933
20
6.437531
42
-0.075980
0
VERTEX
8
1
10
11.479027
20
6.741440
42
0.995427
0
VERTEX
8
1
10
11.418648
20
6.717422
42
0.088273
0
VERTEX
8
1
10
11.485535
20
6.400467
42
0.135578
0
VERTEX
8
1
10
11.620789
20
6.220108
42
0.188585
0
SEQEND
0
POLYLINE
8
1
66
1
70
1
0
VERTEX
8
1
10
9.904282
20
4.101028
42
0.156738
0
VERTEX
8
1
10
9.922096
20
4.108185
0
VERTEX
8
1
10
11.630943
20
5.546143
42
0.395081
0
VERTEX
8
1
10
11.635162
20
5.588623
0
VERTEX
8
1
10
11.572876
20
5.671692
42
1.002738
0
VERTEX
8
1
10
11.522934
20
5.634109
0
VERTEX
8
1
10
11.567558
20
5.574585
0
VERTEX
8
1
10
11.557861
20
5.566315
0
VERTEX
8
1
10
9.881981
20
4.156113
42
0.726247
0
SEQEND
0
POLYLINE
8
1
66
1
70
1
0
VERTEX
8
1
10
9.684708
20
1.727356
42
1.025989
0
VERTEX
8
1
10
9.743996
20
1.747131
0
VERTEX
8
1
10
9.599403
20
2.180908
42
-0.076995
0
VERTEX
8
1
10
9.465492
20
3.073273
42
-0.027652
0
VERTEX
8
1
10
9.475677
20
3.322815
0
VERTEX
8
1
10
9.484436
20
3.362244
0
VERTEX
8
1
10
9.499496
20
3.406906
0
VERTEX
8
1
10
9.519836
20
3.455627
0
VERTEX
8
1
10
9.544426
20
3.507202
42
-0.026771
0
VERTEX
8
1
10
9.807037
20
3.935745
42
0.962363
0
VERTEX
8
1
10
9.746284
20
3.955276
42
0.041412
0
VERTEX
8
1
10
9.458672
20
3.470795
42
0.111528
0
VERTEX
8
1
10
9.407089
20
3.252304
42
0.074140
0
VERTEX
8
1
10
9.503113
20
2.283905
0
VERTEX
8
1
10
9.530815
20
2.189560
0
VERTEX
8
1
10
9.540115
20
2.161133
0
SEQEND
0
POLYLINE
8
1
66
1
70
1
0
VERTEX
8
1
10
8.588409
20
4.383469
42
0.175199
0
VERTEX
8
1
10
8.516861
20
4.233810
42
0.960212
0
VERTEX
8
1
10
8.579254
20
4.236374
42
-0.169011
0
VERTEX
8
1
10
8.634377
20
4.341217
42
0.958739
0
SEQEND
0
POLYLINE
8
1
66
1
70
1
0
VERTEX
8
1
10
4.792274
20
3.919235
42
0.601139
0
VERTEX
8
1
10
4.820526
20
3.871841
0
VERTEX
8
1
10
8.674522
20
4.059326
42
1.000001
0
VERTEX
8
1
10
8.671478
20
4.121750
0
VERTEX
8
1
10
4.817490
20
3.934265
42
0.250009
0
SEQEND
0
POLYLINE
8
1
66
1
70
1
0
VERTEX
8
1
10
3.475388
20
3.384186
42
0.650642
0
VERTEX
8
1
10
3.526100
20
3.357849
42
-0.090540
0
VERTEX
8
1
10
3.875725
20
3.533051
42
-0.045374
0
VERTEX
8
1
10
4.512527
20
3.659821
42
-0.023300
0
VERTEX
8
1
10
6.003242
20
3.765411
42
-0.003333
0
VERTEX
8
1
10
9.475258
20
3.852829
42
0.959052
0
VERTEX
8
1
10
9.454895
20
3.913300
42
0.005063
0
VERTEX
8
1
10
5.651291
20
3.814102
42
0.025838
0
VERTEX
8
1
10
4.280640
20
3.689575
42
0.063588
0
VERTEX
8
1
10
3.695557
20
3.531067
42
0.069352
0
VERTEX
8
1
10
3.482422
20
3.402084
42
0.158086
0
SEQEND
0
POLYLINE
8
1
66
1
70
1
0
VERTEX
8
1
10
3.726044
20
2.582245
42
0.389404
0
VERTEX
8
1
10
3.744965
20
2.620071
42
0.171622
0
VERTEX
8
1
10
3.139114
20
3.329269
42
0.998407
0
VERTEX
8
1
10
3.125061
20
3.266769
42
-0.161845
0
VERTEX
8
1
10
3.689659
20
2.593048
42
0.338750
0
SEQEND
0
POLYLINE
8
1
66
1
70
1
0
VERTEX
8
1
10
3.487259
20
2.163589
42
0.873581
0
VERTEX
8
1
10
3.492607
20
2.225281
42
-0.062190
0
VERTEX
8
1
10
3.091446
20
2.323151
42
1.257246
0
VERTEX
8
1
10
3.061668
20
2.267944
42
0.052387
0
VERTEX
8
1
10
3.318291
20
2.192230
42
0.039299
0
VERTEX
8
1
10
3.484322
20
2.163574
0
VERTEX
8
1
10
3.485794
20
2.163544
0
SEQEND
0
POLYLINE
8
1
66
1
70
1
0
VERTEX
8
1
10
4.005608
20
1.976074
42
0.160149
0
VERTEX
8
1
10
4.165565
20
2.030731
42
0.110588
0
VERTEX
8
1
10
4.203079
20
2.081451
42
0.176845
0
VERTEX
8
1
10
4.200455
20
2.109756
42
0.266954
0
VERTEX
8
1
10
4.049591
20
2.272446
0
VERTEX
8
1
10
4.010010
20
2.284943
42
0.009464
0
VERTEX
8
1
10
3.712952
20
2.338715
42
-0.070308
0
VERTEX
8
1
10
3.367577
20
2.454468
42
1.011925
0
VERTEX
8
1
10
3.355988
20
2.391037
42
0.080180
0
VERTEX
8
1
10
3.829239
20
2.255661
42
-0.043462
0
VERTEX
8
1
10
4.030922
20
2.212723
42
-0.285456
0
VERTEX
8
1
10
4.137085
20
2.091461
42
-0.206178
0
VERTEX
8
1
10
4.004112
20
2.038834
0
VERTEX
8
1
10
3.468170
20
2.080078
42
1.027659
0
VERTEX
8
1
10
3.463379
20
2.017761
0
SEQEND
0
POLYLINE
8
1
66
1
70
1
0
VERTEX
8
1
10
4.317543
20
1.726089
0
VERTEX
8
1
10
4.346146
20
1.726059
42
0.631768
0
VERTEX
8
1
10
4.389763
20
1.768997
0
VERTEX
8
1
10
4.348709
20
1.892181
42
0.316801
0
VERTEX
8
1
10
4.319641
20
1.913605
0
VERTEX
8
1
10
4.010124
20
1.934235
42
1.073311
0
VERTEX
8
1
10
4.007561
20
1.871780
0
VERTEX
8
1
10
4.295677
20
1.852570
42
-0.070205
0
VERTEX
8
1
10
4.316910
20
1.788574
0
VERTEX
8
1
10
4.153595
20
1.788589
42
1.043928
0
VERTEX
8
1
10
4.153915
20
1.726074
0
SEQEND
0
POLYLINE
8
1
66
1
70
1
0
VERTEX
8
1
10
4.217339
20
1.621933
42
1.078741
0
VERTEX
8
1
10
4.217331
20
1.559433
0
VERTEX
8
1
10
4.360710
20
1.559433
42
1.000031
0
VERTEX
8
1
10
4.360710
20
1.621933
0
SEQEND
0
POLYLINE
8
1
66
1
70
1
0
VERTEX
8
1
10
4.015823
20
3.175064
42
-0.008063
0
VERTEX
8
1
10
8.869644
20
3.327332
42
-0.000601
0
VERTEX
8
1
10
9.321648
20
3.331665
42
0.957171
0
VERTEX
8
1
10
9.318718
20
3.394043
42
0.009277
0
VERTEX
8
1
10
4.067085
20
3.240051
42
0.004243
0
VERTEX
8
1
10
3.772186
20
3.225571
42
0.926387
0
VERTEX
8
1
10
3.777840
20
3.163513
0
SEQEND
0
POLYLINE
8
1
66
1
70
1
0
VERTEX
8
1
10
7.605873
20
2.522217
42
0.412234
0
VERTEX
8
1
10
7.616570
20
2.564941
42
0.091875
0
VERTEX
8
1
10
7.329277
20
2.828415
42
0.907489
0
VERTEX
8
1
10
7.303017
20
2.772003
42
-0.085252
0
VERTEX
8
1
10
7.571564
20
2.523499
42
0.299329
0
SEQEND
0
POLYLINE
8
1
66
1
70
1
0
VERTEX
8
1
10
4.553925
20
2.497421
42
0.252226
0
VERTEX
8
1
10
4.584618
20
2.528168
42
-0.216087
0
VERTEX
8
1
10
5.556885
20
3.150787
0
VERTEX
8
1
10
5.719185
20
3.163818
42
0.917176
0
VERTEX
8
1
10
5.715805
20
3.225998
42
0.256609
0
VERTEX
8
1
10
4.518112
20
2.536606
42
0.556382
0
SEQEND
0
POLYLINE
8
1
66
1
70
1
0
VERTEX
8
1
10
4.782822
20
1.581497
42
0.388145
0
VERTEX
8
1
10
4.813934
20
1.609955
42
-0.245652
0
VERTEX
8
1
10
5.389793
20
2.666138
42
-0.032191
0
VERTEX
8
1
10
5.604019
20
2.788025
42
0.837012
0
VERTEX
8
1
10
5.573448
20
2.841431
42
0.218907
0
VERTEX
8
1
10
4.803162
20
1.961838
42
0.074475
0
VERTEX
8
1
10
4.752403
20
1.605499
42
0.347396
0
SEQEND
0
POLYLINE
8
1
66
1
70
1
0
VERTEX
8
1
10
7.146782
20
2.060577
42
0.637808
0
VERTEX
8
1
10
7.180840
20
2.105881
0
VERTEX
8
1
10
7.147408
20
2.164215
0
VERTEX
8
1
10
7.110893
20
2.219955
42
0.501704
0
VERTEX
8
1
10
5.396210
20
2.288788
42
0.259893
0
VERTEX
8
1
10
5.199318
20
1.213745
42
0.837436
0
VERTEX
8
1
10
5.253723
20
1.242508
42
-0.344326
0
VERTEX
8
1
10
5.710526
20
2.479309
42
-0.414044
0
VERTEX
8
1
10
7.094200
20
2.131409
0
VERTEX
8
1
10
7.125717
20
2.076416
42
0.221502
0
SEQEND
0
POLYLINE
8
1
66
1
70
1
0
VERTEX
8
1
10
6.383202
20
1.395630
0
VERTEX
8
1
10
6.386276
20
1.397156
0
VERTEX
8
1
10
6.851479
20
1.248291
42
1.001053
0
VERTEX
8
1
10
6.869629
20
1.308105
0
VERTEX
8
1
10
6.350349
20
1.474243
42
0.587162
0
VERTEX
8
1
10
6.309196
20
1.438385
0
VERTEX
8
1
10
6.432983
20
0.901947
42
1.089198
0
VERTEX
8
1
10
6.495216
20
0.910233
0
SEQEND
0
POLYLINE
8
1
66
1
70
1
0
VERTEX
8
1
10
5.874855
20
1.667099
0
VERTEX
8
1
10
5.877434
20
1.663223
0
VERTEX
8
1
10
5.393044
20
1.495544
42
1.013160
0
VERTEX
8
1
10
5.412376
20
1.436096
0
VERTEX
8
1
10
5.954735
20
1.623840
42
0.586529
0
VERTEX
8
1
10
5.963303
20
1.677719
0
VERTEX
8
1
10
5.503708
20
2.032837
42
0.978855
0
VERTEX
8
1
10
5.466545
20
1.982590
0
SEQEND
0
POLYLINE
8
1
66
1
70
1
0
VERTEX
8
1
10
6.039436
20
1.350830
0
VERTEX
8
1
10
6.058563
20
0.777176
42
1.000418
0
VERTEX
8
1
10
6.121017
20
0.779266
0
VERTEX
8
1
10
6.100189
20
1.404221
42
0.562462
0
VERTEX
8
1
10
6.053688
20
1.430435
0
VERTEX
8
1
10
5.532875
20
1.138794
42
1.000210
0
VERTEX
8
1
10
5.563408
20
1.084274
0
SEQEND
0
POLYLINE
8
1
66
1
70
1
0
VERTEX
8
1
10
6.138680
20
1.518600
0
VERTEX
8
1
10
6.233353
20
1.540451
42
0.990857
0
VERTEX
8
1
10
6.221397
20
1.601807
0
VERTEX
8
1
10
6.143829
20
1.583939
0
VERTEX
8
1
10
6.127388
20
1.580139
42
1.051845
0
SEQEND
0
POLYLINE
8
1
66
1
70
1
0
VERTEX
8
1
10
6.451393
20
2.369034
42
0.981357
0
VERTEX
8
1
10
6.395325
20
2.396606
0
VERTEX
8
1
10
6.149529
20
1.867279
0
VERTEX
8
1
10
6.146088
20
1.870071
0
VERTEX
8
1
10
5.867981
20
2.333572
42
1.073745
0
VERTEX
8
1
10
5.813995
20
2.302078
0
VERTEX
8
1
10
6.125923
20
1.782242
42
0.593283
0
VERTEX
8
1
10
6.180634
20
1.785843
0
SEQEND
0
POLYLINE
8
1
66
1
70
1
0
VERTEX
8
1
10
6.918892
20
1.580551
42
0.992979
0
VERTEX
8
1
10
6.927719
20
1.642410
0
VERTEX
8
1
10
6.446922
20
1.716370
0
VERTEX
8
1
10
6.443207
20
1.718536
0
VERTEX
8
1
10
6.799690
20
2.131317
42
1.037783
0
VERTEX
8
1
10
6.753273
20
2.173172
0
VERTEX
8
1
10
6.360756
20
1.718689
42
0.633104
0
VERTEX
8
1
10
6.376686
20
1.663940
0
SEQEND
0
POLYLINE
8
1
66
1
70
1
0
VERTEX
8
1
10
7.312370
20
1.630478
42
0.067108
0
VERTEX
8
1
10
7.273758
20
1.862839
42
0.853997
0
VERTEX
8
1
10
7.219315
20
1.833389
42
-0.323521
0
VERTEX
8
1
10
6.753647
20
0.668930
42
-0.398031
0
VERTEX
8
1
10
5.393944
20
0.957428
42
1.038265
0
VERTEX
8
1
10
5.354568
20
0.906448
42
0.492884
0
VERTEX
8
1
10
7.051369
20
0.845413
42
0.189554
0
SEQEND
0
POLYLINE
8
1
66
1
70
1
0
VERTEX
8
1
10
7.274399
20
0.663879
42
0.364877
0
VERTEX
8
1
10
7.388466
20
2.379471
42
0.813768
0
VERTEX
8
1
10
7.344208
20
2.337173
42
-0.362746
0
VERTEX
8
1
10
7.225426
20
0.702301
42
0.913182
0
SEQEND
0
POLYLINE
8
1
66
1
70
1
0
VERTEX
8
1
10
16.679291
20
1.900742
42
1.061958
0
VERTEX
8
1
10
16.616676
20
1.901764
42
0.125598
0
VERTEX
8
1
10
16.730286
20
1.235031
42
0.816793
0
VERTEX
8
1
10
16.782661
20
1.266785
42
-0.121779
0
SEQEND
0
POLYLINE
8
1
66
1
70
1
0
VERTEX
8
1
10
17.051567
20
1.430573
42
0.232993
0
VERTEX
8
1
10
17.057281
20
1.457611
42
-0.396634
0
VERTEX
8
1
10
17.727715
20
2.877594
42
-0.377551
0
VERTEX
8
1
10
19.105019
20
2.352524
42
0.860976
0
VERTEX
8
1
10
19.155602
20
2.388046
42
0.575953
0
VERTEX
8
1
10
17.129570
20
2.466507
42
0.228758
0
VERTEX
8
1
10
17.001511
20
1.431824
42
0.501367
0
SEQEND
0
POLYLINE
8
1
66
1
70
1
0
VERTEX
8
1
10
18.287247
20
1.621277
0
VERTEX
8
1
10
18.284927
20
1.631668
0
VERTEX
8
1
10
18.800354
20
1.468552
42
1.016357
0
VERTEX
8
1
10
18.816544
20
1.528976
42
0.005499
0
VERTEX
8
1
10
18.241020
20
1.709305
42
0.463507
0
VERTEX
8
1
10
18.211258
20
1.672058
0
VERTEX
8
1
10
18.347328
20
1.088730
42
1.017922
0
VERTEX
8
1
10
18.408440
20
1.101868
0
SEQEND
0
POLYLINE
8
1
66
1
70
1
0
VERTEX
8
1
10
17.745468
20
1.913132
42
-0.004314
0
VERTEX
8
1
10
17.207596
20
1.728638
42
0.935474
0
VERTEX
8
1
10
17.230927
20
1.670807
0
VERTEX
8
1
10
17.816940
20
1.871429
42
0.654593
0
VERTEX
8
1
10
17.829033
20
1.927933
0
VERTEX
8
1
10
17.330238
20
2.309143
42
0.986340
0
VERTEX
8
1
10
17.292969
20
2.258972
0
SEQEND
0
POLYLINE
8
1
66
1
70
1
0
VERTEX
8
1
10
17.915977
20
1.580276
0
VERTEX
8
1
10
17.917702
20
1.575592
0
VERTEX
8
1
10
17.938522
20
0.958298
42
0.974546
0
VERTEX
8
1
10
18.000969
20
0.960403
0
VERTEX
8
1
10
17.978210
20
1.635300
42
0.578803
0
VERTEX
8
1
10
17.929283
20
1.659073
0
VERTEX
8
1
10
17.364838
20
1.346451
42
1.001946
0
VERTEX
8
1
10
17.395218
20
1.291840
0
SEQEND
0
POLYLINE
8
1
66
1
70
1
0
VERTEX
8
1
10
18.021858
20
1.759750
0
VERTEX
8
1
10
18.121483
20
1.782471
42
1.077281
0
VERTEX
8
1
10
18.112076
20
1.844421
0
VERTEX
8
1
10
18.009888
20
1.821121
42
1.026572
0
SEQEND
0
POLYLINE
8
1
66
1
70
1
0
VERTEX
8
1
10
18.359032
20
2.670288
42
1.100676
0
VERTEX
8
1
10
18.303566
20
2.699234
0
VERTEX
8
1
10
18.034447
20
2.125916
0
VERTEX
8
1
10
18.029793
20
2.132843
0
VERTEX
8
1
10
17.727776
20
2.630707
42
1.111017
0
VERTEX
8
1
10
17.671059
20
2.603699
0
VERTEX
8
1
10
18.010048
20
2.044876
42
0.618698
0
VERTEX
8
1
10
18.066048
20
2.046173
0
SEQEND
0
POLYLINE
8
1
66
1
70
1
0
VERTEX
8
1
10
18.873116
20
1.826538
42
1.066686
0
VERTEX
8
1
10
18.876625
20
1.889191
0
VERTEX
8
1
10
18.350868
20
1.969208
0
VERTEX
8
1
10
18.351013
20
1.972763
0
VERTEX
8
1
10
18.738998
20
2.417114
42
1.084403
0
VERTEX
8
1
10
18.693909
20
2.460510
0
VERTEX
8
1
10
18.263367
20
1.967407
42
0.585572
0
VERTEX
8
1
10
18.282570
20
1.916382
0
SEQEND
0
POLYLINE
8
1
66
1
70
1
0
VERTEX
8
1
10
19.298805
20
1.862335
42
0.062971
0
VERTEX
8
1
10
19.257393
20
2.125687
42
0.834924
0
VERTEX
8
1
10
19.201469
20
2.100067
42
-0.384143
0
VERTEX
8
1
10
18.489693
20
0.742645
42
-0.335099
0
VERTEX
8
1
10
17.209572
20
1.151947
42
0.879813
0
VERTEX
8
1
10
17.164200
20
1.109695
42
0.531344
0
VERTEX
8
1
10
19.104538
20
1.154846
42
0.155695
0
SEQEND
0
POLYLINE
8
1
66
1
70
1
0
VERTEX
8
1
10
19.552856
20
1.898666
42
0.903403
0
VERTEX
8
1
10
19.615028
20
1.897217
0
VERTEX
8
1
10
19.610703
20
1.948029
42
0.278635
0
VERTEX
8
1
10
18.691994
20
3.130066
42
0.752558
0
VERTEX
8
1
10
18.668175
20
3.074921
42
-0.142152
0
VERTEX
8
1
10
19.307014
20
2.576019
42
-0.134572
0
SEQEND
0
POLYLINE
8
1
66
1
70
1
0
VERTEX
8
1
10
19.780777
20
2.755203
42
0.140984
0
VERTEX
8
1
10
19.236450
20
3.141006
42
0.085555
0
VERTEX
8
1
10
18.528542
20
3.253693
42
0.030875
0
VERTEX
8
1
10
17.733345
20
3.193130
42
0.211329
0
VERTEX
8
1
10
16.801735
20
2.617767
0
VERTEX
8
1
10
16.764671
20
2.563034
0
VERTEX
8
1
10
16.729263
20
2.506012
0
VERTEX
8
1
10
16.695572
20
2.446686
42
0.108645
0
VERTEX
8
1
10
16.429939
20
1.459671
42
-0.274045
0
VERTEX
8
1
10
16.350250
20
1.386917
42
-0.079336
0
VERTEX
8
1
10
16.207611
20
1.371826
42
-0.001501
0
VERTEX
8
1
10
8.438148
20
1.246231
0
VERTEX
8
1
10
8.235985
20
1.244919
0
VERTEX
8
1
10
8.098633
20
1.244980
0
VERTEX
8
1
10
8.043747
20
1.277542
42
0.051991
0
VERTEX
8
1
10
7.793732
20
1.991028
42
0.089435
0
VERTEX
8
1
10
7.275726
20
2.677673
0
VERTEX
8
1
10
7.220726
20
2.717972
0
VERTEX
8
1
10
7.138809
20
2.768890
42
0.086452
0
VERTEX
8
1
10
6.557396
20
2.959946
42
0.090072
0
VERTEX
8
1
10
5.265724
20
2.920578
42
0.034079
0
VERTEX
8
1
10
5.161163
20
2.890289
0
VERTEX
8
1
10
5.060684
20
2.842468
42
0.246328
0
VERTEX
8
1
10
4.547729
20
2.100220
42
0.094685
0
VERTEX
8
1
10
4.562668
20
1.637741
42
0.948739
0
VERTEX
8
1
10
4.618919
20
1.666580
42
-0.132224
0
VERTEX
8
1
10
4.666420
20
2.313538
42
-0.201620
0
VERTEX
8
1
10
5.139748
20
2.812332
0
VERTEX
8
1
10
5.178825
20
2.829880
0
VERTEX
8
1
10
5.199036
20
2.837219
0
VERTEX
8
1
10
5.218239
20
2.843170
0
VERTEX
8
1
10
5.239777
20
2.849274
0
VERTEX
8
1
10
5.263580
20
2.855484
42
-0.094694
0
VERTEX
8
1
10
6.586250
20
2.891556
42
-0.096429
0
VERTEX
8
1
10
7.160789
20
2.682770
42
-0.068810
0
VERTEX
8
1
10
7.298386
20
2.568115
42
-0.122871
0
VERTEX
8
1
10
7.883995
20
1.603470
42
-0.016914
0
VERTEX
8
1
10
7.999825
20
1.200577
42
0.273543
0
VERTEX
8
1
10
8.052841
20
1.183350
42
0.008912
0
VERTEX
8
1
10
8.691719
20
1.186432
42
0.000914
0
VERTEX
8
1
10
16.281898
20
1.310379
42
0.205657
0
VERTEX
8
1
10
16.463509
20
1.388855
42
0.184903
0
VERTEX
8
1
10
16.495728
20
1.501236
42
-0.112188
0
VERTEX
8
1
10
16.778389
20
2.466736
0
VERTEX
8
1
10
16.812149
20
2.522202
0
VERTEX
8
1
10
16.847404
20
2.575333
42
-0.214902
0
VERTEX
8
1
10
17.733940
20
3.130112
42
-0.015207
0
VERTEX
8
1
10
18.336067
20
3.187225
42
-0.067387
0
VERTEX
8
1
10
19.026962
20
3.137375
42
-0.117097
0
VERTEX
8
1
10
19.575226
20
2.877197
42
-0.066715
0
VERTEX
8
1
10
19.745697
20
2.693558
0
VERTEX
8
1
10
19.770477
20
2.649704
0
VERTEX
8
1
10
19.792747
20
2.605118
0
VERTEX
8
1
10
19.812653
20
2.560028
42
-0.106659
0
VERTEX
8
1
10
19.912155
20
1.921036
42
0.977798
0
VERTEX
8
1
10
19.974777
20
1.925827
42
0.117053
0
VERTEX
8
1
10
19.854301
20
2.621414
42
0.037352
0
SEQEND
0
POLYLINE
8
1
66
1
70
1
0
VERTEX
8
1
10
19.484932
20
3.184326
42
0.742340
0
VERTEX
8
1
10
19.502289
20
3.241577
42
0.082460
0
VERTEX
8
1
10
19.172966
20
3.371841
42
1.016575
0
VERTEX
8
1
10
19.174316
20
3.308029
42
-0.077909
0
VERTEX
8
1
10
19.475891
20
3.185669
0
VERTEX
8
1
10
19.480362
20
3.184662
0
SEQEND
0
POLYLINE
8
1
66
1
70
1
0
VERTEX
8
1
10
21.672325
20
4.746689
42
1.000000
0
VERTEX
8
1
10
21.672325
20
4.809189
0
VERTEX
8
1
10
21.193169
20
4.809189
42
1.000000
0
VERTEX
8
1
10
21.193169
20
4.746689
0
SEQEND
0
POLYLINE
8
1
66
1
70
1
0
VERTEX
8
1
10
21.036774
20
4.412094
42
1.136490
0
VERTEX
8
1
10
21.024719
20
4.350754
0
VERTEX
8
1
10
21.146996
20
4.330368
42
0.993234
0
VERTEX
8
1
10
21.156425
20
4.392151
0
SEQEND
0
POLYLINE
8
1
66
1
70
1
0
VERTEX
8
1
10
20.900780
20
4.465637
0
VERTEX
8
1
10
20.902222
20
4.466064
0
VERTEX
8
1
10
21.109848
20
4.652939
42
0.060327
0
VERTEX
8
1
10
20.232880
20
4.717850
42
0.025802
0
VERTEX
8
1
10
20.027321
20
4.694412
0
SEQEND
0
POLYLINE
8
1
66
1
70
1
0
VERTEX
8
1
10
17.942863
20
4.379822
42
0.301270
0
VERTEX
8
1
10
17.893829
20
4.363297
42
0.602824
0
VERTEX
8
1
10
17.926147
20
4.317535
42
-0.009211
0
VERTEX
8
1
10
20.608154
20
4.228439
42
-0.002915
0
VERTEX
8
1
10
21.316971
20
4.179398
42
0.860494
0
VERTEX
8
1
10
21.313194
20
4.241089
0
VERTEX
8
1
10
21.131767
20
4.256165
0
VERTEX
8
1
10
20.940277
20
4.270187
0
VERTEX
8
1
10
20.740570
20
4.283173
42
0.010082
0
SEQEND
0
POLYLINE
8
1
66
1
70
1
0
VERTEX
8
1
10
19.374794
20
7.218826
42
0.124536
0
VERTEX
8
1
10
19.448830
20
7.173706
0
VERTEX
8
1
10
19.459236
20
7.174072
42
-0.085220
0
VERTEX
8
1
10
19.531242
20
7.199768
0
VERTEX
8
1
10
19.538811
20
7.197083
0
VERTEX
8
1
10
19.545860
20
7.191498
42
0.006966
0
VERTEX
8
1
10
19.758087
20
6.922623
42
-0.016047
0
VERTEX
8
1
10
19.718719
20
6.911453
42
0.053306
0
VERTEX
8
1
10
19.772888
20
6.891907
42
0.284644
0
VERTEX
8
1
10
19.820641
20
6.924957
42
0.070385
0
VERTEX
8
1
10
19.851570
20
7.073029
42
-0.094991
0
VERTEX
8
1
10
19.921204
20
7.306564
42
-0.087568
0
VERTEX
8
1
10
19.960075
20
7.345337
42
0.077714
0
VERTEX
8
1
10
19.728554
20
7.386795
42
0.130372
0
VERTEX
8
1
10
19.617905
20
7.352448
42
0.014607
0
SEQEND
0
POLYLINE
8
1
66
1
70
1
0
VERTEX
8
1
10
20.596359
20
6.977188
42
-0.182540
0
VERTEX
8
1
10
20.559875
20
6.916275
42
-0.171264
0
VERTEX
8
1
10
20.481155
20
6.864182
42
0.106182
0
VERTEX
8
1
10
20.413979
20
6.854904
0
VERTEX
8
1
10
20.409309
20
6.850494
42
-0.378291
0
VERTEX
8
1
10
20.386063
20
6.843933
42
0.210218
0
VERTEX
8
1
10
20.289726
20
6.826767
42
-0.156803
0
VERTEX
8
1
10
20.201180
20
6.832367
42
0.164184
0
VERTEX
8
1
10
20.116966
20
6.845352
42
0.022784
0
VERTEX
8
1
10
20.025276
20
6.844681
0
VERTEX
8
1
10
20.006485
20
6.840546
42
0.479979
0
VERTEX
8
1
10
19.992310
20
6.768784
42
0.489330
0
VERTEX
8
1
10
20.043922
20
6.783981
42
-0.009045
0
VERTEX
8
1
10
20.163277
20
6.781097
42
0.196122
0
VERTEX
8
1
10
20.321297
20
6.772308
42
-0.245353
0
VERTEX
8
1
10
20.379196
20
6.781799
42
0.225696
0
VERTEX
8
1
10
20.453728
20
6.801147
42
0.246584
0
VERTEX
8
1
10
20.594780
20
6.863129
42
0.185217
0
VERTEX
8
1
10
20.664993
20
6.989746
0
VERTEX
8
1
10
20.668869
20
6.998245
42
1.087668
0
VERTEX
8
1
10
20.623756
20
7.046387
42
0.258700
0
VERTEX
8
1
10
20.584763
20
6.998657
42
0.203505
0
SEQEND
0
POLYLINE
8
1
66
1
70
1
0
VERTEX
8
1
10
21.300247
20
7.078796
42
0.162958
0
VERTEX
8
1
10
21.387909
20
7.134827
42
0.269723
0
VERTEX
8
1
10
21.386353
20
7.215393
0
VERTEX
8
1
10
21.384979
20
7.218414
42
0.673815
0
VERTEX
8
1
10
21.342644
20
7.261932
42
0.625453
0
VERTEX
8
1
10
21.323219
20
7.206604
42
-0.007362
0
VERTEX
8
1
10
21.336067
20
7.169876
42
-0.124859
0
VERTEX
8
1
10
21.288391
20
7.140762
42
0.129291
0
VERTEX
8
1
10
21.165283
20
7.156219
42
-0.179152
0
VERTEX
8
1
10
21.083557
20
7.170425
0
VERTEX
8
1
10
21.070824
20
7.174423
42
0.035545
0
VERTEX
8
1
10
20.975433
20
7.176926
42
-0.394871
0
VERTEX
8
1
10
20.968361
20
7.183853
0
VERTEX
8
1
10
20.963875
20
7.188171
0
VERTEX
8
1
10
20.958618
20
7.191513
42
0.030412
0
VERTEX
8
1
10
20.861336
20
7.202164
42
-0.008450
0
VERTEX
8
1
10
20.789574
20
7.240372
42
0.994947
0
VERTEX
8
1
10
20.775978
20
7.177917
42
0.200787
0
VERTEX
8
1
10
20.918671
20
7.135406
0
VERTEX
8
1
10
20.924301
20
7.135010
42
0.217940
0
VERTEX
8
1
10
21.024979
20
7.115692
42
-0.138447
0
VERTEX
8
1
10
21.098198
20
7.097641
42
0.086524
0
VERTEX
8
1
10
21.208328
20
7.096680
42
-0.066058
0
VERTEX
8
1
10
21.266869
20
7.080917
42
0.085365
0
SEQEND
0
POLYLINE
8
1
66
1
70
1
0
VERTEX
8
1
10
21.406013
20
6.979187
0
VERTEX
8
1
10
21.406349
20
6.978638
42
0.100056
0
VERTEX
8
1
10
21.392990
20
6.901154
42
-0.156377
0
VERTEX
8
1
10
21.333656
20
6.710632
42
0.047734
0
VERTEX
8
1
10
21.274712
20
6.591858
42
0.424882
0
VERTEX
8
1
10
21.321205
20
6.551529
42
0.628299
0
VERTEX
8
1
10
21.366539
20
6.628433
0
VERTEX
8
1
10
21.361328
20
6.632431
42
0.033631
0
VERTEX
8
1
10
21.438904
20
6.786026
0
VERTEX
8
1
10
21.444580
20
6.806274
0
VERTEX
8
1
10
21.448593
20
6.826431
0
VERTEX
8
1
10
21.451347
20
6.846436
42
-0.058304
0
VERTEX
8
1
10
21.462997
20
6.950745
42
0.439095
0
VERTEX
8
1
10
21.432838
20
7.032516
42
0.711210
0
SEQEND
0
POLYLINE
8
1
66
1
70
1
0
VERTEX
8
1
10
22.485588
20
6.860077
42
-0.054300
0
VERTEX
8
1
10
22.391891
20
6.799744
0
VERTEX
8
1
10
22.383141
20
6.793304
42
-0.009545
0
VERTEX
8
1
10
22.250305
20
6.661484
42
-0.001992
0
VERTEX
8
1
10
22.039841
20
6.425201
0
VERTEX
8
1
10
22.020325
20
6.407242
42
1.151593
0
VERTEX
8
1
10
22.052177
20
6.352402
0
VERTEX
8
1
10
22.073387
20
6.370911
42
0.026697
0
VERTEX
8
1
10
22.265526
20
6.586365
0
VERTEX
8
1
10
22.285927
20
6.608383
0
VERTEX
8
1
10
22.307251
20
6.630035
42
0.023764
0
VERTEX
8
1
10
22.418510
20
6.741516
0
VERTEX
8
1
10
22.425690
20
6.747070
0
VERTEX
8
1
10
22.430901
20
6.750656
0
VERTEX
8
1
10
22.436424
20
6.754135
42
0.125502
0
VERTEX
8
1
10
22.561821
20
6.849213
42
0.101287
0
VERTEX
8
1
10
22.665329
20
6.947617
42
1.025497
0
VERTEX
8
1
10
22.604317
20
6.969589
0
VERTEX
8
1
10
22.592659
20
6.955872
42
-0.009497
0
VERTEX
8
1
10
22.505371
20
6.881409
42
-0.000898
0
SEQEND
0
POLYLINE
8
1
66
1
70
1
0
VERTEX
8
1
10
8.195457
20
1.413635
42
-0.010574
0
VERTEX
8
1
10
9.824631
20
1.476059
0
VERTEX
8
1
10
9.939781
20
1.476425
42
0.001476
0
VERTEX
8
1
10
16.286407
20
1.581772
42
0.862474
0
VERTEX
8
1
10
16.276222
20
1.642761
42
-0.001056
0
VERTEX
8
1
10
10.197060
20
1.541763
0
VERTEX
8
1
10
9.883324
20
1.538635
42
0.013012
0
VERTEX
8
1
10
8.182129
20
1.473816
42
0.846694
0
SEQEND
0
ENDSEC
0
EOF
